ISO-10303-21;
HEADER;
FILE_DESCRIPTION (( 'STEP AP214' ),
    '1' );
FILE_NAME ('59561.STEP',
    '2023-07-24T15:11:09',
    ( '' ),
    ( '' ),
    'SwSTEP 2.0',
    'SolidWorks 2023',
    '' );
FILE_SCHEMA (( 'AUTOMOTIVE_DESIGN' ));
ENDSEC;

DATA;
#1 = SURFACE_STYLE_USAGE ( .BOTH. , #3 ) ;
#2 = CIRCLE ( 'NONE', #123, 8.000000000000000000 ) ;
#3 = SURFACE_SIDE_STYLE ('',( #312 ) ) ;
#4 = UNCERTAINTY_MEASURE_WITH_UNIT (LENGTH_MEASURE( 1.000000000000000082E-05 ), #298, 'distance_accuracy_value', 'NONE');
#5 = AXIS2_PLACEMENT_3D ( 'NONE', #144, #177, #310 ) ;
#6 = FILL_AREA_STYLE ('',( #60 ) ) ;
#7 = EDGE_CURVE ( 'NONE', #264, #93, #25, .T. ) ;
#8 = PRESENTATION_STYLE_ASSIGNMENT (( #333 ) ) ;
#9 = FACE_OUTER_BOUND ( 'NONE', #222, .T. ) ;
#10 = VERTEX_POINT ( 'NONE', #51 ) ;
#11 = AXIS2_PLACEMENT_3D ( 'NONE', #309, #99, #234 ) ;
#12 = FILL_AREA_STYLE ('',( #31 ) ) ;
#13 =( LENGTH_UNIT ( ) NAMED_UNIT ( * ) SI_UNIT ( .MILLI., .METRE. ) );
#14 = COLOUR_RGB ( '',0.7921568627450980005, 0.8196078431372548767, 0.9333333333333333481 ) ;
#15 = PRESENTATION_STYLE_ASSIGNMENT (( #1 ) ) ;
#16 = DIRECTION ( 'NONE',  ( -1.279215233315390572E-16, 1.000000000000000000, -0.000000000000000000 ) ) ;
#17 = CARTESIAN_POINT ( 'NONE',  ( 0.000000000000000000, 40.00000000000000000, -8.000000000000000000 ) ) ;
#18 = FILL_AREA_STYLE_COLOUR ( '', #14 ) ;
#19 = ORIENTED_EDGE ( 'NONE', *, *, #143, .T. ) ;
#20 = FILL_AREA_STYLE_COLOUR ( '', #67 ) ;
#21 = DIRECTION ( 'NONE',  ( -1.279215233315390572E-16, 1.000000000000000000, -0.000000000000000000 ) ) ;
#22 = EDGE_LOOP ( 'NONE', ( #188, #50, #335, #197 ) ) ;
#23 = DIRECTION ( 'NONE',  ( 1.000000000000000000, 0.000000000000000000, -1.224646799147353207E-16 ) ) ;
#24 = STYLED_ITEM ( 'NONE', ( #330 ), #180 ) ;
#25 = LINE ( 'NONE', #81, #238 ) ;
#26 = CIRCLE ( 'NONE', #273, 0.5000000000000004441 ) ;
#27 = DIRECTION ( 'NONE',  ( 0.000000000000000000, 0.000000000000000000, -1.000000000000000000 ) ) ;
#28 = VERTEX_POINT ( 'NONE', #168 ) ;
#29 =( NAMED_UNIT ( * ) SI_UNIT ( $, .STERADIAN. ) SOLID_ANGLE_UNIT ( ) );
#30 = CARTESIAN_POINT ( 'NONE',  ( 0.000000000000000000, 0.5000000000000000000, -8.000000000000000000 ) ) ;
#31 = FILL_AREA_STYLE_COLOUR ( '', #164 ) ;
#32 = CARTESIAN_POINT ( 'NONE',  ( 0.000000000000000000, 0.000000000000000000, 0.000000000000000000 ) ) ;
#33 = AXIS2_PLACEMENT_3D ( 'NONE', #179, #84, #358 ) ;
#34 = UNCERTAINTY_MEASURE_WITH_UNIT (LENGTH_MEASURE( 1.000000000000000082E-05 ), #362, 'distance_accuracy_value', 'NONE');
#35 = FILL_AREA_STYLE_COLOUR ( '', #131 ) ;
#36 = AXIS2_PLACEMENT_3D ( 'NONE', #274, #92, #331 ) ;
#37 = SURFACE_STYLE_FILL_AREA ( #6 ) ;
#38 = AXIS2_PLACEMENT_3D ( 'NONE', #367, #224, #195 ) ;
#39 = ADVANCED_FACE ( 'NONE', ( #345 ), #368, .F. ) ;
#40 = VERTEX_POINT ( 'NONE', #210 ) ;
#41 = ORIENTED_EDGE ( 'NONE', *, *, #7, .T. ) ;
#42 = COLOUR_RGB ( '',1.000000000000000000, 0.000000000000000000, 0.000000000000000000 ) ;
#43 = FILL_AREA_STYLE ('',( #125 ) ) ;
#44 =( NAMED_UNIT ( * ) PLANE_ANGLE_UNIT ( ) SI_UNIT ( $, .RADIAN. ) );
#45 =( NAMED_UNIT ( * ) SI_UNIT ( $, .STERADIAN. ) SOLID_ANGLE_UNIT ( ) );
#46 = EDGE_LOOP ( 'NONE', ( #363, #162 ) ) ;
#47 = DIRECTION ( 'NONE',  ( -0.000000000000000000, -1.000000000000000000, -0.000000000000000000 ) ) ;
#48 = VECTOR ( 'NONE', #267, 1000.000000000000000 ) ;
#49 = FACE_OUTER_BOUND ( 'NONE', #127, .T. ) ;
#50 = ORIENTED_EDGE ( 'NONE', *, *, #221, .T. ) ;
#51 = CARTESIAN_POINT ( 'NONE',  ( 0.000000000000000000, 0.000000000000000000, -7.500000000000000000 ) ) ;
#52 = ORIENTED_EDGE ( 'NONE', *, *, #250, .T. ) ;
#53 = DIRECTION ( 'NONE',  ( -1.000000000000000000, 0.000000000000000000, 0.000000000000000000 ) ) ;
#54 = ORIENTED_EDGE ( 'NONE', *, *, #189, .F. ) ;
#55 = VECTOR ( 'NONE', #47, 1000.000000000000000 ) ;
#56 = DIRECTION ( 'NONE',  ( -1.000000000000000000, 0.000000000000000000, 0.000000000000000000 ) ) ;
#57 = CARTESIAN_POINT ( 'NONE',  ( 0.000000000000000000, 0.000000000000000000, 0.000000000000000000 ) ) ;
#58 = UNCERTAINTY_MEASURE_WITH_UNIT (LENGTH_MEASURE( 1.000000000000000082E-05 ), #118, 'distance_accuracy_value', 'NONE');
#59 = CIRCLE ( 'NONE', #275, 7.999999999999994671 ) ;
#60 = FILL_AREA_STYLE_COLOUR ( '', #147 ) ;
#61 =( LENGTH_UNIT ( ) NAMED_UNIT ( * ) SI_UNIT ( .MILLI., .METRE. ) );
#62 = EDGE_CURVE ( 'NONE', #319, #202, #223, .T. ) ;
#63 =( NAMED_UNIT ( * ) PLANE_ANGLE_UNIT ( ) SI_UNIT ( $, .RADIAN. ) );
#64 =( LENGTH_UNIT ( ) NAMED_UNIT ( * ) SI_UNIT ( .MILLI., .METRE. ) );
#65 = AXIS2_PLACEMENT_3D ( 'NONE', #79, #16, #255 ) ;
#66 = AXIS2_PLACEMENT_3D ( 'NONE', #106, #229, #344 ) ;
#67 = COLOUR_RGB ( '',1.000000000000000000, 0.000000000000000000, 0.000000000000000000 ) ;
#68 = EDGE_CURVE ( 'NONE', #202, #319, #153, .T. ) ;
#69 = SURFACE_STYLE_FILL_AREA ( #12 ) ;
#70 = FACE_OUTER_BOUND ( 'NONE', #135, .T. ) ;
#71 = DIRECTION ( 'NONE',  ( 1.279215233315390572E-16, -1.000000000000000000, 0.000000000000000000 ) ) ;
#72 = DIRECTION ( 'NONE',  ( -0.000000000000000000, -1.000000000000000000, -0.000000000000000000 ) ) ;
#73 = LINE ( 'NONE', #294, #48 ) ;
#74 = ORIENTED_EDGE ( 'NONE', *, *, #241, .T. ) ;
#75 = CARTESIAN_POINT ( 'NONE',  ( 8.000000000000000000, 89.00000000000000000, 9.797174393178825657E-16 ) ) ;
#76 = APPLICATION_PROTOCOL_DEFINITION ( 'draft international standard', 'automotive_design', 1998, #302 ) ;
#77 =( NAMED_UNIT ( * ) SI_UNIT ( $, .STERADIAN. ) SOLID_ANGLE_UNIT ( ) );
#78 = DIRECTION ( 'NONE',  ( 0.000000000000000000, 0.000000000000000000, 1.000000000000000000 ) ) ;
#79 = CARTESIAN_POINT ( 'NONE',  ( -1.714505518806293652E-15, 89.00000000000000000, 0.000000000000000000 ) ) ;
#80 = CARTESIAN_POINT ( 'NONE',  ( 0.000000000000000000, 0.5000000000000000000, -7.500000000000000000 ) ) ;
#81 = CARTESIAN_POINT ( 'NONE',  ( 0.000000000000000000, 0.000000000000000000, -8.000000000000000000 ) ) ;
#82 = PRESENTATION_LAYER_ASSIGNMENT (  '', '', ( #236 ) ) ;
#83 =( LENGTH_UNIT ( ) NAMED_UNIT ( * ) SI_UNIT ( .MILLI., .METRE. ) );
#84 = DIRECTION ( 'NONE',  ( -0.000000000000000000, -1.000000000000000000, -0.000000000000000000 ) ) ;
#85 = ADVANCED_FACE ( 'NONE', ( #207 ), #101, .F. ) ;
#86 = CARTESIAN_POINT ( 'NONE',  ( 8.000000000000000000, 40.00000000000000000, 9.797174393178825657E-16 ) ) ;
#87 =( NAMED_UNIT ( * ) SI_UNIT ( $, .STERADIAN. ) SOLID_ANGLE_UNIT ( ) );
#88 = EDGE_CURVE ( 'NONE', #28, #339, #59, .T. ) ;
#89 = SURFACE_STYLE_USAGE ( .BOTH. , #354 ) ;
#90 =( GEOMETRIC_REPRESENTATION_CONTEXT ( 3 ) GLOBAL_UNCERTAINTY_ASSIGNED_CONTEXT ( ( #34 ) ) GLOBAL_UNIT_ASSIGNED_CONTEXT ( ( #362, #352, #87 ) ) REPRESENTATION_CONTEXT ( 'NONE', 'WORKASPACE' ) );
#91 = SURFACE_SIDE_STYLE ('',( #243 ) ) ;
#92 = DIRECTION ( 'NONE',  ( -0.000000000000000000, -1.000000000000000000, -0.000000000000000000 ) ) ;
#93 = VERTEX_POINT ( 'NONE', #30 ) ;
#94 = PRODUCT_DEFINITION ( 'UNKNOWN', '', #281, #119 ) ;
#95 = COLOUR_RGB ( '',1.000000000000000000, 0.000000000000000000, 0.000000000000000000 ) ;
#96 =( GEOMETRIC_REPRESENTATION_CONTEXT ( 3 ) GLOBAL_UNCERTAINTY_ASSIGNED_CONTEXT ( ( #353 ) ) GLOBAL_UNIT_ASSIGNED_CONTEXT ( ( #83, #145, #29 ) ) REPRESENTATION_CONTEXT ( 'NONE', 'WORKASPACE' ) );
#97 = PLANE ( 'NONE',  #235 ) ;
#98 = CARTESIAN_POINT ( 'NONE',  ( 4.553649124439119412E-15, 40.00000000000000000, 0.000000000000000000 ) ) ;
#99 = DIRECTION ( 'NONE',  ( -0.000000000000000000, -1.000000000000000000, -0.000000000000000000 ) ) ;
#100 = PRODUCT ( '59561', '59561', '', ( #206 ) ) ;
#101 = PLANE ( 'NONE',  #102 ) ;
#102 = AXIS2_PLACEMENT_3D ( 'NONE', #228, #71, #342 ) ;
#103 = DIRECTION ( 'NONE',  ( -1.279215233315390572E-16, 1.000000000000000000, -0.000000000000000000 ) ) ;
#104 = EDGE_CURVE ( 'NONE', #10, #40, #361, .T. ) ;
#105 = EDGE_LOOP ( 'NONE', ( #370, #19, #315, #305 ) ) ;
#106 = CARTESIAN_POINT ( 'NONE',  ( 0.000000000000000000, 0.000000000000000000, 0.000000000000000000 ) ) ;
#107 = PRESENTATION_LAYER_ASSIGNMENT (  '', '', ( #314 ) ) ;
#108 = DIRECTION ( 'NONE',  ( -1.279215233315390572E-16, 1.000000000000000000, -0.000000000000000000 ) ) ;
#109 = CARTESIAN_POINT ( 'NONE',  ( 9.797174393178825657E-16, 0.000000000000000000, 8.000000000000000000 ) ) ;
#110 = CARTESIAN_POINT ( 'NONE',  ( -1.714505518806293652E-15, 89.00000000000000000, 0.000000000000000000 ) ) ;
#111 = FACE_OUTER_BOUND ( 'NONE', #261, .T. ) ;
#112 = APPLICATION_PROTOCOL_DEFINITION ( 'draft international standard', 'automotive_design', 1998, #324 ) ;
#113 = DIRECTION ( 'NONE',  ( -1.000000000000000000, -1.279215233315390572E-16, 0.000000000000000000 ) ) ;
#114 = EDGE_CURVE ( 'NONE', #93, #336, #300, .T. ) ;
#115 = CARTESIAN_POINT ( 'NONE',  ( 9.797174393178825657E-16, 40.00000000000000000, 8.000000000000000000 ) ) ;
#116 =( LENGTH_UNIT ( ) NAMED_UNIT ( * ) SI_UNIT ( .MILLI., .METRE. ) );
#117 = DIRECTION ( 'NONE',  ( 1.000000000000000000, 0.000000000000000000, 0.000000000000000000 ) ) ;
#118 =( LENGTH_UNIT ( ) NAMED_UNIT ( * ) SI_UNIT ( .MILLI., .METRE. ) );
#119 = PRODUCT_DEFINITION_CONTEXT ( 'detailed design', #324, 'design' ) ;
#120 = UNCERTAINTY_MEASURE_WITH_UNIT (LENGTH_MEASURE( 1.000000000000000082E-05 ), #13, 'distance_accuracy_value', 'NONE');
#121 = AXIS2_PLACEMENT_3D ( 'NONE', #110, #108, #132 ) ;
#122 = ADVANCED_FACE ( 'NONE', ( #70 ), #214, .T. ) ;
#123 = AXIS2_PLACEMENT_3D ( 'NONE', #311, #227, #341 ) ;
#124 =( GEOMETRIC_REPRESENTATION_CONTEXT ( 3 ) GLOBAL_UNCERTAINTY_ASSIGNED_CONTEXT ( ( #58 ) ) GLOBAL_UNIT_ASSIGNED_CONTEXT ( ( #118, #254, #174 ) ) REPRESENTATION_CONTEXT ( 'NONE', 'WORKASPACE' ) );
#125 = FILL_AREA_STYLE_COLOUR ( '', #209 ) ;
#126 = MECHANICAL_DESIGN_GEOMETRIC_PRESENTATION_REPRESENTATION (  '', ( #183 ), #187 ) ;
#127 = EDGE_LOOP ( 'NONE', ( #276, #52, #280, #284 ) ) ;
#128 = AXIS2_PLACEMENT_3D ( 'NONE', #346, #282, #287 ) ;
#129 = ADVANCED_FACE ( 'NONE', ( #161 ), #279, .T. ) ;
#130 = SURFACE_STYLE_USAGE ( .BOTH. , #220 ) ;
#131 = COLOUR_RGB ( '',1.000000000000000000, 0.000000000000000000, 0.000000000000000000 ) ;
#132 = DIRECTION ( 'NONE',  ( -1.000000000000000000, 0.000000000000000000, 0.000000000000000000 ) ) ;
#133 = CARTESIAN_POINT ( 'NONE',  ( -8.000000000000000000, 89.00000000000000000, 0.000000000000000000 ) ) ;
#134 = FILL_AREA_STYLE ('',( #18 ) ) ;
#135 = EDGE_LOOP ( 'NONE', ( #141, #218, #138, #169 ) ) ;
#136 = FILL_AREA_STYLE ('',( #20 ) ) ;
#137 = SURFACE_STYLE_USAGE ( .BOTH. , #317 ) ;
#138 = ORIENTED_EDGE ( 'NONE', *, *, #369, .T. ) ;
#139 = DIRECTION ( 'NONE',  ( -0.000000000000000000, -1.000000000000000000, -0.000000000000000000 ) ) ;
#140 = STYLED_ITEM ( 'NONE', ( #193 ), #122 ) ;
#141 = ORIENTED_EDGE ( 'NONE', *, *, #250, .F. ) ;
#142 = DIRECTION ( 'NONE',  ( -0.000000000000000000, -1.000000000000000000, -0.000000000000000000 ) ) ;
#143 = EDGE_CURVE ( 'NONE', #339, #202, #73, .T. ) ;
#144 = CARTESIAN_POINT ( 'NONE',  ( 0.000000000000000000, 0.000000000000000000, 0.000000000000000000 ) ) ;
#145 =( NAMED_UNIT ( * ) PLANE_ANGLE_UNIT ( ) SI_UNIT ( $, .RADIAN. ) );
#146 = FILL_AREA_STYLE ('',( #248 ) ) ;
#147 = COLOUR_RGB ( '',0.7921568627450980005, 0.8196078431372548767, 0.9333333333333333481 ) ;
#148 = MECHANICAL_DESIGN_GEOMETRIC_PRESENTATION_REPRESENTATION (  '', ( #240 ), #340 ) ;
#149 = DIRECTION ( 'NONE',  ( 0.000000000000000000, 0.000000000000000000, -1.000000000000000000 ) ) ;
#150 = CLOSED_SHELL ( 'NONE', ( #129, #39, #356, #85 ) ) ;
#151 =( NAMED_UNIT ( * ) PLANE_ANGLE_UNIT ( ) SI_UNIT ( $, .RADIAN. ) );
#152 =( NAMED_UNIT ( * ) SI_UNIT ( $, .STERADIAN. ) SOLID_ANGLE_UNIT ( ) );
#153 = CIRCLE ( 'NONE', #65, 8.000000000000001776 ) ;
#154 = SURFACE_STYLE_FILL_AREA ( #306 ) ;
#155 = CIRCLE ( 'NONE', #289, 8.000000000000000000 ) ;
#156 = VECTOR ( 'NONE', #103, 1000.000000000000000 ) ;
#157 = ORIENTED_EDGE ( 'NONE', *, *, #186, .F. ) ;
#158 = ADVANCED_FACE ( 'NONE', ( #286 ), #97, .T. ) ;
#159 = ORIENTED_EDGE ( 'NONE', *, *, #62, .T. ) ;
#160 = DIRECTION ( 'NONE',  ( -1.279215233315390572E-16, 1.000000000000000000, -0.000000000000000000 ) ) ;
#161 = FACE_OUTER_BOUND ( 'NONE', #105, .T. ) ;
#162 = ORIENTED_EDGE ( 'NONE', *, *, #221, .F. ) ;
#163 = MANIFOLD_SOLID_BREP ( 'Revolve - Cutting Edge', #343 ) ;
#164 = COLOUR_RGB ( '',1.000000000000000000, 0.000000000000000000, 0.000000000000000000 ) ;
#165 = LINE ( 'NONE', #109, #55 ) ;
#166 = ORIENTED_EDGE ( 'NONE', *, *, #216, .T. ) ;
#167 = FACE_OUTER_BOUND ( 'NONE', #288, .T. ) ;
#168 = CARTESIAN_POINT ( 'NONE',  ( -7.999999999999989342, 40.00000000000000000, 0.000000000000000000 ) ) ;
#169 = ORIENTED_EDGE ( 'NONE', *, *, #241, .F. ) ;
#170 = PRESENTATION_STYLE_ASSIGNMENT (( #192 ) ) ;
#171 = AXIS2_PLACEMENT_3D ( 'NONE', #258, #21, #283 ) ;
#172 = MANIFOLD_SOLID_BREP ( 'Revolve - Tool Body (Straight Shanked)', #150 ) ;
#173 = ADVANCED_FACE ( 'NONE', ( #49 ), #249, .T. ) ;
#174 =( NAMED_UNIT ( * ) SI_UNIT ( $, .STERADIAN. ) SOLID_ANGLE_UNIT ( ) );
#175 = ORIENTED_EDGE ( 'NONE', *, *, #186, .T. ) ;
#176 = DIRECTION ( 'NONE',  ( -1.000000000000000000, 0.000000000000000000, 0.000000000000000000 ) ) ;
#177 = DIRECTION ( 'NONE',  ( -0.000000000000000000, -1.000000000000000000, -0.000000000000000000 ) ) ;
#178 = DIRECTION ( 'NONE',  ( 0.000000000000000000, 0.000000000000000000, 1.000000000000000000 ) ) ;
#179 = CARTESIAN_POINT ( 'NONE',  ( 0.000000000000000000, 0.5000000000000000000, 0.000000000000000000 ) ) ;
#180 = ADVANCED_FACE ( 'NONE', ( #9 ), #190, .T. ) ;
#181 = FACE_OUTER_BOUND ( 'NONE', #22, .T. ) ;
#182 =( LENGTH_UNIT ( ) NAMED_UNIT ( * ) SI_UNIT ( .MILLI., .METRE. ) );
#183 = STYLED_ITEM ( 'NONE', ( #8 ), #173 ) ;
#184 = UNCERTAINTY_MEASURE_WITH_UNIT (LENGTH_MEASURE( 1.000000000000000082E-05 ), #116, 'distance_accuracy_value', 'NONE');
#185 = PRESENTATION_STYLE_ASSIGNMENT (( #89 ) ) ;
#186 = EDGE_CURVE ( 'NONE', #264, #348, #155, .T. ) ;
#187 =( GEOMETRIC_REPRESENTATION_CONTEXT ( 3 ) GLOBAL_UNCERTAINTY_ASSIGNED_CONTEXT ( ( #4 ) ) GLOBAL_UNIT_ASSIGNED_CONTEXT ( ( #298, #246, #152 ) ) REPRESENTATION_CONTEXT ( 'NONE', 'WORKASPACE' ) );
#188 = ORIENTED_EDGE ( 'NONE', *, *, #143, .F. ) ;
#189 = EDGE_CURVE ( 'NONE', #336, #93, #2, .T. ) ;
#190 = CYLINDRICAL_SURFACE ( 'NONE', #66, 8.000000000000000000 ) ;
#191 =( GEOMETRIC_REPRESENTATION_CONTEXT ( 3 ) GLOBAL_UNCERTAINTY_ASSIGNED_CONTEXT ( ( #295 ) ) GLOBAL_UNIT_ASSIGNED_CONTEXT ( ( #61, #63, #242 ) ) REPRESENTATION_CONTEXT ( 'NONE', 'WORKASPACE' ) );
#192 = SURFACE_STYLE_USAGE ( .BOTH. , #252 ) ;
#193 = PRESENTATION_STYLE_ASSIGNMENT (( #130 ) ) ;
#194 = ORIENTED_EDGE ( 'NONE', *, *, #114, .F. ) ;
#195 = DIRECTION ( 'NONE',  ( 0.000000000000000000, 0.000000000000000000, -1.000000000000000000 ) ) ;
#196 = DIRECTION ( 'NONE',  ( 0.000000000000000000, -0.000000000000000000, 1.000000000000000000 ) ) ;
#197 = ORIENTED_EDGE ( 'NONE', *, *, #68, .F. ) ;
#198 = PRESENTATION_LAYER_ASSIGNMENT (  '', '', ( #183 ) ) ;
#199 = DIRECTION ( 'NONE',  ( 0.000000000000000000, 0.000000000000000000, -1.000000000000000000 ) ) ;
#200 = MECHANICAL_DESIGN_GEOMETRIC_PRESENTATION_REPRESENTATION (  '', ( #236 ), #96 ) ;
#201 = SURFACE_STYLE_FILL_AREA ( #134 ) ;
#202 = VERTEX_POINT ( 'NONE', #75 ) ;
#203 = FILL_AREA_STYLE ('',( #256 ) ) ;
#204 = ADVANCED_FACE ( 'NONE', ( #111 ), #232, .T. ) ;
#205 = CARTESIAN_POINT ( 'NONE',  ( 9.184850993605147944E-16, 0.5000000000000000000, 7.500000000000000000 ) ) ;
#206 = PRODUCT_CONTEXT ( 'NONE', #302, 'mechanical' ) ;
#207 = FACE_OUTER_BOUND ( 'NONE', #225, .T. ) ;
#208 = DIRECTION ( 'NONE',  ( -1.000000000000000000, 0.000000000000000000, 0.000000000000000000 ) ) ;
#209 = COLOUR_RGB ( '',1.000000000000000000, 0.000000000000000000, 0.000000000000000000 ) ;
#210 = CARTESIAN_POINT ( 'NONE',  ( 9.491012693391985815E-16, 0.000000000000000000, 7.500000000000000000 ) ) ;
#211 = CARTESIAN_POINT ( 'NONE',  ( 9.797174393178825657E-16, 0.5000000000000000000, 8.000000000000000000 ) ) ;
#212 = UNCERTAINTY_MEASURE_WITH_UNIT (LENGTH_MEASURE( 1.000000000000000082E-05 ), #182, 'distance_accuracy_value', 'NONE');
#213 = PRESENTATION_STYLE_ASSIGNMENT (( #237 ) ) ;
#214 = TOROIDAL_SURFACE ( 'NONE', #33, 7.500000000000000000, 0.5000000000000002220 ) ;
#215 = AXIS2_PLACEMENT_3D ( 'NONE', #80, #208, #178 ) ;
#216 = EDGE_CURVE ( 'NONE', #348, #336, #165, .T. ) ;
#217 = AXIS2_PLACEMENT_3D ( 'NONE', #233, #266, #113 ) ;
#218 = ORIENTED_EDGE ( 'NONE', *, *, #189, .T. ) ;
#219 = MECHANICAL_DESIGN_GEOMETRIC_PRESENTATION_REPRESENTATION (  '', ( #299 ), #325 ) ;
#220 = SURFACE_SIDE_STYLE ('',( #69 ) ) ;
#221 = EDGE_CURVE ( 'NONE', #339, #28, #269, .T. ) ;
#222 = EDGE_LOOP ( 'NONE', ( #313, #259, #41, #54 ) ) ;
#223 = CIRCLE ( 'NONE', #121, 8.000000000000001776 ) ;
#224 = DIRECTION ( 'NONE',  ( -0.000000000000000000, -1.000000000000000000, -0.000000000000000000 ) ) ;
#225 = EDGE_LOOP ( 'NONE', ( #159, #365 ) ) ;
#226 = AXIS2_PLACEMENT_3D ( 'NONE', #32, #78, #117 ) ;
#227 = DIRECTION ( 'NONE',  ( -0.000000000000000000, -1.000000000000000000, -0.000000000000000000 ) ) ;
#228 = CARTESIAN_POINT ( 'NONE',  ( 8.000000000000000000, 89.00000000000000000, 0.000000000000000000 ) ) ;
#229 = DIRECTION ( 'NONE',  ( -0.000000000000000000, -1.000000000000000000, -0.000000000000000000 ) ) ;
#230 = ORIENTED_EDGE ( 'NONE', *, *, #7, .F. ) ;
#231 = ADVANCED_BREP_SHAPE_REPRESENTATION ( '59561', ( #163, #172, #226 ), #124 ) ;
#232 = CYLINDRICAL_SURFACE ( 'NONE', #38, 8.000000000000000000 ) ;
#233 = CARTESIAN_POINT ( 'NONE',  ( 4.553649124439118623E-15, 40.00000000000000000, 0.000000000000000000 ) ) ;
#234 = DIRECTION ( 'NONE',  ( 0.000000000000000000, 0.000000000000000000, -1.000000000000000000 ) ) ;
#235 = AXIS2_PLACEMENT_3D ( 'NONE', #334, #253, #196 ) ;
#236 = STYLED_ITEM ( 'NONE', ( #213 ), #329 ) ;
#237 = SURFACE_STYLE_USAGE ( .BOTH. , #293 ) ;
#238 = VECTOR ( 'NONE', #142, 1000.000000000000000 ) ;
#239 =( GEOMETRIC_REPRESENTATION_CONTEXT ( 3 ) GLOBAL_UNCERTAINTY_ASSIGNED_CONTEXT ( ( #270 ) ) GLOBAL_UNIT_ASSIGNED_CONTEXT ( ( #64, #304, #278 ) ) REPRESENTATION_CONTEXT ( 'NONE', 'WORKASPACE' ) );
#240 = STYLED_ITEM ( 'NONE', ( #170 ), #204 ) ;
#241 = EDGE_CURVE ( 'NONE', #40, #10, #307, .T. ) ;
#242 =( NAMED_UNIT ( * ) SI_UNIT ( $, .STERADIAN. ) SOLID_ANGLE_UNIT ( ) );
#243 = SURFACE_STYLE_FILL_AREA ( #43 ) ;
#244 = MECHANICAL_DESIGN_GEOMETRIC_PRESENTATION_REPRESENTATION (  '', ( #314 ), #191 ) ;
#245 = STYLED_ITEM ( 'NONE', ( #15 ), #158 ) ;
#246 =( NAMED_UNIT ( * ) PLANE_ANGLE_UNIT ( ) SI_UNIT ( $, .RADIAN. ) );
#247 = PRODUCT_RELATED_PRODUCT_CATEGORY ( 'part', '', ( #100 ) ) ;
#248 = FILL_AREA_STYLE_COLOUR ( '', #42 ) ;
#249 = TOROIDAL_SURFACE ( 'NONE', #36, 7.500000000000000000, 0.5000000000000002220 ) ;
#250 = EDGE_CURVE ( 'NONE', #336, #40, #26, .T. ) ;
#251 = CIRCLE ( 'NONE', #355, 8.000000000000000000 ) ;
#252 = SURFACE_SIDE_STYLE ('',( #318 ) ) ;
#253 = DIRECTION ( 'NONE',  ( 0.000000000000000000, 1.000000000000000000, 0.000000000000000000 ) ) ;
#254 =( NAMED_UNIT ( * ) PLANE_ANGLE_UNIT ( ) SI_UNIT ( $, .RADIAN. ) );
#255 = DIRECTION ( 'NONE',  ( -1.000000000000000000, 0.000000000000000000, 0.000000000000000000 ) ) ;
#256 = FILL_AREA_STYLE_COLOUR ( '', #95 ) ;
#257 = PRODUCT_DEFINITION_SHAPE ( 'NONE', 'NONE',  #94 ) ;
#258 = CARTESIAN_POINT ( 'NONE',  ( -1.714505518806293849E-15, 89.00000000000000000, 0.000000000000000000 ) ) ;
#259 = ORIENTED_EDGE ( 'NONE', *, *, #308, .T. ) ;
#260 = SURFACE_STYLE_FILL_AREA ( #136 ) ;
#261 = EDGE_LOOP ( 'NONE', ( #175, #166, #194, #230 ) ) ;
#262 =( GEOMETRIC_REPRESENTATION_CONTEXT ( 3 ) GLOBAL_UNCERTAINTY_ASSIGNED_CONTEXT ( ( #184 ) ) GLOBAL_UNIT_ASSIGNED_CONTEXT ( ( #116, #323, #45 ) ) REPRESENTATION_CONTEXT ( 'NONE', 'WORKASPACE' ) );
#263 = AXIS2_PLACEMENT_3D ( 'NONE', #57, #351, #149 ) ;
#264 = VERTEX_POINT ( 'NONE', #17 ) ;
#265 = CARTESIAN_POINT ( 'NONE',  ( 0.000000000000000000, 40.00000000000000000, 0.000000000000000000 ) ) ;
#266 = DIRECTION ( 'NONE',  ( -1.279215233315390572E-16, 1.000000000000000000, 0.000000000000000000 ) ) ;
#267 = DIRECTION ( 'NONE',  ( -1.279215233315390572E-16, 1.000000000000000000, -0.000000000000000000 ) ) ;
#268 = MECHANICAL_DESIGN_GEOMETRIC_PRESENTATION_REPRESENTATION (  '', ( #245 ), #90 ) ;
#269 = CIRCLE ( 'NONE', #327, 7.999999999999994671 ) ;
#270 = UNCERTAINTY_MEASURE_WITH_UNIT (LENGTH_MEASURE( 1.000000000000000082E-05 ), #64, 'distance_accuracy_value', 'NONE');
#271 = EDGE_CURVE ( 'NONE', #28, #319, #360, .T. ) ;
#272 = PRESENTATION_LAYER_ASSIGNMENT (  '', '', ( #24 ) ) ;
#273 = AXIS2_PLACEMENT_3D ( 'NONE', #205, #23, #290 ) ;
#274 = CARTESIAN_POINT ( 'NONE',  ( 0.000000000000000000, 0.5000000000000000000, 0.000000000000000000 ) ) ;
#275 = AXIS2_PLACEMENT_3D ( 'NONE', #292, #321, #56 ) ;
#276 = ORIENTED_EDGE ( 'NONE', *, *, #114, .T. ) ;
#277 = SURFACE_STYLE_USAGE ( .BOTH. , #91 ) ;
#278 =( NAMED_UNIT ( * ) SI_UNIT ( $, .STERADIAN. ) SOLID_ANGLE_UNIT ( ) );
#279 = CYLINDRICAL_SURFACE ( 'NONE', #171, 7.999999999999998224 ) ;
#280 = ORIENTED_EDGE ( 'NONE', *, *, #104, .F. ) ;
#281 = PRODUCT_DEFINITION_FORMATION_WITH_SPECIFIED_SOURCE ( 'ANY', '', #100, .NOT_KNOWN. ) ;
#282 = DIRECTION ( 'NONE',  ( -0.000000000000000000, -1.000000000000000000, -0.000000000000000000 ) ) ;
#283 = DIRECTION ( 'NONE',  ( -1.000000000000000000, 0.000000000000000000, 0.000000000000000000 ) ) ;
#284 = ORIENTED_EDGE ( 'NONE', *, *, #369, .F. ) ;
#285 = PLANE ( 'NONE',  #263 ) ;
#286 = FACE_OUTER_BOUND ( 'NONE', #359, .T. ) ;
#287 = DIRECTION ( 'NONE',  ( 0.000000000000000000, 0.000000000000000000, -1.000000000000000000 ) ) ;
#288 = EDGE_LOOP ( 'NONE', ( #291, #74 ) ) ;
#289 = AXIS2_PLACEMENT_3D ( 'NONE', #265, #139, #27 ) ;
#290 = DIRECTION ( 'NONE',  ( -1.224646799147353454E-16, 0.000000000000000000, -1.000000000000000000 ) ) ;
#291 = ORIENTED_EDGE ( 'NONE', *, *, #104, .T. ) ;
#292 = CARTESIAN_POINT ( 'NONE',  ( 4.553649124439119412E-15, 40.00000000000000000, 0.000000000000000000 ) ) ;
#293 = SURFACE_SIDE_STYLE ('',( #260 ) ) ;
#294 = CARTESIAN_POINT ( 'NONE',  ( 7.999999999999996447, 89.00000000000000000, 9.797174393178823685E-16 ) ) ;
#295 = UNCERTAINTY_MEASURE_WITH_UNIT (LENGTH_MEASURE( 1.000000000000000082E-05 ), #61, 'distance_accuracy_value', 'NONE');
#296 = DIRECTION ( 'NONE',  ( -1.279215233315390572E-16, 1.000000000000000000, -0.000000000000000000 ) ) ;
#297 = MECHANICAL_DESIGN_GEOMETRIC_PRESENTATION_REPRESENTATION (  '', ( #24 ), #239 ) ;
#298 =( LENGTH_UNIT ( ) NAMED_UNIT ( * ) SI_UNIT ( .MILLI., .METRE. ) );
#299 = STYLED_ITEM ( 'NONE', ( #185 ), #172 ) ;
#300 = CIRCLE ( 'NONE', #11, 8.000000000000000000 ) ;
#301 = SURFACE_SIDE_STYLE ('',( #154 ) ) ;
#302 = APPLICATION_CONTEXT ( 'automotive_design' ) ;
#303 = ORIENTED_EDGE ( 'NONE', *, *, #308, .F. ) ;
#304 =( NAMED_UNIT ( * ) PLANE_ANGLE_UNIT ( ) SI_UNIT ( $, .RADIAN. ) );
#305 = ORIENTED_EDGE ( 'NONE', *, *, #271, .F. ) ;
#306 = FILL_AREA_STYLE ('',( #35 ) ) ;
#307 = CIRCLE ( 'NONE', #128, 7.500000000000000000 ) ;
#308 = EDGE_CURVE ( 'NONE', #348, #264, #251, .T. ) ;
#309 = CARTESIAN_POINT ( 'NONE',  ( 0.000000000000000000, 0.5000000000000000000, 0.000000000000000000 ) ) ;
#310 = DIRECTION ( 'NONE',  ( 0.000000000000000000, 0.000000000000000000, -1.000000000000000000 ) ) ;
#311 = CARTESIAN_POINT ( 'NONE',  ( 0.000000000000000000, 0.5000000000000000000, 0.000000000000000000 ) ) ;
#312 = SURFACE_STYLE_FILL_AREA ( #146 ) ;
#313 = ORIENTED_EDGE ( 'NONE', *, *, #216, .F. ) ;
#314 = STYLED_ITEM ( 'NONE', ( #326 ), #163 ) ;
#315 = ORIENTED_EDGE ( 'NONE', *, *, #62, .F. ) ;
#316 = CARTESIAN_POINT ( 'NONE',  ( -8.000000000000003553, 89.00000000000000000, 0.000000000000000000 ) ) ;
#317 = SURFACE_SIDE_STYLE ('',( #201 ) ) ;
#318 = SURFACE_STYLE_FILL_AREA ( #203 ) ;
#319 = VERTEX_POINT ( 'NONE', #316 ) ;
#320 = AXIS2_PLACEMENT_3D ( 'NONE', #350, #296, #176 ) ;
#321 = DIRECTION ( 'NONE',  ( -1.279215233315390572E-16, 1.000000000000000000, -0.000000000000000000 ) ) ;
#322 = CYLINDRICAL_SURFACE ( 'NONE', #320, 7.999999999999998224 ) ;
#323 =( NAMED_UNIT ( * ) PLANE_ANGLE_UNIT ( ) SI_UNIT ( $, .RADIAN. ) );
#324 = APPLICATION_CONTEXT ( 'automotive_design' ) ;
#325 =( GEOMETRIC_REPRESENTATION_CONTEXT ( 3 ) GLOBAL_UNCERTAINTY_ASSIGNED_CONTEXT ( ( #212 ) ) GLOBAL_UNIT_ASSIGNED_CONTEXT ( ( #182, #151, #328 ) ) REPRESENTATION_CONTEXT ( 'NONE', 'WORKASPACE' ) );
#326 = PRESENTATION_STYLE_ASSIGNMENT (( #137 ) ) ;
#327 = AXIS2_PLACEMENT_3D ( 'NONE', #98, #160, #53 ) ;
#328 =( NAMED_UNIT ( * ) SI_UNIT ( $, .STERADIAN. ) SOLID_ANGLE_UNIT ( ) );
#329 = ADVANCED_FACE ( 'NONE', ( #167 ), #285, .T. ) ;
#330 = PRESENTATION_STYLE_ASSIGNMENT (( #277 ) ) ;
#331 = DIRECTION ( 'NONE',  ( 0.000000000000000000, 0.000000000000000000, -1.000000000000000000 ) ) ;
#332 = PRESENTATION_LAYER_ASSIGNMENT (  '', '', ( #245 ) ) ;
#333 = SURFACE_STYLE_USAGE ( .BOTH. , #301 ) ;
#334 = CARTESIAN_POINT ( 'NONE',  ( 0.000000000000000000, 40.00000000000000000, 0.000000000000000000 ) ) ;
#335 = ORIENTED_EDGE ( 'NONE', *, *, #271, .T. ) ;
#336 = VERTEX_POINT ( 'NONE', #211 ) ;
#337 = CARTESIAN_POINT ( 'NONE',  ( 0.000000000000000000, 40.00000000000000000, 0.000000000000000000 ) ) ;
#338 = PRESENTATION_LAYER_ASSIGNMENT (  '', '', ( #299 ) ) ;
#339 = VERTEX_POINT ( 'NONE', #86 ) ;
#340 =( GEOMETRIC_REPRESENTATION_CONTEXT ( 3 ) GLOBAL_UNCERTAINTY_ASSIGNED_CONTEXT ( ( #120 ) ) GLOBAL_UNIT_ASSIGNED_CONTEXT ( ( #13, #44, #77 ) ) REPRESENTATION_CONTEXT ( 'NONE', 'WORKASPACE' ) );
#341 = DIRECTION ( 'NONE',  ( 0.000000000000000000, 0.000000000000000000, -1.000000000000000000 ) ) ;
#342 = DIRECTION ( 'NONE',  ( 1.000000000000000000, 1.279215233315390572E-16, 0.000000000000000000 ) ) ;
#343 = CLOSED_SHELL ( 'NONE', ( #204, #173, #329, #122, #180, #158 ) ) ;
#344 = DIRECTION ( 'NONE',  ( 0.000000000000000000, 0.000000000000000000, -1.000000000000000000 ) ) ;
#345 = FACE_OUTER_BOUND ( 'NONE', #46, .T. ) ;
#346 = CARTESIAN_POINT ( 'NONE',  ( 0.000000000000000000, 0.000000000000000000, 0.000000000000000000 ) ) ;
#347 = SHAPE_DEFINITION_REPRESENTATION ( #257, #231 ) ;
#348 = VERTEX_POINT ( 'NONE', #115 ) ;
#349 = MECHANICAL_DESIGN_GEOMETRIC_PRESENTATION_REPRESENTATION (  '', ( #140 ), #262 ) ;
#350 = CARTESIAN_POINT ( 'NONE',  ( -1.714505518806293849E-15, 89.00000000000000000, 0.000000000000000000 ) ) ;
#351 = DIRECTION ( 'NONE',  ( 0.000000000000000000, -1.000000000000000000, -0.000000000000000000 ) ) ;
#352 =( NAMED_UNIT ( * ) PLANE_ANGLE_UNIT ( ) SI_UNIT ( $, .RADIAN. ) );
#353 = UNCERTAINTY_MEASURE_WITH_UNIT (LENGTH_MEASURE( 1.000000000000000082E-05 ), #83, 'distance_accuracy_value', 'NONE');
#354 = SURFACE_SIDE_STYLE ('',( #37 ) ) ;
#355 = AXIS2_PLACEMENT_3D ( 'NONE', #337, #72, #199 ) ;
#356 = ADVANCED_FACE ( 'NONE', ( #181 ), #322, .T. ) ;
#357 = PRESENTATION_LAYER_ASSIGNMENT (  '', '', ( #240 ) ) ;
#358 = DIRECTION ( 'NONE',  ( 0.000000000000000000, 0.000000000000000000, -1.000000000000000000 ) ) ;
#359 = EDGE_LOOP ( 'NONE', ( #157, #303 ) ) ;
#360 = LINE ( 'NONE', #133, #156 ) ;
#361 = CIRCLE ( 'NONE', #5, 7.500000000000000000 ) ;
#362 =( LENGTH_UNIT ( ) NAMED_UNIT ( * ) SI_UNIT ( .MILLI., .METRE. ) );
#363 = ORIENTED_EDGE ( 'NONE', *, *, #88, .F. ) ;
#364 = PRESENTATION_LAYER_ASSIGNMENT (  '', '', ( #140 ) ) ;
#365 = ORIENTED_EDGE ( 'NONE', *, *, #68, .T. ) ;
#366 = CIRCLE ( 'NONE', #215, 0.5000000000000004441 ) ;
#367 = CARTESIAN_POINT ( 'NONE',  ( 0.000000000000000000, 0.000000000000000000, 0.000000000000000000 ) ) ;
#368 = PLANE ( 'NONE',  #217 ) ;
#369 = EDGE_CURVE ( 'NONE', #93, #10, #366, .T. ) ;
#370 = ORIENTED_EDGE ( 'NONE', *, *, #88, .T. ) ;
ENDSEC;
END-ISO-10303-21;
