ISO-10303-21;
HEADER;
FILE_DESCRIPTION (( 'STEP AP214' ),
    '1' );
FILE_NAME ('81709.STEP',
    '2023-06-23T02:48:15',
    ( '' ),
    ( '' ),
    'SwSTEP 2.0',
    'SolidWorks 2023',
    '' );
FILE_SCHEMA (( 'AUTOMOTIVE_DESIGN' ));
ENDSEC;

DATA;
#1 =( NAMED_UNIT ( * ) SI_UNIT ( $, .STERADIAN. ) SOLID_ANGLE_UNIT ( ) );
#2 = SURFACE_STYLE_FILL_AREA ( #113 ) ;
#3 = CARTESIAN_POINT ( 'NONE',  ( -0.1250000000000000278, 2.500000000000000000, 0.000000000000000000 ) ) ;
#4 = VECTOR ( 'NONE', #356, 39.37007874015748143 ) ;
#5 = CARTESIAN_POINT ( 'NONE',  ( 0.1093499999999999889, 0.4374999999999998890, 1.434979886900910686E-17 ) ) ;
#6 = DIRECTION ( 'NONE',  ( -2.968840725205704707E-17, 1.000000000000000000, -0.000000000000000000 ) ) ;
#7 = MANIFOLD_SOLID_BREP ( 'Revolve - Cutting Edge', #87 ) ;
#8 = CARTESIAN_POINT ( 'NONE',  ( 0.000000000000000000, 0.000000000000000000, -0.1093499999999999889 ) ) ;
#9 =( LENGTH_UNIT ( ) NAMED_UNIT ( * ) SI_UNIT ( $, .METRE. ) );
#10 = EDGE_LOOP ( 'NONE', ( #226, #133, #184, #94 ) ) ;
#11 = ORIENTED_EDGE ( 'NONE', *, *, #292, .F. ) ;
#12 = COLOUR_RGB ( '',1.000000000000000000, 0.000000000000000000, 0.000000000000000000 ) ;
#13 = DIMENSIONAL_EXPONENTS ( 1.000000000000000000, 0.000000000000000000, 0.000000000000000000, 0.000000000000000000, 0.000000000000000000, 0.000000000000000000, 0.000000000000000000 ) ;
#14 = CARTESIAN_POINT ( 'NONE',  ( 1.339151274867630478E-17, 0.000000000000000000, 0.1093499999999999889 ) ) ;
#15 = ORIENTED_EDGE ( 'NONE', *, *, #155, .F. ) ;
#16 = SURFACE_SIDE_STYLE ('',( #158 ) ) ;
#17 = DIRECTION ( 'NONE',  ( -1.000000000000000000, 0.000000000000000000, 0.000000000000000000 ) ) ;
#18 = EDGE_LOOP ( 'NONE', ( #187, #48 ) ) ;
#19 = DIRECTION ( 'NONE',  ( -2.968840725205704707E-17, 1.000000000000000000, -0.000000000000000000 ) ) ;
#20 = CIRCLE ( 'NONE', #151, 0.1093499999999999889 ) ;
#21 = EDGE_LOOP ( 'NONE', ( #126, #161, #346, #261 ) ) ;
#22 = ORIENTED_EDGE ( 'NONE', *, *, #292, .T. ) ;
#23 = CARTESIAN_POINT ( 'NONE',  ( 1.339151274867630478E-17, 0.4375000000000000000, 0.1093499999999999889 ) ) ;
#24 = DIRECTION ( 'NONE',  ( -0.000000000000000000, -1.000000000000000000, -0.000000000000000000 ) ) ;
#25 =( CONVERSION_BASED_UNIT ( 'INCH', #336 ) LENGTH_UNIT ( ) NAMED_UNIT ( #211 ) );
#26 =( CONVERSION_BASED_UNIT ( 'INCH', #84 ) LENGTH_UNIT ( ) NAMED_UNIT ( #152 ) );
#27 = DIRECTION ( 'NONE',  ( -2.968840725205704707E-17, 1.000000000000000000, -0.000000000000000000 ) ) ;
#28 = AXIS2_PLACEMENT_3D ( 'NONE', #134, #100, #17 ) ;
#29 = CARTESIAN_POINT ( 'NONE',  ( 0.1249999999999999029, 2.500000000000000000, 1.530808498934191201E-17 ) ) ;
#30 = SURFACE_STYLE_FILL_AREA ( #275 ) ;
#31 = COLOUR_RGB ( '',0.7921568627450980005, 0.8196078431372548767, 0.9333333333333333481 ) ;
#32 = CARTESIAN_POINT ( 'NONE',  ( 0.000000000000000000, 0.000000000000000000, -0.1093500000000000028 ) ) ;
#33 = LENGTH_MEASURE_WITH_UNIT ( LENGTH_MEASURE( 0.02539999999999999897 ), #9 );
#34 = LINE ( 'NONE', #14, #323 ) ;
#35 = DIRECTION ( 'NONE',  ( -0.3420201433256700452, 0.9396926207859079838, 0.000000000000000000 ) ) ;
#36 = CIRCLE ( 'NONE', #138, 0.1093499999999999889 ) ;
#37 = DIRECTION ( 'NONE',  ( -1.000000000000000000, -2.968840725205704707E-17, 0.000000000000000000 ) ) ;
#38 = PRESENTATION_LAYER_ASSIGNMENT (  '', '', ( #207 ) ) ;
#39 = AXIS2_PLACEMENT_3D ( 'NONE', #172, #142, #54 ) ;
#40 = VERTEX_POINT ( 'NONE', #186 ) ;
#41 = DIRECTION ( 'NONE',  ( -1.000000000000000000, 0.000000000000000000, 0.000000000000000000 ) ) ;
#42 = DIRECTION ( 'NONE',  ( -2.968840725205704707E-17, 1.000000000000000000, 0.000000000000000000 ) ) ;
#43 = FACE_OUTER_BOUND ( 'NONE', #108, .T. ) ;
#44 = CARTESIAN_POINT ( 'NONE',  ( -6.123233995736766036E-17, 2.500000000000000000, 0.000000000000000000 ) ) ;
#45 = FILL_AREA_STYLE_COLOUR ( '', #31 ) ;
#46 = DIRECTION ( 'NONE',  ( -2.968840725205704707E-17, 1.000000000000000000, -0.000000000000000000 ) ) ;
#47 = STYLED_ITEM ( 'NONE', ( #326 ), #249 ) ;
#48 = ORIENTED_EDGE ( 'NONE', *, *, #283, .F. ) ;
#49 = DIRECTION ( 'NONE',  ( 0.000000000000000000, 0.000000000000000000, -1.000000000000000000 ) ) ;
#50 =( LENGTH_UNIT ( ) NAMED_UNIT ( * ) SI_UNIT ( $, .METRE. ) );
#51 = ORIENTED_EDGE ( 'NONE', *, *, #283, .T. ) ;
#52 = DIRECTION ( 'NONE',  ( -1.000000000000000000, 0.000000000000000000, 0.000000000000000000 ) ) ;
#53 = UNCERTAINTY_MEASURE_WITH_UNIT (LENGTH_MEASURE( 1.000000000000000082E-05 ), #171, 'distance_accuracy_value', 'NONE');
#54 = DIRECTION ( 'NONE',  ( 0.000000000000000000, 0.000000000000000000, -1.000000000000000000 ) ) ;
#55 = COLOUR_RGB ( '',0.7921568627450980005, 0.8196078431372548767, 0.9333333333333333481 ) ;
#56 = PRESENTATION_LAYER_ASSIGNMENT (  '', '', ( #309 ) ) ;
#57 = DIRECTION ( 'NONE',  ( 0.000000000000000000, 0.000000000000000000, -1.000000000000000000 ) ) ;
#58 =( NAMED_UNIT ( * ) SI_UNIT ( $, .STERADIAN. ) SOLID_ANGLE_UNIT ( ) );
#59 = DIRECTION ( 'NONE',  ( -2.968840725205704707E-17, 1.000000000000000000, -0.000000000000000000 ) ) ;
#60 = EDGE_LOOP ( 'NONE', ( #149, #208 ) ) ;
#61 = LINE ( 'NONE', #8, #329 ) ;
#62 = CARTESIAN_POINT ( 'NONE',  ( 4.819062838834133551E-35, 0.4375000000000000000, 0.000000000000000000 ) ) ;
#63 = EDGE_CURVE ( 'NONE', #40, #119, #355, .T. ) ;
#64 =( NAMED_UNIT ( * ) SI_UNIT ( $, .STERADIAN. ) SOLID_ANGLE_UNIT ( ) );
#65 =( GEOMETRIC_REPRESENTATION_CONTEXT ( 3 ) GLOBAL_UNCERTAINTY_ASSIGNED_CONTEXT ( ( #91 ) ) GLOBAL_UNIT_ASSIGNED_CONTEXT ( ( #117, #317, #64 ) ) REPRESENTATION_CONTEXT ( 'NONE', 'WORKASPACE' ) );
#66 = FILL_AREA_STYLE ('',( #201 ) ) ;
#67 = SURFACE_STYLE_USAGE ( .BOTH. , #319 ) ;
#68 = SHAPE_DEFINITION_REPRESENTATION ( #265, #270 ) ;
#69 = ADVANCED_FACE ( 'NONE', ( #219 ), #281, .T. ) ;
#70 =( NAMED_UNIT ( * ) PLANE_ANGLE_UNIT ( ) SI_UNIT ( $, .RADIAN. ) );
#71 = STYLED_ITEM ( 'NONE', ( #343 ), #7 ) ;
#72 = MECHANICAL_DESIGN_GEOMETRIC_PRESENTATION_REPRESENTATION (  '', ( #160 ), #287 ) ;
#73 = EDGE_LOOP ( 'NONE', ( #285, #15 ) ) ;
#74 = ORIENTED_EDGE ( 'NONE', *, *, #107, .F. ) ;
#75 = FACE_OUTER_BOUND ( 'NONE', #10, .T. ) ;
#76 = ORIENTED_EDGE ( 'NONE', *, *, #298, .F. ) ;
#77 = EDGE_LOOP ( 'NONE', ( #74, #179, #22, #76 ) ) ;
#78 = CYLINDRICAL_SURFACE ( 'NONE', #106, 0.1249999999999999584 ) ;
#79 = ORIENTED_EDGE ( 'NONE', *, *, #311, .T. ) ;
#80 = FACE_OUTER_BOUND ( 'NONE', #321, .T. ) ;
#81 = SURFACE_SIDE_STYLE ('',( #299 ) ) ;
#82 = FILL_AREA_STYLE ('',( #353 ) ) ;
#83 =( GEOMETRIC_REPRESENTATION_CONTEXT ( 3 ) GLOBAL_UNCERTAINTY_ASSIGNED_CONTEXT ( ( #105 ) ) GLOBAL_UNIT_ASSIGNED_CONTEXT ( ( #131, #328, #165 ) ) REPRESENTATION_CONTEXT ( 'NONE', 'WORKASPACE' ) );
#84 = LENGTH_MEASURE_WITH_UNIT ( LENGTH_MEASURE( 0.02539999999999999897 ), #332 );
#85 =( CONVERSION_BASED_UNIT ( 'INCH', #300 ) LENGTH_UNIT ( ) NAMED_UNIT ( #255 ) );
#86 = VECTOR ( 'NONE', #147, 39.37007874015748143 ) ;
#87 = CLOSED_SHELL ( 'NONE', ( #289, #69, #259, #249 ) ) ;
#88 = CARTESIAN_POINT ( 'NONE',  ( 1.339151274867630941E-17, 0.000000000000000000, 0.1093500000000000028 ) ) ;
#89 = PRODUCT_CONTEXT ( 'NONE', #102, 'mechanical' ) ;
#90 = MECHANICAL_DESIGN_GEOMETRIC_PRESENTATION_REPRESENTATION (  '', ( #47 ), #83 ) ;
#91 = UNCERTAINTY_MEASURE_WITH_UNIT (LENGTH_MEASURE( 1.000000000000000082E-05 ), #117, 'distance_accuracy_value', 'NONE');
#92 = PRODUCT_RELATED_PRODUCT_CATEGORY ( 'part', '', ( #210 ) ) ;
#93 = CARTESIAN_POINT ( 'NONE',  ( 0.1093499999999999889, 0.4374999999999998890, 1.339151274867630478E-17 ) ) ;
#94 = ORIENTED_EDGE ( 'NONE', *, *, #144, .F. ) ;
#95 = DIRECTION ( 'NONE',  ( 0.000000000000000000, 0.000000000000000000, -1.000000000000000000 ) ) ;
#96 = AXIS2_PLACEMENT_3D ( 'NONE', #44, #240, #162 ) ;
#97 = AXIS2_PLACEMENT_3D ( 'NONE', #120, #59, #258 ) ;
#98 =( GEOMETRIC_REPRESENTATION_CONTEXT ( 3 ) GLOBAL_UNCERTAINTY_ASSIGNED_CONTEXT ( ( #53 ) ) GLOBAL_UNIT_ASSIGNED_CONTEXT ( ( #171, #278, #169 ) ) REPRESENTATION_CONTEXT ( 'NONE', 'WORKASPACE' ) );
#99 = ORIENTED_EDGE ( 'NONE', *, *, #228, .T. ) ;
#100 = DIRECTION ( 'NONE',  ( -2.968840725205704707E-17, 1.000000000000000000, -0.000000000000000000 ) ) ;
#101 = VERTEX_POINT ( 'NONE', #313 ) ;
#102 = APPLICATION_CONTEXT ( 'automotive_design' ) ;
#103 = ORIENTED_EDGE ( 'NONE', *, *, #144, .T. ) ;
#104 = DIRECTION ( 'NONE',  ( -1.000000000000000000, 0.000000000000000000, 0.000000000000000000 ) ) ;
#105 = UNCERTAINTY_MEASURE_WITH_UNIT (LENGTH_MEASURE( 1.000000000000000082E-05 ), #131, 'distance_accuracy_value', 'NONE');
#106 = AXIS2_PLACEMENT_3D ( 'NONE', #181, #46, #164 ) ;
#107 = EDGE_CURVE ( 'NONE', #212, #293, #34, .T. ) ;
#108 = EDGE_LOOP ( 'NONE', ( #239, #103 ) ) ;
#109 = SURFACE_SIDE_STYLE ('',( #269 ) ) ;
#110 = LENGTH_MEASURE_WITH_UNIT ( LENGTH_MEASURE( 0.02539999999999999897 ), #350 );
#111 = CARTESIAN_POINT ( 'NONE',  ( 7.582401355855259480E-33, 0.4374999999999998890, 0.000000000000000000 ) ) ;
#112 = CONICAL_SURFACE ( 'NONE', #359, 0.1093499999999999889, 0.3490658503988672279 ) ;
#113 = FILL_AREA_STYLE ('',( #335 ) ) ;
#114 = CARTESIAN_POINT ( 'NONE',  ( 0.000000000000000000, 0.000000000000000000, 0.000000000000000000 ) ) ;
#115 = VECTOR ( 'NONE', #6, 39.37007874015748143 ) ;
#116 = DIRECTION ( 'NONE',  ( 0.000000000000000000, 1.000000000000000000, 0.000000000000000000 ) ) ;
#117 =( CONVERSION_BASED_UNIT ( 'INCH', #33 ) LENGTH_UNIT ( ) NAMED_UNIT ( #315 ) );
#118 = AXIS2_PLACEMENT_3D ( 'NONE', #257, #116, #316 ) ;
#119 = VERTEX_POINT ( 'NONE', #229 ) ;
#120 = CARTESIAN_POINT ( 'NONE',  ( -1.276542776722964990E-18, 0.4804980216144644212, 0.000000000000000000 ) ) ;
#121 = DIMENSIONAL_EXPONENTS ( 1.000000000000000000, 0.000000000000000000, 0.000000000000000000, 0.000000000000000000, 0.000000000000000000, 0.000000000000000000, 0.000000000000000000 ) ;
#122 = LINE ( 'NONE', #93, #86 ) ;
#123 = PRESENTATION_LAYER_ASSIGNMENT (  '', '', ( #160 ) ) ;
#124 = ORIENTED_EDGE ( 'NONE', *, *, #129, .T. ) ;
#125 = DIMENSIONAL_EXPONENTS ( 1.000000000000000000, 0.000000000000000000, 0.000000000000000000, 0.000000000000000000, 0.000000000000000000, 0.000000000000000000, 0.000000000000000000 ) ;
#126 = ORIENTED_EDGE ( 'NONE', *, *, #358, .T. ) ;
#127 = ORIENTED_EDGE ( 'NONE', *, *, #311, .F. ) ;
#128 = AXIS2_PLACEMENT_3D ( 'NONE', #263, #136, #104 ) ;
#129 = EDGE_CURVE ( 'NONE', #130, #40, #122, .T. ) ;
#130 = VERTEX_POINT ( 'NONE', #5 ) ;
#131 =( CONVERSION_BASED_UNIT ( 'INCH', #324 ) LENGTH_UNIT ( ) NAMED_UNIT ( #125 ) );
#132 = MANIFOLD_SOLID_BREP ( 'Revolve - Tool Body (Reduced Cut Diameter)', #224 ) ;
#133 = ORIENTED_EDGE ( 'NONE', *, *, #192, .T. ) ;
#134 = CARTESIAN_POINT ( 'NONE',  ( -6.123233995736766036E-17, 2.500000000000000000, 0.000000000000000000 ) ) ;
#135 = ADVANCED_FACE ( 'NONE', ( #227 ), #339, .F. ) ;
#136 = DIRECTION ( 'NONE',  ( -2.968840725205704707E-17, 1.000000000000000000, -0.000000000000000000 ) ) ;
#137 =( GEOMETRIC_REPRESENTATION_CONTEXT ( 3 ) GLOBAL_UNCERTAINTY_ASSIGNED_CONTEXT ( ( #342 ) ) GLOBAL_UNIT_ASSIGNED_CONTEXT ( ( #236, #70, #58 ) ) REPRESENTATION_CONTEXT ( 'NONE', 'WORKASPACE' ) );
#138 = AXIS2_PLACEMENT_3D ( 'NONE', #209, #24, #95 ) ;
#139 =( NAMED_UNIT ( * ) SI_UNIT ( $, .STERADIAN. ) SOLID_ANGLE_UNIT ( ) );
#140 = CARTESIAN_POINT ( 'NONE',  ( 0.000000000000000000, 0.000000000000000000, 0.000000000000000000 ) ) ;
#141 = FILL_AREA_STYLE_COLOUR ( '', #12 ) ;
#142 = DIRECTION ( 'NONE',  ( 0.000000000000000000, -1.000000000000000000, -0.000000000000000000 ) ) ;
#143 = FILL_AREA_STYLE_COLOUR ( '', #295 ) ;
#144 = EDGE_CURVE ( 'NONE', #119, #101, #280, .T. ) ;
#145 = DIRECTION ( 'NONE',  ( -0.000000000000000000, -1.000000000000000000, -0.000000000000000000 ) ) ;
#146 = AXIS2_PLACEMENT_3D ( 'NONE', #214, #238, #49 ) ;
#147 = DIRECTION ( 'NONE',  ( 0.3420201433256699342, 0.9396926207859079838, 4.188538737677007172E-17 ) ) ;
#148 = STYLED_ITEM ( 'NONE', ( #245 ), #69 ) ;
#149 = ORIENTED_EDGE ( 'NONE', *, *, #252, .T. ) ;
#150 = CARTESIAN_POINT ( 'NONE',  ( -0.1093499999999999889, 0.4374999999999998890, 0.000000000000000000 ) ) ;
#151 = AXIS2_PLACEMENT_3D ( 'NONE', #111, #27, #251 ) ;
#152 = DIMENSIONAL_EXPONENTS ( 1.000000000000000000, 0.000000000000000000, 0.000000000000000000, 0.000000000000000000, 0.000000000000000000, 0.000000000000000000, 0.000000000000000000 ) ;
#153 = ORIENTED_EDGE ( 'NONE', *, *, #183, .T. ) ;
#154 = DIRECTION ( 'NONE',  ( -1.000000000000000000, 0.000000000000000000, 0.000000000000000000 ) ) ;
#155 = EDGE_CURVE ( 'NONE', #212, #264, #301, .T. ) ;
#156 = ORIENTED_EDGE ( 'NONE', *, *, #192, .F. ) ;
#157 = DIRECTION ( 'NONE',  ( 1.000000000000000000, 2.968840725205704707E-17, 0.000000000000000000 ) ) ;
#158 = SURFACE_STYLE_FILL_AREA ( #349 ) ;
#159 = DIRECTION ( 'NONE',  ( -2.968840725205704707E-17, 1.000000000000000000, -0.000000000000000000 ) ) ;
#160 = STYLED_ITEM ( 'NONE', ( #223 ), #259 ) ;
#161 = ORIENTED_EDGE ( 'NONE', *, *, #63, .T. ) ;
#162 = DIRECTION ( 'NONE',  ( -1.000000000000000000, 0.000000000000000000, 0.000000000000000000 ) ) ;
#163 = ADVANCED_FACE ( 'NONE', ( #75 ), #78, .T. ) ;
#164 = DIRECTION ( 'NONE',  ( -1.000000000000000000, 0.000000000000000000, 0.000000000000000000 ) ) ;
#165 =( NAMED_UNIT ( * ) SI_UNIT ( $, .STERADIAN. ) SOLID_ANGLE_UNIT ( ) );
#166 = MECHANICAL_DESIGN_GEOMETRIC_PRESENTATION_REPRESENTATION (  '', ( #71 ), #98 ) ;
#167 = AXIS2_PLACEMENT_3D ( 'NONE', #114, #277, #308 ) ;
#168 = SURFACE_STYLE_USAGE ( .BOTH. , #220 ) ;
#169 =( NAMED_UNIT ( * ) SI_UNIT ( $, .STERADIAN. ) SOLID_ANGLE_UNIT ( ) );
#170 = AXIS2_PLACEMENT_3D ( 'NONE', #338, #145, #310 ) ;
#171 =( CONVERSION_BASED_UNIT ( 'INCH', #110 ) LENGTH_UNIT ( ) NAMED_UNIT ( #121 ) );
#172 = CARTESIAN_POINT ( 'NONE',  ( 0.000000000000000000, 0.000000000000000000, 0.000000000000000000 ) ) ;
#173 = DIRECTION ( 'NONE',  ( -0.000000000000000000, -1.000000000000000000, -0.000000000000000000 ) ) ;
#174 = CIRCLE ( 'NONE', #28, 0.1250000000000000000 ) ;
#175 = SURFACE_STYLE_FILL_AREA ( #66 ) ;
#176 = DIRECTION ( 'NONE',  ( 1.000000000000000000, 0.000000000000000000, 0.000000000000000000 ) ) ;
#177 = PRESENTATION_STYLE_ASSIGNMENT (( #67 ) ) ;
#178 = ORIENTED_EDGE ( 'NONE', *, *, #358, .F. ) ;
#179 = ORIENTED_EDGE ( 'NONE', *, *, #155, .T. ) ;
#180 = CARTESIAN_POINT ( 'NONE',  ( 7.582401355855259480E-33, 0.4374999999999998890, 0.000000000000000000 ) ) ;
#181 = CARTESIAN_POINT ( 'NONE',  ( -6.123233995736766036E-17, 2.500000000000000000, 0.000000000000000000 ) ) ;
#182 = LENGTH_MEASURE_WITH_UNIT ( LENGTH_MEASURE( 0.02539999999999999897 ), #50 );
#183 = EDGE_CURVE ( 'NONE', #262, #130, #260, .T. ) ;
#184 = ORIENTED_EDGE ( 'NONE', *, *, #348, .T. ) ;
#185 = CARTESIAN_POINT ( 'NONE',  ( 7.582401355855259480E-33, 0.4374999999999998890, 0.000000000000000000 ) ) ;
#186 = CARTESIAN_POINT ( 'NONE',  ( 0.1249999999999999306, 0.4804980216144644212, 1.530808498934190585E-17 ) ) ;
#187 = ORIENTED_EDGE ( 'NONE', *, *, #183, .F. ) ;
#188 = ADVANCED_FACE ( 'NONE', ( #241 ), #112, .T. ) ;
#189 =( NAMED_UNIT ( * ) PLANE_ANGLE_UNIT ( ) SI_UNIT ( $, .RADIAN. ) );
#190 = CIRCLE ( 'NONE', #344, 0.1249999999999999306 ) ;
#191 = AXIS2_PLACEMENT_3D ( 'NONE', #180, #267, #41 ) ;
#192 = EDGE_CURVE ( 'NONE', #40, #205, #190, .T. ) ;
#193 =( GEOMETRIC_REPRESENTATION_CONTEXT ( 3 ) GLOBAL_UNCERTAINTY_ASSIGNED_CONTEXT ( ( #305 ) ) GLOBAL_UNIT_ASSIGNED_CONTEXT ( ( #26, #246, #1 ) ) REPRESENTATION_CONTEXT ( 'NONE', 'WORKASPACE' ) );
#194 = DIRECTION ( 'NONE',  ( -0.000000000000000000, -1.000000000000000000, -0.000000000000000000 ) ) ;
#195 = SURFACE_SIDE_STYLE ('',( #30 ) ) ;
#196 = ADVANCED_FACE ( 'NONE', ( #43 ), #294, .F. ) ;
#197 = CARTESIAN_POINT ( 'NONE',  ( 0.000000000000000000, 0.000000000000000000, 0.000000000000000000 ) ) ;
#198 = COLOUR_RGB ( '',1.000000000000000000, 0.000000000000000000, 0.000000000000000000 ) ;
#199 = ADVANCED_FACE ( 'NONE', ( #272 ), #351, .T. ) ;
#200 = DIRECTION ( 'NONE',  ( 0.000000000000000000, 0.000000000000000000, -1.000000000000000000 ) ) ;
#201 = FILL_AREA_STYLE_COLOUR ( '', #55 ) ;
#202 = DIRECTION ( 'NONE',  ( -0.000000000000000000, -1.000000000000000000, -0.000000000000000000 ) ) ;
#203 = PRODUCT_DEFINITION_CONTEXT ( 'detailed design', #334, 'design' ) ;
#204 = PRESENTATION_LAYER_ASSIGNMENT (  '', '', ( #148 ) ) ;
#205 = VERTEX_POINT ( 'NONE', #347 ) ;
#206 =( LENGTH_UNIT ( ) NAMED_UNIT ( * ) SI_UNIT ( $, .METRE. ) );
#207 = STYLED_ITEM ( 'NONE', ( #177 ), #132 ) ;
#208 = ORIENTED_EDGE ( 'NONE', *, *, #298, .T. ) ;
#209 = CARTESIAN_POINT ( 'NONE',  ( 0.000000000000000000, 0.4375000000000000000, 0.000000000000000000 ) ) ;
#210 = PRODUCT ( '81709', '81709', '', ( #89 ) ) ;
#211 = DIMENSIONAL_EXPONENTS ( 1.000000000000000000, 0.000000000000000000, 0.000000000000000000, 0.000000000000000000, 0.000000000000000000, 0.000000000000000000, 0.000000000000000000 ) ;
#212 = VERTEX_POINT ( 'NONE', #23 ) ;
#213 = DIRECTION ( 'NONE',  ( -2.968840725205704707E-17, 1.000000000000000000, -0.000000000000000000 ) ) ;
#214 = CARTESIAN_POINT ( 'NONE',  ( 0.000000000000000000, 0.4375000000000000000, 0.000000000000000000 ) ) ;
#215 = EDGE_CURVE ( 'NONE', #101, #119, #174, .T. ) ;
#216 =( NAMED_UNIT ( * ) PLANE_ANGLE_UNIT ( ) SI_UNIT ( $, .RADIAN. ) );
#217 = PRESENTATION_STYLE_ASSIGNMENT (( #168 ) ) ;
#218 = CONICAL_SURFACE ( 'NONE', #314, 0.1093499999999999889, 0.3490658503988672279 ) ;
#219 = FACE_OUTER_BOUND ( 'NONE', #73, .T. ) ;
#220 = SURFACE_SIDE_STYLE ('',( #2 ) ) ;
#221 = ADVANCED_FACE ( 'NONE', ( #80 ), #218, .T. ) ;
#222 = CARTESIAN_POINT ( 'NONE',  ( 0.000000000000000000, 0.4375000000000000000, -0.1093499999999999889 ) ) ;
#223 = PRESENTATION_STYLE_ASSIGNMENT (( #250 ) ) ;
#224 = CLOSED_SHELL ( 'NONE', ( #199, #188, #135, #221, #163, #196 ) ) ;
#225 = CIRCLE ( 'NONE', #167, 0.1093500000000000028 ) ;
#226 = ORIENTED_EDGE ( 'NONE', *, *, #63, .F. ) ;
#227 = FACE_OUTER_BOUND ( 'NONE', #18, .T. ) ;
#228 = EDGE_CURVE ( 'NONE', #264, #212, #36, .T. ) ;
#229 = CARTESIAN_POINT ( 'NONE',  ( 0.1249999999999999445, 2.500000000000000000, 1.530808498934191509E-17 ) ) ;
#230 = DIRECTION ( 'NONE',  ( 0.000000000000000000, 0.000000000000000000, 1.000000000000000000 ) ) ;
#231 = APPLICATION_PROTOCOL_DEFINITION ( 'draft international standard', 'automotive_design', 1998, #334 ) ;
#232 =( NAMED_UNIT ( * ) SI_UNIT ( $, .STERADIAN. ) SOLID_ANGLE_UNIT ( ) );
#233 = UNCERTAINTY_MEASURE_WITH_UNIT (LENGTH_MEASURE( 1.000000000000000082E-05 ), #25, 'distance_accuracy_value', 'NONE');
#234 = SURFACE_STYLE_USAGE ( .BOTH. , #16 ) ;
#235 = VECTOR ( 'NONE', #35, 39.37007874015748143 ) ;
#236 =( CONVERSION_BASED_UNIT ( 'INCH', #182 ) LENGTH_UNIT ( ) NAMED_UNIT ( #13 ) );
#237 = ORIENTED_EDGE ( 'NONE', *, *, #107, .T. ) ;
#238 = DIRECTION ( 'NONE',  ( -0.000000000000000000, -1.000000000000000000, -0.000000000000000000 ) ) ;
#239 = ORIENTED_EDGE ( 'NONE', *, *, #215, .T. ) ;
#240 = DIRECTION ( 'NONE',  ( -2.968840725205704707E-17, 1.000000000000000000, -0.000000000000000000 ) ) ;
#241 = FACE_OUTER_BOUND ( 'NONE', #290, .T. ) ;
#242 = MECHANICAL_DESIGN_GEOMETRIC_PRESENTATION_REPRESENTATION (  '', ( #207 ), #137 ) ;
#243 = FACE_OUTER_BOUND ( 'NONE', #60, .T. ) ;
#244 = PRESENTATION_LAYER_ASSIGNMENT (  '', '', ( #47 ) ) ;
#245 = PRESENTATION_STYLE_ASSIGNMENT (( #276 ) ) ;
#246 =( NAMED_UNIT ( * ) PLANE_ANGLE_UNIT ( ) SI_UNIT ( $, .RADIAN. ) );
#247 =( LENGTH_UNIT ( ) NAMED_UNIT ( * ) SI_UNIT ( $, .METRE. ) );
#248 = CIRCLE ( 'NONE', #170, 0.1093500000000000028 ) ;
#249 = ADVANCED_FACE ( 'NONE', ( #243 ), #331, .T. ) ;
#250 = SURFACE_STYLE_USAGE ( .BOTH. , #195 ) ;
#251 = DIRECTION ( 'NONE',  ( -1.000000000000000000, 0.000000000000000000, 0.000000000000000000 ) ) ;
#252 = EDGE_CURVE ( 'NONE', #266, #293, #225, .T. ) ;
#253 = AXIS2_PLACEMENT_3D ( 'NONE', #62, #42, #37 ) ;
#254 = CIRCLE ( 'NONE', #97, 0.1249999999999999306 ) ;
#255 = DIMENSIONAL_EXPONENTS ( 1.000000000000000000, 0.000000000000000000, 0.000000000000000000, 0.000000000000000000, 0.000000000000000000, 0.000000000000000000, 0.000000000000000000 ) ;
#256 = LINE ( 'NONE', #3, #115 ) ;
#257 = CARTESIAN_POINT ( 'NONE',  ( 0.000000000000000000, 0.4375000000000000000, 0.000000000000000000 ) ) ;
#258 = DIRECTION ( 'NONE',  ( -1.000000000000000000, 0.000000000000000000, 0.000000000000000000 ) ) ;
#259 = ADVANCED_FACE ( 'NONE', ( #333 ), #357, .T. ) ;
#260 = CIRCLE ( 'NONE', #191, 0.1093499999999999889 ) ;
#261 = ORIENTED_EDGE ( 'NONE', *, *, #348, .F. ) ;
#262 = VERTEX_POINT ( 'NONE', #282 ) ;
#263 = CARTESIAN_POINT ( 'NONE',  ( -6.123233995736766036E-17, 2.500000000000000000, 0.000000000000000000 ) ) ;
#264 = VERTEX_POINT ( 'NONE', #222 ) ;
#265 = PRODUCT_DEFINITION_SHAPE ( 'NONE', 'NONE',  #325 ) ;
#266 = VERTEX_POINT ( 'NONE', #32 ) ;
#267 = DIRECTION ( 'NONE',  ( -2.968840725205704707E-17, 1.000000000000000000, -0.000000000000000000 ) ) ;
#268 = PRODUCT_DEFINITION_FORMATION_WITH_SPECIFIED_SOURCE ( 'ANY', '', #210, .NOT_KNOWN. ) ;
#269 = SURFACE_STYLE_FILL_AREA ( #82 ) ;
#270 = ADVANCED_BREP_SHAPE_REPRESENTATION ( '81709', ( #7, #132, #286 ), #65 ) ;
#271 = ORIENTED_EDGE ( 'NONE', *, *, #129, .F. ) ;
#272 = FACE_OUTER_BOUND ( 'NONE', #21, .T. ) ;
#273 = DIRECTION ( 'NONE',  ( 2.968840725205704707E-17, -1.000000000000000000, 0.000000000000000000 ) ) ;
#274 = PRESENTATION_LAYER_ASSIGNMENT (  '', '', ( #71 ) ) ;
#275 = FILL_AREA_STYLE ('',( #143 ) ) ;
#276 = SURFACE_STYLE_USAGE ( .BOTH. , #81 ) ;
#277 = DIRECTION ( 'NONE',  ( -0.000000000000000000, -1.000000000000000000, -0.000000000000000000 ) ) ;
#278 =( NAMED_UNIT ( * ) PLANE_ANGLE_UNIT ( ) SI_UNIT ( $, .RADIAN. ) );
#279 =( GEOMETRIC_REPRESENTATION_CONTEXT ( 3 ) GLOBAL_UNCERTAINTY_ASSIGNED_CONTEXT ( ( #354 ) ) GLOBAL_UNIT_ASSIGNED_CONTEXT ( ( #85, #216, #232 ) ) REPRESENTATION_CONTEXT ( 'NONE', 'WORKASPACE' ) );
#280 = CIRCLE ( 'NONE', #96, 0.1250000000000000000 ) ;
#281 = PLANE ( 'NONE',  #118 ) ;
#282 = CARTESIAN_POINT ( 'NONE',  ( -0.1093499999999999889, 0.4374999999999998890, 0.000000000000000000 ) ) ;
#283 = EDGE_CURVE ( 'NONE', #130, #262, #20, .T. ) ;
#284 = LINE ( 'NONE', #150, #235 ) ;
#285 = ORIENTED_EDGE ( 'NONE', *, *, #228, .F. ) ;
#286 = AXIS2_PLACEMENT_3D ( 'NONE', #320, #230, #176 ) ;
#287 =( GEOMETRIC_REPRESENTATION_CONTEXT ( 3 ) GLOBAL_UNCERTAINTY_ASSIGNED_CONTEXT ( ( #233 ) ) GLOBAL_UNIT_ASSIGNED_CONTEXT ( ( #25, #189, #139 ) ) REPRESENTATION_CONTEXT ( 'NONE', 'WORKASPACE' ) );
#288 = SURFACE_STYLE_USAGE ( .BOTH. , #109 ) ;
#289 = ADVANCED_FACE ( 'NONE', ( #302 ), #304, .T. ) ;
#290 = EDGE_LOOP ( 'NONE', ( #153, #124, #178, #127 ) ) ;
#291 = CARTESIAN_POINT ( 'NONE',  ( -1.276542776722964990E-18, 0.4804980216144644212, 0.000000000000000000 ) ) ;
#292 = EDGE_CURVE ( 'NONE', #264, #266, #61, .T. ) ;
#293 = VERTEX_POINT ( 'NONE', #88 ) ;
#294 = PLANE ( 'NONE',  #352 ) ;
#295 = COLOUR_RGB ( '',1.000000000000000000, 0.000000000000000000, 0.000000000000000000 ) ;
#296 = CARTESIAN_POINT ( 'NONE',  ( 0.1249999999999999306, 2.500000000000000000, 0.000000000000000000 ) ) ;
#297 = CARTESIAN_POINT ( 'NONE',  ( 7.582401355855259480E-33, 0.4374999999999998890, 0.000000000000000000 ) ) ;
#298 = EDGE_CURVE ( 'NONE', #293, #266, #248, .T. ) ;
#299 = SURFACE_STYLE_FILL_AREA ( #306 ) ;
#300 = LENGTH_MEASURE_WITH_UNIT ( LENGTH_MEASURE( 0.02539999999999999897 ), #307 );
#301 = CIRCLE ( 'NONE', #146, 0.1093499999999999889 ) ;
#302 = FACE_OUTER_BOUND ( 'NONE', #318, .T. ) ;
#303 = MECHANICAL_DESIGN_GEOMETRIC_PRESENTATION_REPRESENTATION (  '', ( #309 ), #279 ) ;
#304 = CYLINDRICAL_SURFACE ( 'NONE', #341, 0.1093499999999999889 ) ;
#305 = UNCERTAINTY_MEASURE_WITH_UNIT (LENGTH_MEASURE( 1.000000000000000082E-05 ), #26, 'distance_accuracy_value', 'NONE');
#306 = FILL_AREA_STYLE ('',( #141 ) ) ;
#307 =( LENGTH_UNIT ( ) NAMED_UNIT ( * ) SI_UNIT ( $, .METRE. ) );
#308 = DIRECTION ( 'NONE',  ( 0.000000000000000000, 0.000000000000000000, -1.000000000000000000 ) ) ;
#309 = STYLED_ITEM ( 'NONE', ( #217 ), #289 ) ;
#310 = DIRECTION ( 'NONE',  ( 0.000000000000000000, 0.000000000000000000, -1.000000000000000000 ) ) ;
#311 = EDGE_CURVE ( 'NONE', #262, #205, #284, .T. ) ;
#312 = DIRECTION ( 'NONE',  ( -0.000000000000000000, -1.000000000000000000, -0.000000000000000000 ) ) ;
#313 = CARTESIAN_POINT ( 'NONE',  ( -0.1250000000000000555, 2.500000000000000000, 0.000000000000000000 ) ) ;
#314 = AXIS2_PLACEMENT_3D ( 'NONE', #297, #159, #52 ) ;
#315 = DIMENSIONAL_EXPONENTS ( 1.000000000000000000, 0.000000000000000000, 0.000000000000000000, 0.000000000000000000, 0.000000000000000000, 0.000000000000000000, 0.000000000000000000 ) ;
#316 = DIRECTION ( 'NONE',  ( 0.000000000000000000, -0.000000000000000000, 1.000000000000000000 ) ) ;
#317 =( NAMED_UNIT ( * ) PLANE_ANGLE_UNIT ( ) SI_UNIT ( $, .RADIAN. ) );
#318 = EDGE_LOOP ( 'NONE', ( #99, #237, #327, #11 ) ) ;
#319 = SURFACE_SIDE_STYLE ('',( #175 ) ) ;
#320 = CARTESIAN_POINT ( 'NONE',  ( 0.000000000000000000, 0.000000000000000000, 0.000000000000000000 ) ) ;
#321 = EDGE_LOOP ( 'NONE', ( #271, #51, #79, #156 ) ) ;
#322 = COLOUR_RGB ( '',1.000000000000000000, 0.000000000000000000, 0.000000000000000000 ) ;
#323 = VECTOR ( 'NONE', #312, 39.37007874015748143 ) ;
#324 = LENGTH_MEASURE_WITH_UNIT ( LENGTH_MEASURE( 0.02539999999999999897 ), #206 );
#325 = PRODUCT_DEFINITION ( 'UNKNOWN', '', #268, #203 ) ;
#326 = PRESENTATION_STYLE_ASSIGNMENT (( #288 ) ) ;
#327 = ORIENTED_EDGE ( 'NONE', *, *, #252, .F. ) ;
#328 =( NAMED_UNIT ( * ) PLANE_ANGLE_UNIT ( ) SI_UNIT ( $, .RADIAN. ) );
#329 = VECTOR ( 'NONE', #173, 39.37007874015748143 ) ;
#330 = DIRECTION ( 'NONE',  ( -1.000000000000000000, 0.000000000000000000, 0.000000000000000000 ) ) ;
#331 = PLANE ( 'NONE',  #39 ) ;
#332 =( LENGTH_UNIT ( ) NAMED_UNIT ( * ) SI_UNIT ( $, .METRE. ) );
#333 = FACE_OUTER_BOUND ( 'NONE', #77, .T. ) ;
#334 = APPLICATION_CONTEXT ( 'automotive_design' ) ;
#335 = FILL_AREA_STYLE_COLOUR ( '', #198 ) ;
#336 = LENGTH_MEASURE_WITH_UNIT ( LENGTH_MEASURE( 0.02539999999999999897 ), #247 );
#337 = AXIS2_PLACEMENT_3D ( 'NONE', #140, #194, #57 ) ;
#338 = CARTESIAN_POINT ( 'NONE',  ( 0.000000000000000000, 0.000000000000000000, 0.000000000000000000 ) ) ;
#339 = PLANE ( 'NONE',  #253 ) ;
#340 = APPLICATION_PROTOCOL_DEFINITION ( 'draft international standard', 'automotive_design', 1998, #102 ) ;
#341 = AXIS2_PLACEMENT_3D ( 'NONE', #197, #202, #200 ) ;
#342 = UNCERTAINTY_MEASURE_WITH_UNIT (LENGTH_MEASURE( 1.000000000000000082E-05 ), #236, 'distance_accuracy_value', 'NONE');
#343 = PRESENTATION_STYLE_ASSIGNMENT (( #234 ) ) ;
#344 = AXIS2_PLACEMENT_3D ( 'NONE', #291, #19, #154 ) ;
#345 = MECHANICAL_DESIGN_GEOMETRIC_PRESENTATION_REPRESENTATION (  '', ( #148 ), #193 ) ;
#346 = ORIENTED_EDGE ( 'NONE', *, *, #215, .F. ) ;
#347 = CARTESIAN_POINT ( 'NONE',  ( -0.1249999999999999306, 0.4804980216144644212, 0.000000000000000000 ) ) ;
#348 = EDGE_CURVE ( 'NONE', #205, #101, #256, .T. ) ;
#349 = FILL_AREA_STYLE ('',( #45 ) ) ;
#350 =( LENGTH_UNIT ( ) NAMED_UNIT ( * ) SI_UNIT ( $, .METRE. ) );
#351 = CYLINDRICAL_SURFACE ( 'NONE', #128, 0.1249999999999999584 ) ;
#352 = AXIS2_PLACEMENT_3D ( 'NONE', #296, #273, #157 ) ;
#353 = FILL_AREA_STYLE_COLOUR ( '', #322 ) ;
#354 = UNCERTAINTY_MEASURE_WITH_UNIT (LENGTH_MEASURE( 1.000000000000000082E-05 ), #85, 'distance_accuracy_value', 'NONE');
#355 = LINE ( 'NONE', #29, #4 ) ;
#356 = DIRECTION ( 'NONE',  ( -2.968840725205704707E-17, 1.000000000000000000, -0.000000000000000000 ) ) ;
#357 = CYLINDRICAL_SURFACE ( 'NONE', #337, 0.1093499999999999889 ) ;
#358 = EDGE_CURVE ( 'NONE', #205, #40, #254, .T. ) ;
#359 = AXIS2_PLACEMENT_3D ( 'NONE', #185, #213, #330 ) ;
ENDSEC;
END-ISO-10303-21;
