ISO-10303-21;
HEADER;
FILE_DESCRIPTION (( 'STEP AP214' ),
    '1' );
FILE_NAME ('Micro_RTCM-100-2.STEP',
    '2021-09-03T18:27:19',
    ( '' ),
    ( '' ),
    'SwSTEP 2.0',
    'SolidWorks 2020',
    '' );
FILE_SCHEMA (( 'AUTOMOTIVE_DESIGN' ));
ENDSEC;

DATA;
#1 = CARTESIAN_POINT ( 'NONE',  ( -0.003936999999999995191, -4.821434448243123477E-19, 2.834646000000000665 ) ) ;
#2 = MANIFOLD_SOLID_BREP ( 'Mirror1', #97 ) ;
#3 = CONICAL_SURFACE ( 'NONE', #143, 0.003936999999999995191, 0.2617993877991502960 ) ;
#4 = AXIS2_PLACEMENT_3D ( 'NONE', #178, #204, #15 ) ;
#5 = EDGE_CURVE ( 'NONE', #147, #38, #140, .T. ) ;
#6 = DIRECTION ( 'NONE',  ( -0.2588190451025216832, -3.169619151431776035E-17, -0.9659258262890679791 ) ) ;
#7 = CARTESIAN_POINT ( 'NONE',  ( 0.0000000000000000000, 0.0000000000000000000, 0.0000000000000000000 ) ) ;
#8 = DIRECTION ( 'NONE',  ( -1.000000000000000000, 0.0000000000000000000, 0.0000000000000000000 ) ) ;
#9 = VECTOR ( 'NONE', #69, 39.37007874015748143 ) ;
#10 = CARTESIAN_POINT ( 'NONE',  ( 0.0000000000000000000, 0.0000000000000000000, 0.0000000000000000000 ) ) ;
#11 =( CONVERSION_BASED_UNIT ( 'INCH', #182 ) LENGTH_UNIT ( ) NAMED_UNIT ( #206 ) );
#12 = DIRECTION ( 'NONE',  ( 0.2588190451025216832, 0.0000000000000000000, -0.9659258262890679791 ) ) ;
#13 = EDGE_CURVE ( 'NONE', #77, #130, #73, .T. ) ;
#14 = ORIENTED_EDGE ( 'NONE', *, *, #243, .T. ) ;
#15 = DIRECTION ( 'NONE',  ( 1.000000000000000000, 0.0000000000000000000, 0.0000000000000000000 ) ) ;
#16 = ORIENTED_EDGE ( 'NONE', *, *, #118, .T. ) ;
#17 = CYLINDRICAL_SURFACE ( 'NONE', #84, 0.1968504999999999838 ) ;
#18 = SURFACE_SIDE_STYLE ('',( #95 ) ) ;
#19 = SHAPE_DEFINITION_REPRESENTATION ( #119, #187 ) ;
#20 = CARTESIAN_POINT ( 'NONE',  ( 0.0000000000000000000, 0.0000000000000000000, 2.834646000000000665 ) ) ;
#21 = ADVANCED_FACE ( 'NONE', ( #214 ), #3, .T. ) ;
#22 = STYLED_ITEM ( 'NONE', ( #116 ), #2 ) ;
#23 = MECHANICAL_DESIGN_GEOMETRIC_PRESENTATION_REPRESENTATION (  '', ( #231 ), #247 ) ;
#24 = EDGE_CURVE ( 'NONE', #77, #147, #220, .T. ) ;
#25 = CARTESIAN_POINT ( 'NONE',  ( 0.1968504999999999838, 2.410723347355560646E-17, 0.7199629834659357908 ) ) ;
#26 = AXIS2_PLACEMENT_3D ( 'NONE', #157, #229, #61 ) ;
#27 = CARTESIAN_POINT ( 'NONE',  ( -0.003936999999999995191, 1.229468845918995584E-17, 0.0000000000000000000 ) ) ;
#28 = DIRECTION ( 'NONE',  ( -1.000000000000000000, 0.0000000000000000000, 0.0000000000000000000 ) ) ;
#29 = EDGE_LOOP ( 'NONE', ( #183, #152 ) ) ;
#30 = APPLICATION_PROTOCOL_DEFINITION ( 'draft international standard', 'automotive_design', 1998, #126 ) ;
#31 = ADVANCED_FACE ( 'NONE', ( #180 ), #32, .T. ) ;
#32 = CONICAL_SURFACE ( 'NONE', #88, 0.003936999999999995191, 0.2617993877991502960 ) ;
#33 = EDGE_LOOP ( 'NONE', ( #14, #16, #249, #185 ) ) ;
#34 = LINE ( 'NONE', #86, #9 ) ;
#35 = SURFACE_STYLE_USAGE ( .BOTH. , #18 ) ;
#36 = VERTEX_POINT ( 'NONE', #85 ) ;
#37 = AXIS2_PLACEMENT_3D ( 'NONE', #60, #160, #194 ) ;
#38 = VERTEX_POINT ( 'NONE', #177 ) ;
#39 = ORIENTED_EDGE ( 'NONE', *, *, #172, .T. ) ;
#40 =( GEOMETRIC_REPRESENTATION_CONTEXT ( 3 ) GLOBAL_UNCERTAINTY_ASSIGNED_CONTEXT ( ( #68 ) ) GLOBAL_UNIT_ASSIGNED_CONTEXT ( ( #136, #210, #168 ) ) REPRESENTATION_CONTEXT ( 'NONE', 'WORKASPACE' ) );
#41 = DIRECTION ( 'NONE',  ( 0.0000000000000000000, 0.0000000000000000000, 1.000000000000000000 ) ) ;
#42 = DIRECTION ( 'NONE',  ( 0.0000000000000000000, 0.0000000000000000000, -1.000000000000000000 ) ) ;
#43 = CARTESIAN_POINT ( 'NONE',  ( -0.003936999999999995191, -1.229468845918995584E-17, 2.834646000000000665 ) ) ;
#44 = PRODUCT ( 'Micro_RTCM-100-2', 'Micro_RTCM-100-2', '', ( #153 ) ) ;
#45 = DIRECTION ( 'NONE',  ( -1.000000000000000000, 0.0000000000000000000, 0.0000000000000000000 ) ) ;
#46 = CARTESIAN_POINT ( 'NONE',  ( 0.0000000000000000000, 0.0000000000000000000, 0.0000000000000000000 ) ) ;
#47 = AXIS2_PLACEMENT_3D ( 'NONE', #81, #41, #122 ) ;
#48 = DIRECTION ( 'NONE',  ( -0.0000000000000000000, -0.0000000000000000000, -1.000000000000000000 ) ) ;
#49 = CARTESIAN_POINT ( 'NONE',  ( 0.0000000000000000000, 0.0000000000000000000, 0.0000000000000000000 ) ) ;
#50 =( LENGTH_UNIT ( ) NAMED_UNIT ( * ) SI_UNIT ( $, .METRE. ) );
#51 = ORIENTED_EDGE ( 'NONE', *, *, #5, .F. ) ;
#52 = PRODUCT_DEFINITION_FORMATION_WITH_SPECIFIED_SOURCE ( 'ANY', '', #44, .NOT_KNOWN. ) ;
#53 = PLANE ( 'NONE',  #149 ) ;
#54 = EDGE_LOOP ( 'NONE', ( #39, #75, #110, #51 ) ) ;
#55 = DIMENSIONAL_EXPONENTS ( 1.000000000000000000, 0.0000000000000000000, 0.0000000000000000000, 0.0000000000000000000, 0.0000000000000000000, 0.0000000000000000000, 0.0000000000000000000 ) ;
#56 = ORIENTED_EDGE ( 'NONE', *, *, #24, .T. ) ;
#57 =( GEOMETRIC_REPRESENTATION_CONTEXT ( 3 ) GLOBAL_UNCERTAINTY_ASSIGNED_CONTEXT ( ( #181 ) ) GLOBAL_UNIT_ASSIGNED_CONTEXT ( ( #70, #201, #129 ) ) REPRESENTATION_CONTEXT ( 'NONE', 'WORKASPACE' ) );
#58 = EDGE_CURVE ( 'NONE', #154, #36, #240, .T. ) ;
#59 = LENGTH_MEASURE_WITH_UNIT ( LENGTH_MEASURE( 0.02539999999999999897 ), #92 );
#60 = CARTESIAN_POINT ( 'NONE',  ( 0.0000000000000000000, 0.0000000000000000000, 2.114683016534064652 ) ) ;
#61 = DIRECTION ( 'NONE',  ( 1.000000000000000000, 0.0000000000000000000, 0.0000000000000000000 ) ) ;
#62 = CIRCLE ( 'NONE', #79, 0.003936999999999995191 ) ;
#63 = APPLICATION_CONTEXT ( 'automotive_design' ) ;
#64 = CARTESIAN_POINT ( 'NONE',  ( 0.0000000000000000000, 0.0000000000000000000, 2.834646000000000665 ) ) ;
#65 = CARTESIAN_POINT ( 'NONE',  ( 0.003936999999999995191, 0.0000000000000000000, 0.0000000000000000000 ) ) ;
#66 = AXIS2_PLACEMENT_3D ( 'NONE', #7, #99, #45 ) ;
#67 = PLANE ( 'NONE',  #47 ) ;
#68 = UNCERTAINTY_MEASURE_WITH_UNIT (LENGTH_MEASURE( 1.000000000000000082E-05 ), #136, 'distance_accuracy_value', 'NONE');
#69 = DIRECTION ( 'NONE',  ( -0.2588190451025216832, 3.169619151431776035E-17, 0.9659258262890679791 ) ) ;
#70 =( CONVERSION_BASED_UNIT ( 'INCH', #144 ) LENGTH_UNIT ( ) NAMED_UNIT ( #133 ) );
#71 = ORIENTED_EDGE ( 'NONE', *, *, #82, .F. ) ;
#72 =( NAMED_UNIT ( * ) SI_UNIT ( $, .STERADIAN. ) SOLID_ANGLE_UNIT ( ) );
#73 = LINE ( 'NONE', #103, #212 ) ;
#74 = AXIS2_PLACEMENT_3D ( 'NONE', #139, #198, #28 ) ;
#75 = ORIENTED_EDGE ( 'NONE', *, *, #13, .T. ) ;
#76 = ADVANCED_FACE ( 'NONE', ( #156 ), #190, .T. ) ;
#77 = VERTEX_POINT ( 'NONE', #120 ) ;
#78 = DIRECTION ( 'NONE',  ( 1.000000000000000000, 0.0000000000000000000, 0.0000000000000000000 ) ) ;
#79 = AXIS2_PLACEMENT_3D ( 'NONE', #111, #127, #186 ) ;
#80 = LINE ( 'NONE', #65, #117 ) ;
#81 = CARTESIAN_POINT ( 'NONE',  ( 0.0000000000000000000, 0.0000000000000000000, 2.834646000000000665 ) ) ;
#82 = EDGE_CURVE ( 'NONE', #89, #134, #193, .T. ) ;
#83 = LINE ( 'NONE', #1, #174 ) ;
#84 = AXIS2_PLACEMENT_3D ( 'NONE', #246, #131, #242 ) ;
#85 = CARTESIAN_POINT ( 'NONE',  ( 0.003936999999999995191, 0.0000000000000000000, 2.834646000000000665 ) ) ;
#86 = CARTESIAN_POINT ( 'NONE',  ( -0.003936999999999995191, 4.821434448243123477E-19, 0.0000000000000000000 ) ) ;
#87 = ORIENTED_EDGE ( 'NONE', *, *, #218, .F. ) ;
#88 = AXIS2_PLACEMENT_3D ( 'NONE', #10, #238, #192 ) ;
#89 = VERTEX_POINT ( 'NONE', #217 ) ;
#90 = DIRECTION ( 'NONE',  ( 0.0000000000000000000, 0.0000000000000000000, 1.000000000000000000 ) ) ;
#91 = PRODUCT_RELATED_PRODUCT_CATEGORY ( 'part', '', ( #44 ) ) ;
#92 =( LENGTH_UNIT ( ) NAMED_UNIT ( * ) SI_UNIT ( $, .METRE. ) );
#93 = COLOUR_RGB ( '',0.7921568627450980005, 0.8196078431372548767, 0.9333333333333333481 ) ;
#94 = EDGE_LOOP ( 'NONE', ( #188, #56, #167, #112 ) ) ;
#95 = SURFACE_STYLE_FILL_AREA ( #227 ) ;
#96 = FACE_OUTER_BOUND ( 'NONE', #54, .T. ) ;
#97 = CLOSED_SHELL ( 'NONE', ( #21, #31, #100, #207, #197, #199, #76, #128 ) ) ;
#98 = CONICAL_SURFACE ( 'NONE', #4, 0.003936999999999995191, 0.2617993877991502960 ) ;
#99 = DIRECTION ( 'NONE',  ( -0.0000000000000000000, -0.0000000000000000000, -1.000000000000000000 ) ) ;
#100 = ADVANCED_FACE ( 'NONE', ( #96 ), #137, .T. ) ;
#101 = DIRECTION ( 'NONE',  ( 0.0000000000000000000, 0.0000000000000000000, -1.000000000000000000 ) ) ;
#102 = FACE_OUTER_BOUND ( 'NONE', #171, .T. ) ;
#103 = CARTESIAN_POINT ( 'NONE',  ( 0.1968504999999999838, 2.410723347355560646E-17, 2.834646000000000665 ) ) ;
#104 = PRESENTATION_LAYER_ASSIGNMENT (  '', '', ( #22 ) ) ;
#105 = FILL_AREA_STYLE_COLOUR ( '', #93 ) ;
#106 = ORIENTED_EDGE ( 'NONE', *, *, #132, .F. ) ;
#107 = PRODUCT_DEFINITION_CONTEXT ( 'detailed design', #63, 'design' ) ;
#108 = SURFACE_SIDE_STYLE ('',( #146 ) ) ;
#109 = AXIS2_PLACEMENT_3D ( 'NONE', #20, #216, #239 ) ;
#110 = ORIENTED_EDGE ( 'NONE', *, *, #191, .F. ) ;
#111 = CARTESIAN_POINT ( 'NONE',  ( 0.0000000000000000000, 0.0000000000000000000, 2.834646000000000665 ) ) ;
#112 = ORIENTED_EDGE ( 'NONE', *, *, #224, .F. ) ;
#113 = EDGE_LOOP ( 'NONE', ( #151, #169, #203, #189 ) ) ;
#114 = MECHANICAL_DESIGN_GEOMETRIC_PRESENTATION_REPRESENTATION (  '', ( #22 ), #40 ) ;
#115 = ORIENTED_EDGE ( 'NONE', *, *, #218, .T. ) ;
#116 = PRESENTATION_STYLE_ASSIGNMENT (( #35 ) ) ;
#117 = VECTOR ( 'NONE', #123, 39.37007874015748143 ) ;
#118 = EDGE_CURVE ( 'NONE', #154, #147, #83, .T. ) ;
#119 = PRODUCT_DEFINITION_SHAPE ( 'NONE', 'NONE',  #155 ) ;
#120 = CARTESIAN_POINT ( 'NONE',  ( 0.1968504999999999838, 2.410723347355560646E-17, 2.114683016534064652 ) ) ;
#121 = DIRECTION ( 'NONE',  ( -0.0000000000000000000, -0.0000000000000000000, -1.000000000000000000 ) ) ;
#122 = DIRECTION ( 'NONE',  ( 1.000000000000000000, 0.0000000000000000000, -0.0000000000000000000 ) ) ;
#123 = DIRECTION ( 'NONE',  ( 0.2588190451025216832, 0.0000000000000000000, 0.9659258262890679791 ) ) ;
#124 = PRESENTATION_STYLE_ASSIGNMENT (( #228 ) ) ;
#125 = CIRCLE ( 'NONE', #226, 0.1968504999999999838 ) ;
#126 = APPLICATION_CONTEXT ( 'automotive_design' ) ;
#127 = DIRECTION ( 'NONE',  ( 0.0000000000000000000, 0.0000000000000000000, -1.000000000000000000 ) ) ;
#128 = ADVANCED_FACE ( 'NONE', ( #176 ), #67, .T. ) ;
#129 =( NAMED_UNIT ( * ) SI_UNIT ( $, .STERADIAN. ) SOLID_ANGLE_UNIT ( ) );
#130 = VERTEX_POINT ( 'NONE', #25 ) ;
#131 = DIRECTION ( 'NONE',  ( -0.0000000000000000000, -0.0000000000000000000, -1.000000000000000000 ) ) ;
#132 = EDGE_CURVE ( 'NONE', #134, #89, #195, .T. ) ;
#133 = DIMENSIONAL_EXPONENTS ( 1.000000000000000000, 0.0000000000000000000, 0.0000000000000000000, 0.0000000000000000000, 0.0000000000000000000, 0.0000000000000000000, 0.0000000000000000000 ) ;
#134 = VERTEX_POINT ( 'NONE', #27 ) ;
#135 = CIRCLE ( 'NONE', #74, 0.1968504999999999838 ) ;
#136 =( CONVERSION_BASED_UNIT ( 'INCH', #59 ) LENGTH_UNIT ( ) NAMED_UNIT ( #55 ) );
#137 = CYLINDRICAL_SURFACE ( 'NONE', #241, 0.1968504999999999838 ) ;
#138 = CARTESIAN_POINT ( 'NONE',  ( 0.0000000000000000000, 0.0000000000000000000, 2.834646000000000665 ) ) ;
#139 = CARTESIAN_POINT ( 'NONE',  ( 0.0000000000000000000, 0.0000000000000000000, 0.7199629834659357908 ) ) ;
#140 = LINE ( 'NONE', #158, #179 ) ;
#141 = DIRECTION ( 'NONE',  ( -0.0000000000000000000, -0.0000000000000000000, -1.000000000000000000 ) ) ;
#142 = LINE ( 'NONE', #221, #164 ) ;
#143 = AXIS2_PLACEMENT_3D ( 'NONE', #64, #42, #78 ) ;
#144 = LENGTH_MEASURE_WITH_UNIT ( LENGTH_MEASURE( 0.02539999999999999897 ), #163 );
#145 = EDGE_CURVE ( 'NONE', #89, #130, #80, .T. ) ;
#146 = SURFACE_STYLE_FILL_AREA ( #150 ) ;
#147 = VERTEX_POINT ( 'NONE', #196 ) ;
#148 = EDGE_LOOP ( 'NONE', ( #106, #115, #244, #208 ) ) ;
#149 = AXIS2_PLACEMENT_3D ( 'NONE', #49, #90, #222 ) ;
#150 = FILL_AREA_STYLE ('',( #105 ) ) ;
#151 = ORIENTED_EDGE ( 'NONE', *, *, #118, .F. ) ;
#152 = ORIENTED_EDGE ( 'NONE', *, *, #132, .T. ) ;
#153 = PRODUCT_CONTEXT ( 'NONE', #126, 'mechanical' ) ;
#154 = VERTEX_POINT ( 'NONE', #43 ) ;
#155 = PRODUCT_DEFINITION ( 'UNKNOWN', '', #52, #107 ) ;
#156 = FACE_OUTER_BOUND ( 'NONE', #113, .T. ) ;
#157 = CARTESIAN_POINT ( 'NONE',  ( 0.0000000000000000000, 0.0000000000000000000, 0.0000000000000000000 ) ) ;
#158 = CARTESIAN_POINT ( 'NONE',  ( -0.1968504999999999838, 0.0000000000000000000, 2.834646000000000665 ) ) ;
#159 = CARTESIAN_POINT ( 'NONE',  ( 0.0000000000000000000, 0.0000000000000000000, 2.114683016534064652 ) ) ;
#160 = DIRECTION ( 'NONE',  ( 0.0000000000000000000, 0.0000000000000000000, -1.000000000000000000 ) ) ;
#161 = DIRECTION ( 'NONE',  ( 0.0000000000000000000, 0.0000000000000000000, -1.000000000000000000 ) ) ;
#162 = DIRECTION ( 'NONE',  ( -1.000000000000000000, 0.0000000000000000000, 0.0000000000000000000 ) ) ;
#163 =( LENGTH_UNIT ( ) NAMED_UNIT ( * ) SI_UNIT ( $, .METRE. ) );
#164 = VECTOR ( 'NONE', #12, 39.37007874015748143 ) ;
#165 =( NAMED_UNIT ( * ) PLANE_ANGLE_UNIT ( ) SI_UNIT ( $, .RADIAN. ) );
#166 = ORIENTED_EDGE ( 'NONE', *, *, #58, .F. ) ;
#167 = ORIENTED_EDGE ( 'NONE', *, *, #5, .T. ) ;
#168 =( NAMED_UNIT ( * ) SI_UNIT ( $, .STERADIAN. ) SOLID_ANGLE_UNIT ( ) );
#169 = ORIENTED_EDGE ( 'NONE', *, *, #58, .T. ) ;
#170 = APPLICATION_PROTOCOL_DEFINITION ( 'draft international standard', 'automotive_design', 1998, #63 ) ;
#171 = EDGE_LOOP ( 'NONE', ( #87, #71, #230, #245 ) ) ;
#172 = EDGE_CURVE ( 'NONE', #147, #77, #202, .T. ) ;
#173 = DIRECTION ( 'NONE',  ( -0.0000000000000000000, -0.0000000000000000000, -1.000000000000000000 ) ) ;
#174 = VECTOR ( 'NONE', #6, 39.37007874015748143 ) ;
#175 = PRESENTATION_LAYER_ASSIGNMENT (  '', '', ( #231 ) ) ;
#176 = FACE_OUTER_BOUND ( 'NONE', #248, .T. ) ;
#177 = CARTESIAN_POINT ( 'NONE',  ( -0.1968504999999999838, 0.0000000000000000000, 0.7199629834659357908 ) ) ;
#178 = CARTESIAN_POINT ( 'NONE',  ( 0.0000000000000000000, 0.0000000000000000000, 0.0000000000000000000 ) ) ;
#179 = VECTOR ( 'NONE', #141, 39.37007874015748143 ) ;
#180 = FACE_OUTER_BOUND ( 'NONE', #148, .T. ) ;
#181 = UNCERTAINTY_MEASURE_WITH_UNIT (LENGTH_MEASURE( 1.000000000000000082E-05 ), #70, 'distance_accuracy_value', 'NONE');
#182 = LENGTH_MEASURE_WITH_UNIT ( LENGTH_MEASURE( 0.02539999999999999897 ), #50 );
#183 = ORIENTED_EDGE ( 'NONE', *, *, #82, .T. ) ;
#184 = FACE_OUTER_BOUND ( 'NONE', #94, .T. ) ;
#185 = ORIENTED_EDGE ( 'NONE', *, *, #215, .F. ) ;
#186 = DIRECTION ( 'NONE',  ( -1.000000000000000000, 0.0000000000000000000, 0.0000000000000000000 ) ) ;
#187 = ADVANCED_BREP_SHAPE_REPRESENTATION ( 'Micro_RTCM-100-2', ( #2, #26 ), #57 ) ;
#188 = ORIENTED_EDGE ( 'NONE', *, *, #13, .F. ) ;
#189 = ORIENTED_EDGE ( 'NONE', *, *, #172, .F. ) ;
#190 = CONICAL_SURFACE ( 'NONE', #109, 0.003936999999999995191, 0.2617993877991502960 ) ;
#191 = EDGE_CURVE ( 'NONE', #38, #130, #135, .T. ) ;
#192 = DIRECTION ( 'NONE',  ( 1.000000000000000000, 0.0000000000000000000, 0.0000000000000000000 ) ) ;
#193 = CIRCLE ( 'NONE', #213, 0.003936999999999995191 ) ;
#194 = DIRECTION ( 'NONE',  ( -1.000000000000000000, 0.0000000000000000000, 0.0000000000000000000 ) ) ;
#195 = CIRCLE ( 'NONE', #66, 0.003936999999999995191 ) ;
#196 = CARTESIAN_POINT ( 'NONE',  ( -0.1968504999999999838, 0.0000000000000000000, 2.114683016534064652 ) ) ;
#197 = ADVANCED_FACE ( 'NONE', ( #102 ), #98, .T. ) ;
#198 = DIRECTION ( 'NONE',  ( -0.0000000000000000000, -0.0000000000000000000, -1.000000000000000000 ) ) ;
#199 = ADVANCED_FACE ( 'NONE', ( #225 ), #53, .F. ) ;
#200 = UNCERTAINTY_MEASURE_WITH_UNIT (LENGTH_MEASURE( 1.000000000000000082E-05 ), #11, 'distance_accuracy_value', 'NONE');
#201 =( NAMED_UNIT ( * ) PLANE_ANGLE_UNIT ( ) SI_UNIT ( $, .RADIAN. ) );
#202 = CIRCLE ( 'NONE', #234, 0.1968504999999999838 ) ;
#203 = ORIENTED_EDGE ( 'NONE', *, *, #215, .T. ) ;
#204 = DIRECTION ( 'NONE',  ( 0.0000000000000000000, 0.0000000000000000000, 1.000000000000000000 ) ) ;
#205 = FILL_AREA_STYLE_COLOUR ( '', #237 ) ;
#206 = DIMENSIONAL_EXPONENTS ( 1.000000000000000000, 0.0000000000000000000, 0.0000000000000000000, 0.0000000000000000000, 0.0000000000000000000, 0.0000000000000000000, 0.0000000000000000000 ) ;
#207 = ADVANCED_FACE ( 'NONE', ( #184 ), #17, .T. ) ;
#208 = ORIENTED_EDGE ( 'NONE', *, *, #145, .F. ) ;
#209 = AXIS2_PLACEMENT_3D ( 'NONE', #219, #161, #8 ) ;
#210 =( NAMED_UNIT ( * ) PLANE_ANGLE_UNIT ( ) SI_UNIT ( $, .RADIAN. ) );
#211 = DIRECTION ( 'NONE',  ( -1.000000000000000000, 0.0000000000000000000, 0.0000000000000000000 ) ) ;
#212 = VECTOR ( 'NONE', #121, 39.37007874015748143 ) ;
#213 = AXIS2_PLACEMENT_3D ( 'NONE', #46, #233, #235 ) ;
#214 = FACE_OUTER_BOUND ( 'NONE', #33, .T. ) ;
#215 = EDGE_CURVE ( 'NONE', #36, #77, #142, .T. ) ;
#216 = DIRECTION ( 'NONE',  ( 0.0000000000000000000, 0.0000000000000000000, -1.000000000000000000 ) ) ;
#217 = CARTESIAN_POINT ( 'NONE',  ( 0.003936999999999995191, 0.0000000000000000000, 0.0000000000000000000 ) ) ;
#218 = EDGE_CURVE ( 'NONE', #134, #38, #34, .T. ) ;
#219 = CARTESIAN_POINT ( 'NONE',  ( 0.0000000000000000000, 0.0000000000000000000, 2.834646000000000665 ) ) ;
#220 = CIRCLE ( 'NONE', #37, 0.1968504999999999838 ) ;
#221 = CARTESIAN_POINT ( 'NONE',  ( 0.003936999999999995191, 0.0000000000000000000, 2.834646000000000665 ) ) ;
#222 = DIRECTION ( 'NONE',  ( 1.000000000000000000, 0.0000000000000000000, -0.0000000000000000000 ) ) ;
#223 = CARTESIAN_POINT ( 'NONE',  ( 0.0000000000000000000, 0.0000000000000000000, 0.7199629834659357908 ) ) ;
#224 = EDGE_CURVE ( 'NONE', #130, #38, #125, .T. ) ;
#225 = FACE_OUTER_BOUND ( 'NONE', #29, .T. ) ;
#226 = AXIS2_PLACEMENT_3D ( 'NONE', #223, #48, #162 ) ;
#227 = FILL_AREA_STYLE ('',( #205 ) ) ;
#228 = SURFACE_STYLE_USAGE ( .BOTH. , #108 ) ;
#229 = DIRECTION ( 'NONE',  ( 0.0000000000000000000, 0.0000000000000000000, 1.000000000000000000 ) ) ;
#230 = ORIENTED_EDGE ( 'NONE', *, *, #145, .T. ) ;
#231 = STYLED_ITEM ( 'NONE', ( #124 ), #187 ) ;
#232 = ORIENTED_EDGE ( 'NONE', *, *, #243, .F. ) ;
#233 = DIRECTION ( 'NONE',  ( -0.0000000000000000000, -0.0000000000000000000, -1.000000000000000000 ) ) ;
#234 = AXIS2_PLACEMENT_3D ( 'NONE', #159, #101, #236 ) ;
#235 = DIRECTION ( 'NONE',  ( -1.000000000000000000, 0.0000000000000000000, 0.0000000000000000000 ) ) ;
#236 = DIRECTION ( 'NONE',  ( -1.000000000000000000, 0.0000000000000000000, 0.0000000000000000000 ) ) ;
#237 = COLOUR_RGB ( '',0.7921568627450980005, 0.8196078431372548767, 0.9333333333333333481 ) ;
#238 = DIRECTION ( 'NONE',  ( 0.0000000000000000000, 0.0000000000000000000, 1.000000000000000000 ) ) ;
#239 = DIRECTION ( 'NONE',  ( 1.000000000000000000, 0.0000000000000000000, 0.0000000000000000000 ) ) ;
#240 = CIRCLE ( 'NONE', #209, 0.003936999999999995191 ) ;
#241 = AXIS2_PLACEMENT_3D ( 'NONE', #138, #173, #211 ) ;
#242 = DIRECTION ( 'NONE',  ( -1.000000000000000000, 0.0000000000000000000, 0.0000000000000000000 ) ) ;
#243 = EDGE_CURVE ( 'NONE', #36, #154, #62, .T. ) ;
#244 = ORIENTED_EDGE ( 'NONE', *, *, #191, .T. ) ;
#245 = ORIENTED_EDGE ( 'NONE', *, *, #224, .T. ) ;
#246 = CARTESIAN_POINT ( 'NONE',  ( 0.0000000000000000000, 0.0000000000000000000, 2.834646000000000665 ) ) ;
#247 =( GEOMETRIC_REPRESENTATION_CONTEXT ( 3 ) GLOBAL_UNCERTAINTY_ASSIGNED_CONTEXT ( ( #200 ) ) GLOBAL_UNIT_ASSIGNED_CONTEXT ( ( #11, #165, #72 ) ) REPRESENTATION_CONTEXT ( 'NONE', 'WORKASPACE' ) );
#248 = EDGE_LOOP ( 'NONE', ( #232, #166 ) ) ;
#249 = ORIENTED_EDGE ( 'NONE', *, *, #24, .F. ) ;
ENDSEC;
END-ISO-10303-21;
