ISO-10303-21;
HEADER;
FILE_DESCRIPTION (( 'STEP AP214' ),
    '1' );
FILE_NAME ('06525.STEP',
    '2023-07-05T16:04:12',
    ( '' ),
    ( '' ),
    'SwSTEP 2.0',
    'SolidWorks 2023',
    '' );
FILE_SCHEMA (( 'AUTOMOTIVE_DESIGN' ));
ENDSEC;

DATA;
#1 = SURFACE_STYLE_FILL_AREA ( #57 ) ;
#2 = APPLICATION_CONTEXT ( 'automotive_design' ) ;
#3 = PRESENTATION_STYLE_ASSIGNMENT (( #191 ) ) ;
#4 = FILL_AREA_STYLE_COLOUR ( '', #227 ) ;
#5 = FACE_OUTER_BOUND ( 'NONE', #244, .T. ) ;
#6 = DIRECTION ( 'NONE',  ( 1.215909390471913142E-16, -1.000000000000000000, 0.000000000000000000 ) ) ;
#7 = DIMENSIONAL_EXPONENTS ( 1.000000000000000000, 0.000000000000000000, 0.000000000000000000, 0.000000000000000000, 0.000000000000000000, 0.000000000000000000, 0.000000000000000000 ) ;
#8 =( CONVERSION_BASED_UNIT ( 'INCH', #188 ) LENGTH_UNIT ( ) NAMED_UNIT ( #7 ) );
#9 = PRODUCT ( '06525', '06525', '', ( #246 ) ) ;
#10 = ORIENTED_EDGE ( 'NONE', *, *, #208, .F. ) ;
#11 =( LENGTH_UNIT ( ) NAMED_UNIT ( * ) SI_UNIT ( $, .METRE. ) );
#12 = PRODUCT_RELATED_PRODUCT_CATEGORY ( 'part', '', ( #9 ) ) ;
#13 = ORIENTED_EDGE ( 'NONE', *, *, #42, .F. ) ;
#14 = AXIS2_PLACEMENT_3D ( 'NONE', #162, #209, #58 ) ;
#15 = STYLED_ITEM ( 'NONE', ( #3 ), #199 ) ;
#16 = FACE_OUTER_BOUND ( 'NONE', #223, .T. ) ;
#17 = ADVANCED_BREP_SHAPE_REPRESENTATION ( '06525', ( #74, #167, #87 ), #67 ) ;
#18 = DIRECTION ( 'NONE',  ( -0.000000000000000000, -1.000000000000000000, -0.000000000000000000 ) ) ;
#19 = PLANE ( 'NONE',  #14 ) ;
#20 = AXIS2_PLACEMENT_3D ( 'NONE', #85, #62, #164 ) ;
#21 = EDGE_CURVE ( 'NONE', #160, #204, #140, .T. ) ;
#22 = FACE_OUTER_BOUND ( 'NONE', #34, .T. ) ;
#23 = CIRCLE ( 'NONE', #43, 0.2500000000000000555 ) ;
#24 = ADVANCED_FACE ( 'NONE', ( #32 ), #52, .T. ) ;
#25 = PRESENTATION_LAYER_ASSIGNMENT (  '', '', ( #213 ) ) ;
#26 = MECHANICAL_DESIGN_GEOMETRIC_PRESENTATION_REPRESENTATION (  '', ( #145 ), #253 ) ;
#27 = DIMENSIONAL_EXPONENTS ( 1.000000000000000000, 0.000000000000000000, 0.000000000000000000, 0.000000000000000000, 0.000000000000000000, 0.000000000000000000, 0.000000000000000000 ) ;
#28 = DIRECTION ( 'NONE',  ( 1.060575238724908024E-16, 0.4999999999999979461, -0.8660254037844397068 ) ) ;
#29 = SURFACE_STYLE_FILL_AREA ( #254 ) ;
#30 = AXIS2_PLACEMENT_3D ( 'NONE', #39, #116, #247 ) ;
#31 = EDGE_CURVE ( 'NONE', #95, #154, #183, .T. ) ;
#32 = FACE_OUTER_BOUND ( 'NONE', #157, .T. ) ;
#33 =( NAMED_UNIT ( * ) SI_UNIT ( $, .STERADIAN. ) SOLID_ANGLE_UNIT ( ) );
#34 = EDGE_LOOP ( 'NONE', ( #249, #136, #225 ) ) ;
#35 = UNCERTAINTY_MEASURE_WITH_UNIT (LENGTH_MEASURE( 1.000000000000000082E-05 ), #8, 'distance_accuracy_value', 'NONE');
#36 = EDGE_LOOP ( 'NONE', ( #54, #220, #107 ) ) ;
#37 = EDGE_CURVE ( 'NONE', #243, #204, #76, .T. ) ;
#38 = PRESENTATION_LAYER_ASSIGNMENT (  '', '', ( #145 ) ) ;
#39 = CARTESIAN_POINT ( 'NONE',  ( -6.123233995736772199E-17, 3.000000000000000444, 0.000000000000000000 ) ) ;
#40 = LENGTH_MEASURE_WITH_UNIT ( LENGTH_MEASURE( 0.02539999999999999897 ), #186 );
#41 = SURFACE_SIDE_STYLE ('',( #1 ) ) ;
#42 = EDGE_CURVE ( 'NONE', #111, #95, #55, .T. ) ;
#43 = AXIS2_PLACEMENT_3D ( 'NONE', #128, #71, #110 ) ;
#44 = DIMENSIONAL_EXPONENTS ( 1.000000000000000000, 0.000000000000000000, 0.000000000000000000, 0.000000000000000000, 0.000000000000000000, 0.000000000000000000, 0.000000000000000000 ) ;
#45 = LINE ( 'NONE', #214, #141 ) ;
#46 = AXIS2_PLACEMENT_3D ( 'NONE', #198, #73, #129 ) ;
#47 = PRESENTATION_LAYER_ASSIGNMENT (  '', '', ( #94 ) ) ;
#48 =( NAMED_UNIT ( * ) SI_UNIT ( $, .STERADIAN. ) SOLID_ANGLE_UNIT ( ) );
#49 = CARTESIAN_POINT ( 'NONE',  ( 0.000000000000000000, 0.1443375672974056556, 0.000000000000000000 ) ) ;
#50 = SURFACE_STYLE_FILL_AREA ( #263 ) ;
#51 = ORIENTED_EDGE ( 'NONE', *, *, #215, .F. ) ;
#52 = CYLINDRICAL_SURFACE ( 'NONE', #30, 0.2499999999999998890 ) ;
#53 = ORIENTED_EDGE ( 'NONE', *, *, #208, .T. ) ;
#54 = ORIENTED_EDGE ( 'NONE', *, *, #137, .F. ) ;
#55 = CIRCLE ( 'NONE', #46, 0.2499999999999997224 ) ;
#56 = AXIS2_PLACEMENT_3D ( 'NONE', #49, #91, #155 ) ;
#57 = FILL_AREA_STYLE ('',( #166 ) ) ;
#58 = DIRECTION ( 'NONE',  ( 0.000000000000000000, -0.000000000000000000, 1.000000000000000000 ) ) ;
#59 = FILL_AREA_STYLE_COLOUR ( '', #217 ) ;
#60 = AXIS2_PLACEMENT_3D ( 'NONE', #100, #163, #252 ) ;
#61 =( NAMED_UNIT ( * ) PLANE_ANGLE_UNIT ( ) SI_UNIT ( $, .RADIAN. ) );
#62 = DIRECTION ( 'NONE',  ( -1.215909390471913142E-16, 1.000000000000000000, 0.000000000000000000 ) ) ;
#63 = SURFACE_STYLE_USAGE ( .BOTH. , #192 ) ;
#64 = MECHANICAL_DESIGN_GEOMETRIC_PRESENTATION_REPRESENTATION (  '', ( #179 ), #259 ) ;
#65 =( NAMED_UNIT ( * ) PLANE_ANGLE_UNIT ( ) SI_UNIT ( $, .RADIAN. ) );
#66 = DIMENSIONAL_EXPONENTS ( 1.000000000000000000, 0.000000000000000000, 0.000000000000000000, 0.000000000000000000, 0.000000000000000000, 0.000000000000000000, 0.000000000000000000 ) ;
#67 =( GEOMETRIC_REPRESENTATION_CONTEXT ( 3 ) GLOBAL_UNCERTAINTY_ASSIGNED_CONTEXT ( ( #201 ) ) GLOBAL_UNIT_ASSIGNED_CONTEXT ( ( #176, #242, #195 ) ) REPRESENTATION_CONTEXT ( 'NONE', 'WORKASPACE' ) );
#68 = CARTESIAN_POINT ( 'NONE',  ( 0.2500000000000000000, 3.000000000000000444, 0.000000000000000000 ) ) ;
#69 = PRESENTATION_STYLE_ASSIGNMENT (( #63 ) ) ;
#70 = MECHANICAL_DESIGN_GEOMETRIC_PRESENTATION_REPRESENTATION (  '', ( #94 ), #126 ) ;
#71 = DIRECTION ( 'NONE',  ( -1.215909390471913142E-16, 1.000000000000000000, -0.000000000000000000 ) ) ;
#72 = SHAPE_DEFINITION_REPRESENTATION ( #228, #17 ) ;
#73 = DIRECTION ( 'NONE',  ( -1.215909390471913142E-16, 1.000000000000000000, -0.000000000000000000 ) ) ;
#74 = MANIFOLD_SOLID_BREP ( 'Revolve - Cutting Edge', #238 ) ;
#75 = VERTEX_POINT ( 'NONE', #233 ) ;
#76 = CIRCLE ( 'NONE', #194, 0.2499999999999999722 ) ;
#77 = ORIENTED_EDGE ( 'NONE', *, *, #31, .T. ) ;
#78 =( LENGTH_UNIT ( ) NAMED_UNIT ( * ) SI_UNIT ( $, .METRE. ) );
#79 = ORIENTED_EDGE ( 'NONE', *, *, #255, .F. ) ;
#80 =( GEOMETRIC_REPRESENTATION_CONTEXT ( 3 ) GLOBAL_UNCERTAINTY_ASSIGNED_CONTEXT ( ( #135 ) ) GLOBAL_UNIT_ASSIGNED_CONTEXT ( ( #123, #190, #33 ) ) REPRESENTATION_CONTEXT ( 'NONE', 'WORKASPACE' ) );
#81 = PLANE ( 'NONE',  #20 ) ;
#82 =( NAMED_UNIT ( * ) PLANE_ANGLE_UNIT ( ) SI_UNIT ( $, .RADIAN. ) );
#83 = COLOUR_RGB ( '',0.7921568627450980005, 0.8196078431372548767, 0.9333333333333333481 ) ;
#84 = MECHANICAL_DESIGN_GEOMETRIC_PRESENTATION_REPRESENTATION (  '', ( #15 ), #80 ) ;
#85 = CARTESIAN_POINT ( 'NONE',  ( 2.859903368367275526E-16, 0.1443375672974056556, 0.000000000000000000 ) ) ;
#86 = FILL_AREA_STYLE ('',( #4 ) ) ;
#87 = AXIS2_PLACEMENT_3D ( 'NONE', #138, #133, #256 ) ;
#88 = CARTESIAN_POINT ( 'NONE',  ( 0.000000000000000000, 0.000000000000000000, 0.000000000000000000 ) ) ;
#89 =( CONVERSION_BASED_UNIT ( 'INCH', #169 ) LENGTH_UNIT ( ) NAMED_UNIT ( #173 ) );
#90 = ADVANCED_FACE ( 'NONE', ( #232 ), #19, .T. ) ;
#91 = DIRECTION ( 'NONE',  ( -0.000000000000000000, -1.000000000000000000, -0.000000000000000000 ) ) ;
#92 = CARTESIAN_POINT ( 'NONE',  ( 3.061616997868383018E-17, 0.1443375672974056556, -0.2500000000000000000 ) ) ;
#93 = DIRECTION ( 'NONE',  ( -1.215909390471913142E-16, 1.000000000000000000, -0.000000000000000000 ) ) ;
#94 = STYLED_ITEM ( 'NONE', ( #234 ), #122 ) ;
#95 = VERTEX_POINT ( 'NONE', #230 ) ;
#96 = AXIS2_PLACEMENT_3D ( 'NONE', #146, #218, #172 ) ;
#97 = CYLINDRICAL_SURFACE ( 'NONE', #236, 0.2499999999999998890 ) ;
#98 = CARTESIAN_POINT ( 'NONE',  ( -0.2499999999999999722, 3.000000000000000444, 0.000000000000000000 ) ) ;
#99 = FILL_AREA_STYLE_COLOUR ( '', #83 ) ;
#100 = CARTESIAN_POINT ( 'NONE',  ( 2.859903368367275526E-16, 0.1443375672974054336, 0.000000000000000000 ) ) ;
#101 = ADVANCED_FACE ( 'NONE', ( #264 ), #81, .F. ) ;
#102 = CIRCLE ( 'NONE', #56, 0.2499999999999999722 ) ;
#103 = CARTESIAN_POINT ( 'NONE',  ( 0.000000000000000000, 39.37007874015748143, 0.000000000000000000 ) ) ;
#104 =( NAMED_UNIT ( * ) PLANE_ANGLE_UNIT ( ) SI_UNIT ( $, .RADIAN. ) );
#105 = SURFACE_SIDE_STYLE ('',( #29 ) ) ;
#106 = COLOUR_RGB ( '',1.000000000000000000, 0.000000000000000000, 0.000000000000000000 ) ;
#107 = ORIENTED_EDGE ( 'NONE', *, *, #215, .T. ) ;
#108 = CIRCLE ( 'NONE', #142, 0.2500000000000000555 ) ;
#109 = PRESENTATION_STYLE_ASSIGNMENT (( #134 ) ) ;
#110 = DIRECTION ( 'NONE',  ( -1.000000000000000000, 0.000000000000000000, 0.000000000000000000 ) ) ;
#111 = VERTEX_POINT ( 'NONE', #120 ) ;
#112 = DIRECTION ( 'NONE',  ( -1.215909390471913142E-16, 1.000000000000000000, -0.000000000000000000 ) ) ;
#113 = ORIENTED_EDGE ( 'NONE', *, *, #119, .F. ) ;
#114 = COLOUR_RGB ( '',1.000000000000000000, 0.000000000000000000, 0.000000000000000000 ) ;
#115 = CONICAL_SURFACE ( 'NONE', #161, 68.19097667594041923, 1.047197551196600074 ) ;
#116 = DIRECTION ( 'NONE',  ( -1.215909390471913142E-16, 1.000000000000000000, -0.000000000000000000 ) ) ;
#117 =( CONVERSION_BASED_UNIT ( 'INCH', #40 ) LENGTH_UNIT ( ) NAMED_UNIT ( #219 ) );
#118 =( NAMED_UNIT ( * ) SI_UNIT ( $, .STERADIAN. ) SOLID_ANGLE_UNIT ( ) );
#119 = EDGE_CURVE ( 'NONE', #95, #111, #170, .T. ) ;
#120 = CARTESIAN_POINT ( 'NONE',  ( 0.2500000000000000000, 0.1443375672974054613, 3.061616997868382402E-17 ) ) ;
#121 = SURFACE_STYLE_FILL_AREA ( #210 ) ;
#122 = ADVANCED_FACE ( 'NONE', ( #22 ), #203, .T. ) ;
#123 =( CONVERSION_BASED_UNIT ( 'INCH', #127 ) LENGTH_UNIT ( ) NAMED_UNIT ( #27 ) );
#124 = FILL_AREA_STYLE_COLOUR ( '', #114 ) ;
#125 =( GEOMETRIC_REPRESENTATION_CONTEXT ( 3 ) GLOBAL_UNCERTAINTY_ASSIGNED_CONTEXT ( ( #178 ) ) GLOBAL_UNIT_ASSIGNED_CONTEXT ( ( #144, #61, #265 ) ) REPRESENTATION_CONTEXT ( 'NONE', 'WORKASPACE' ) );
#126 =( GEOMETRIC_REPRESENTATION_CONTEXT ( 3 ) GLOBAL_UNCERTAINTY_ASSIGNED_CONTEXT ( ( #35 ) ) GLOBAL_UNIT_ASSIGNED_CONTEXT ( ( #8, #65, #235 ) ) REPRESENTATION_CONTEXT ( 'NONE', 'WORKASPACE' ) );
#127 = LENGTH_MEASURE_WITH_UNIT ( LENGTH_MEASURE( 0.02539999999999999897 ), #171 );
#128 = CARTESIAN_POINT ( 'NONE',  ( -6.123233995736772199E-17, 3.000000000000000444, 0.000000000000000000 ) ) ;
#129 = DIRECTION ( 'NONE',  ( -1.000000000000000000, -1.365923996832133088E-16, 0.000000000000000000 ) ) ;
#130 = APPLICATION_CONTEXT ( 'automotive_design' ) ;
#131 = LINE ( 'NONE', #197, #224 ) ;
#132 = EDGE_LOOP ( 'NONE', ( #51, #260 ) ) ;
#133 = DIRECTION ( 'NONE',  ( 0.000000000000000000, 0.000000000000000000, 1.000000000000000000 ) ) ;
#134 = SURFACE_STYLE_USAGE ( .BOTH. , #184 ) ;
#135 = UNCERTAINTY_MEASURE_WITH_UNIT (LENGTH_MEASURE( 1.000000000000000082E-05 ), #123, 'distance_accuracy_value', 'NONE');
#136 = ORIENTED_EDGE ( 'NONE', *, *, #137, .T. ) ;
#137 = EDGE_CURVE ( 'NONE', #160, #243, #45, .T. ) ;
#138 = CARTESIAN_POINT ( 'NONE',  ( 0.000000000000000000, 0.000000000000000000, 0.000000000000000000 ) ) ;
#139 = CLOSED_SHELL ( 'NONE', ( #24, #101, #262, #156 ) ) ;
#140 = LINE ( 'NONE', #222, #207 ) ;
#141 = VECTOR ( 'NONE', #28, 39.37007874015748854 ) ;
#142 = AXIS2_PLACEMENT_3D ( 'NONE', #174, #112, #261 ) ;
#143 = LENGTH_MEASURE_WITH_UNIT ( LENGTH_MEASURE( 0.02539999999999999897 ), #11 );
#144 =( CONVERSION_BASED_UNIT ( 'INCH', #143 ) LENGTH_UNIT ( ) NAMED_UNIT ( #44 ) );
#145 = STYLED_ITEM ( 'NONE', ( #69 ), #167 ) ;
#146 = CARTESIAN_POINT ( 'NONE',  ( 0.000000000000000000, 39.37007874015748143, 0.000000000000000000 ) ) ;
#147 = CARTESIAN_POINT ( 'NONE',  ( -0.2500000000000001110, 3.000000000000000444, 0.000000000000000000 ) ) ;
#148 = DIRECTION ( 'NONE',  ( 1.000000000000000000, 1.215909390471913142E-16, 0.000000000000000000 ) ) ;
#149 = VECTOR ( 'NONE', #93, 39.37007874015748143 ) ;
#150 = AXIS2_PLACEMENT_3D ( 'NONE', #68, #6, #148 ) ;
#151 = DIRECTION ( 'NONE',  ( -1.215909390471913142E-16, 1.000000000000000000, -0.000000000000000000 ) ) ;
#152 = ORIENTED_EDGE ( 'NONE', *, *, #250, .F. ) ;
#153 = PRODUCT_DEFINITION ( 'UNKNOWN', '', #189, #175 ) ;
#154 = VERTEX_POINT ( 'NONE', #147 ) ;
#155 = DIRECTION ( 'NONE',  ( 0.000000000000000000, 0.000000000000000000, -1.000000000000000000 ) ) ;
#156 = ADVANCED_FACE ( 'NONE', ( #5 ), #237, .F. ) ;
#157 = EDGE_LOOP ( 'NONE', ( #200, #53, #152, #241 ) ) ;
#158 = UNCERTAINTY_MEASURE_WITH_UNIT (LENGTH_MEASURE( 1.000000000000000082E-05 ), #117, 'distance_accuracy_value', 'NONE');
#159 = LENGTH_MEASURE_WITH_UNIT ( LENGTH_MEASURE( 0.02539999999999999897 ), #78 );
#160 = VERTEX_POINT ( 'NONE', #88 ) ;
#161 = AXIS2_PLACEMENT_3D ( 'NONE', #103, #248, #180 ) ;
#162 = CARTESIAN_POINT ( 'NONE',  ( 0.000000000000000000, 0.1443375672974056556, 0.000000000000000000 ) ) ;
#163 = DIRECTION ( 'NONE',  ( -1.215909390471913142E-16, 1.000000000000000000, -0.000000000000000000 ) ) ;
#164 = DIRECTION ( 'NONE',  ( -1.000000000000000000, -1.215909390471913142E-16, 0.000000000000000000 ) ) ;
#165 = PRESENTATION_LAYER_ASSIGNMENT (  '', '', ( #15 ) ) ;
#166 = FILL_AREA_STYLE_COLOUR ( '', #106 ) ;
#167 = MANIFOLD_SOLID_BREP ( 'Revolve - Tool Body (Pointed)', #139 ) ;
#168 = SURFACE_STYLE_FILL_AREA ( #86 ) ;
#169 = LENGTH_MEASURE_WITH_UNIT ( LENGTH_MEASURE( 0.02539999999999999897 ), #239 );
#170 = CIRCLE ( 'NONE', #60, 0.2499999999999997224 ) ;
#171 =( LENGTH_UNIT ( ) NAMED_UNIT ( * ) SI_UNIT ( $, .METRE. ) );
#172 = DIRECTION ( 'NONE',  ( 0.000000000000000000, 0.000000000000000000, 1.000000000000000000 ) ) ;
#173 = DIMENSIONAL_EXPONENTS ( 1.000000000000000000, 0.000000000000000000, 0.000000000000000000, 0.000000000000000000, 0.000000000000000000, 0.000000000000000000, 0.000000000000000000 ) ;
#174 = CARTESIAN_POINT ( 'NONE',  ( -6.123233995736772199E-17, 3.000000000000000444, 0.000000000000000000 ) ) ;
#175 = PRODUCT_DEFINITION_CONTEXT ( 'detailed design', #130, 'design' ) ;
#176 =( CONVERSION_BASED_UNIT ( 'INCH', #159 ) LENGTH_UNIT ( ) NAMED_UNIT ( #66 ) );
#177 = ORIENTED_EDGE ( 'NONE', *, *, #42, .T. ) ;
#178 = UNCERTAINTY_MEASURE_WITH_UNIT (LENGTH_MEASURE( 1.000000000000000082E-05 ), #144, 'distance_accuracy_value', 'NONE');
#179 = STYLED_ITEM ( 'NONE', ( #251 ), #90 ) ;
#180 = DIRECTION ( 'NONE',  ( 0.000000000000000000, 0.000000000000000000, 1.000000000000000000 ) ) ;
#181 = ORIENTED_EDGE ( 'NONE', *, *, #255, .T. ) ;
#182 = CARTESIAN_POINT ( 'NONE',  ( -6.123233995736772199E-17, 3.000000000000000444, 0.000000000000000000 ) ) ;
#183 = LINE ( 'NONE', #98, #149 ) ;
#184 = SURFACE_SIDE_STYLE ('',( #50 ) ) ;
#185 = PRESENTATION_LAYER_ASSIGNMENT (  '', '', ( #179 ) ) ;
#186 =( LENGTH_UNIT ( ) NAMED_UNIT ( * ) SI_UNIT ( $, .METRE. ) );
#187 = SURFACE_STYLE_USAGE ( .BOTH. , #211 ) ;
#188 = LENGTH_MEASURE_WITH_UNIT ( LENGTH_MEASURE( 0.02539999999999999897 ), #212 );
#189 = PRODUCT_DEFINITION_FORMATION_WITH_SPECIFIED_SOURCE ( 'ANY', '', #9, .NOT_KNOWN. ) ;
#190 =( NAMED_UNIT ( * ) PLANE_ANGLE_UNIT ( ) SI_UNIT ( $, .RADIAN. ) );
#191 = SURFACE_STYLE_USAGE ( .BOTH. , #105 ) ;
#192 = SURFACE_SIDE_STYLE ('',( #168 ) ) ;
#193 = DIRECTION ( 'NONE',  ( -1.215909390471913142E-16, 1.000000000000000000, -0.000000000000000000 ) ) ;
#194 = AXIS2_PLACEMENT_3D ( 'NONE', #205, #18, #257 ) ;
#195 =( NAMED_UNIT ( * ) SI_UNIT ( $, .STERADIAN. ) SOLID_ANGLE_UNIT ( ) );
#196 = EDGE_LOOP ( 'NONE', ( #113, #13 ) ) ;
#197 = CARTESIAN_POINT ( 'NONE',  ( 0.2499999999999998335, 3.000000000000000444, 3.061616997868381785E-17 ) ) ;
#198 = CARTESIAN_POINT ( 'NONE',  ( 2.859903368367275526E-16, 0.1443375672974054336, 0.000000000000000000 ) ) ;
#199 = ADVANCED_FACE ( 'NONE', ( #216 ), #115, .T. ) ;
#200 = ORIENTED_EDGE ( 'NONE', *, *, #119, .T. ) ;
#201 = UNCERTAINTY_MEASURE_WITH_UNIT (LENGTH_MEASURE( 1.000000000000000082E-05 ), #176, 'distance_accuracy_value', 'NONE');
#202 = CARTESIAN_POINT ( 'NONE',  ( 0.000000000000000000, 0.1443375672974056556, 0.2500000000000000000 ) ) ;
#203 = CONICAL_SURFACE ( 'NONE', #96, 68.19097667594041923, 1.047197551196600074 ) ;
#204 = VERTEX_POINT ( 'NONE', #202 ) ;
#205 = CARTESIAN_POINT ( 'NONE',  ( 0.000000000000000000, 0.1443375672974056556, 0.000000000000000000 ) ) ;
#206 = SURFACE_STYLE_USAGE ( .BOTH. , #41 ) ;
#207 = VECTOR ( 'NONE', #229, 39.37007874015748854 ) ;
#208 = EDGE_CURVE ( 'NONE', #111, #75, #131, .T. ) ;
#209 = DIRECTION ( 'NONE',  ( 0.000000000000000000, 1.000000000000000000, 0.000000000000000000 ) ) ;
#210 = FILL_AREA_STYLE ('',( #59 ) ) ;
#211 = SURFACE_SIDE_STYLE ('',( #121 ) ) ;
#212 =( LENGTH_UNIT ( ) NAMED_UNIT ( * ) SI_UNIT ( $, .METRE. ) );
#213 = STYLED_ITEM ( 'NONE', ( #109 ), #74 ) ;
#214 = CARTESIAN_POINT ( 'NONE',  ( 0.000000000000000000, 0.000000000000000000, 0.000000000000000000 ) ) ;
#215 = EDGE_CURVE ( 'NONE', #204, #243, #102, .T. ) ;
#216 = FACE_OUTER_BOUND ( 'NONE', #36, .T. ) ;
#217 = COLOUR_RGB ( '',1.000000000000000000, 0.000000000000000000, 0.000000000000000000 ) ;
#218 = DIRECTION ( 'NONE',  ( 0.000000000000000000, 1.000000000000000000, 0.000000000000000000 ) ) ;
#219 = DIMENSIONAL_EXPONENTS ( 1.000000000000000000, 0.000000000000000000, 0.000000000000000000, 0.000000000000000000, 0.000000000000000000, 0.000000000000000000, 0.000000000000000000 ) ;
#220 = ORIENTED_EDGE ( 'NONE', *, *, #21, .T. ) ;
#221 = APPLICATION_PROTOCOL_DEFINITION ( 'draft international standard', 'automotive_design', 1998, #130 ) ;
#222 = CARTESIAN_POINT ( 'NONE',  ( 0.000000000000000000, 0.000000000000000000, 0.000000000000000000 ) ) ;
#223 = EDGE_LOOP ( 'NONE', ( #10, #177, #77, #79 ) ) ;
#224 = VECTOR ( 'NONE', #193, 39.37007874015748143 ) ;
#225 = ORIENTED_EDGE ( 'NONE', *, *, #37, .T. ) ;
#226 = APPLICATION_PROTOCOL_DEFINITION ( 'draft international standard', 'automotive_design', 1998, #2 ) ;
#227 = COLOUR_RGB ( '',0.7921568627450980005, 0.8196078431372548767, 0.9333333333333333481 ) ;
#228 = PRODUCT_DEFINITION_SHAPE ( 'NONE', 'NONE',  #153 ) ;
#229 = DIRECTION ( 'NONE',  ( 0.000000000000000000, 0.4999999999999979461, 0.8660254037844397068 ) ) ;
#230 = CARTESIAN_POINT ( 'NONE',  ( -0.2499999999999994449, 0.1443375672974054058, 0.000000000000000000 ) ) ;
#231 = MECHANICAL_DESIGN_GEOMETRIC_PRESENTATION_REPRESENTATION (  '', ( #213 ), #125 ) ;
#232 = FACE_OUTER_BOUND ( 'NONE', #132, .T. ) ;
#233 = CARTESIAN_POINT ( 'NONE',  ( 0.2500000000000000000, 3.000000000000000444, 3.061616997868382402E-17 ) ) ;
#234 = PRESENTATION_STYLE_ASSIGNMENT (( #187 ) ) ;
#235 =( NAMED_UNIT ( * ) SI_UNIT ( $, .STERADIAN. ) SOLID_ANGLE_UNIT ( ) );
#236 = AXIS2_PLACEMENT_3D ( 'NONE', #182, #151, #240 ) ;
#237 = PLANE ( 'NONE',  #150 ) ;
#238 = CLOSED_SHELL ( 'NONE', ( #122, #90, #199 ) ) ;
#239 =( LENGTH_UNIT ( ) NAMED_UNIT ( * ) SI_UNIT ( $, .METRE. ) );
#240 = DIRECTION ( 'NONE',  ( -1.000000000000000000, 0.000000000000000000, 0.000000000000000000 ) ) ;
#241 = ORIENTED_EDGE ( 'NONE', *, *, #31, .F. ) ;
#242 =( NAMED_UNIT ( * ) PLANE_ANGLE_UNIT ( ) SI_UNIT ( $, .RADIAN. ) );
#243 = VERTEX_POINT ( 'NONE', #92 ) ;
#244 = EDGE_LOOP ( 'NONE', ( #258, #181 ) ) ;
#245 = UNCERTAINTY_MEASURE_WITH_UNIT (LENGTH_MEASURE( 1.000000000000000082E-05 ), #89, 'distance_accuracy_value', 'NONE');
#246 = PRODUCT_CONTEXT ( 'NONE', #2, 'mechanical' ) ;
#247 = DIRECTION ( 'NONE',  ( -1.000000000000000000, 0.000000000000000000, 0.000000000000000000 ) ) ;
#248 = DIRECTION ( 'NONE',  ( 0.000000000000000000, 1.000000000000000000, 0.000000000000000000 ) ) ;
#249 = ORIENTED_EDGE ( 'NONE', *, *, #21, .F. ) ;
#250 = EDGE_CURVE ( 'NONE', #154, #75, #108, .T. ) ;
#251 = PRESENTATION_STYLE_ASSIGNMENT (( #206 ) ) ;
#252 = DIRECTION ( 'NONE',  ( -1.000000000000000000, -1.365923996832133088E-16, 0.000000000000000000 ) ) ;
#253 =( GEOMETRIC_REPRESENTATION_CONTEXT ( 3 ) GLOBAL_UNCERTAINTY_ASSIGNED_CONTEXT ( ( #245 ) ) GLOBAL_UNIT_ASSIGNED_CONTEXT ( ( #89, #104, #48 ) ) REPRESENTATION_CONTEXT ( 'NONE', 'WORKASPACE' ) );
#254 = FILL_AREA_STYLE ('',( #124 ) ) ;
#255 = EDGE_CURVE ( 'NONE', #75, #154, #23, .T. ) ;
#256 = DIRECTION ( 'NONE',  ( 1.000000000000000000, 0.000000000000000000, 0.000000000000000000 ) ) ;
#257 = DIRECTION ( 'NONE',  ( 0.000000000000000000, 0.000000000000000000, -1.000000000000000000 ) ) ;
#258 = ORIENTED_EDGE ( 'NONE', *, *, #250, .T. ) ;
#259 =( GEOMETRIC_REPRESENTATION_CONTEXT ( 3 ) GLOBAL_UNCERTAINTY_ASSIGNED_CONTEXT ( ( #158 ) ) GLOBAL_UNIT_ASSIGNED_CONTEXT ( ( #117, #82, #118 ) ) REPRESENTATION_CONTEXT ( 'NONE', 'WORKASPACE' ) );
#260 = ORIENTED_EDGE ( 'NONE', *, *, #37, .F. ) ;
#261 = DIRECTION ( 'NONE',  ( -1.000000000000000000, 0.000000000000000000, 0.000000000000000000 ) ) ;
#262 = ADVANCED_FACE ( 'NONE', ( #16 ), #97, .T. ) ;
#263 = FILL_AREA_STYLE ('',( #99 ) ) ;
#264 = FACE_OUTER_BOUND ( 'NONE', #196, .T. ) ;
#265 =( NAMED_UNIT ( * ) SI_UNIT ( $, .STERADIAN. ) SOLID_ANGLE_UNIT ( ) );
ENDSEC;
END-ISO-10303-21;
