ISO-10303-21;
HEADER;
FILE_DESCRIPTION (( 'STEP AP214' ),
    '1' );
FILE_NAME ('Micro_GEMM-100-2X.STEP',
    '2021-09-01T21:51:08',
    ( '' ),
    ( '' ),
    'SwSTEP 2.0',
    'SolidWorks 2020',
    '' );
FILE_SCHEMA (( 'AUTOMOTIVE_DESIGN' ));
ENDSEC;

DATA;
#1 = DIRECTION ( 'NONE',  ( -1.000000000000000000, 0.0000000000000000000, 1.224646799147353207E-16 ) ) ;
#2 = VECTOR ( 'NONE', #268, 39.37007874015748854 ) ;
#3 =( LENGTH_UNIT ( ) NAMED_UNIT ( * ) SI_UNIT ( $, .METRE. ) );
#4 = FACE_OUTER_BOUND ( 'NONE', #232, .T. ) ;
#5 = DIRECTION ( 'NONE',  ( 1.224646799147353207E-16, 0.0000000000000000000, 1.000000000000000000 ) ) ;
#6 = VERTEX_POINT ( 'NONE', #57 ) ;
#7 = EDGE_CURVE ( 'NONE', #210, #260, #11, .T. ) ;
#8 = VECTOR ( 'NONE', #51, 39.37007874015748143 ) ;
#9 = CARTESIAN_POINT ( 'NONE',  ( 0.1966536494999999996, 2.408312624008205170E-17, 3.791200677927629740E-33 ) ) ;
#10 = ORIENTED_EDGE ( 'NONE', *, *, #238, .T. ) ;
#11 = LINE ( 'NONE', #190, #150 ) ;
#12 =( GEOMETRIC_REPRESENTATION_CONTEXT ( 3 ) GLOBAL_UNCERTAINTY_ASSIGNED_CONTEXT ( ( #229 ) ) GLOBAL_UNIT_ASSIGNED_CONTEXT ( ( #24, #53, #118 ) ) REPRESENTATION_CONTEXT ( 'NONE', 'WORKASPACE' ) );
#13 = VERTEX_POINT ( 'NONE', #83 ) ;
#14 = CARTESIAN_POINT ( 'NONE',  ( 0.0000000000000000000, 0.0000000000000000000, 0.0000000000000000000 ) ) ;
#15 = DIRECTION ( 'NONE',  ( 1.000000000000000000, 0.0000000000000000000, 0.0000000000000000000 ) ) ;
#16 = CARTESIAN_POINT ( 'NONE',  ( 0.0000000000000000000, 0.0000000000000000000, 0.0000000000000000000 ) ) ;
#17 = AXIS2_PLACEMENT_3D ( 'NONE', #242, #157, #250 ) ;
#18 = FACE_OUTER_BOUND ( 'NONE', #299, .T. ) ;
#19 = CARTESIAN_POINT ( 'NONE',  ( 0.1966536495000000273, 2.408312624008205478E-17, -2.408312624008205478E-17 ) ) ;
#20 = EDGE_CURVE ( 'NONE', #223, #284, #127, .T. ) ;
#21 = DIRECTION ( 'NONE',  ( 0.0000000000000000000, 0.0000000000000000000, -1.000000000000000000 ) ) ;
#22 = ORIENTED_EDGE ( 'NONE', *, *, #282, .T. ) ;
#23 = DIRECTION ( 'NONE',  ( -1.000000000000000000, 0.0000000000000000000, 1.224646799147353207E-16 ) ) ;
#24 =( CONVERSION_BASED_UNIT ( 'INCH', #139 ) LENGTH_UNIT ( ) NAMED_UNIT ( #88 ) );
#25 = EDGE_CURVE ( 'NONE', #210, #135, #97, .T. ) ;
#26 = FILL_AREA_STYLE_COLOUR ( '', #141 ) ;
#27 = MANIFOLD_SOLID_BREP ( 'Cut-Revolve1', #297 ) ;
#28 = MECHANICAL_DESIGN_GEOMETRIC_PRESENTATION_REPRESENTATION (  '', ( #128 ), #12 ) ;
#29 = APPLICATION_PROTOCOL_DEFINITION ( 'draft international standard', 'automotive_design', 1998, #164 ) ;
#30 = DIRECTION ( 'NONE',  ( -1.000000000000000000, 0.0000000000000000000, 0.0000000000000000000 ) ) ;
#31 = ORIENTED_EDGE ( 'NONE', *, *, #167, .T. ) ;
#32 = AXIS2_PLACEMENT_3D ( 'NONE', #113, #177, #93 ) ;
#33 = ORIENTED_EDGE ( 'NONE', *, *, #193, .F. ) ;
#34 = DIRECTION ( 'NONE',  ( -1.000000000000000000, 0.0000000000000000000, 0.0000000000000000000 ) ) ;
#35 = DIRECTION ( 'NONE',  ( 1.000000000000000000, 0.0000000000000000000, 0.0000000000000000000 ) ) ;
#36 =( NAMED_UNIT ( * ) PLANE_ANGLE_UNIT ( ) SI_UNIT ( $, .RADIAN. ) );
#37 = EDGE_LOOP ( 'NONE', ( #117, #138, #255, #124 ) ) ;
#38 = AXIS2_PLACEMENT_3D ( 'NONE', #225, #181, #206 ) ;
#39 = FILL_AREA_STYLE_COLOUR ( '', #259 ) ;
#40 = CYLINDRICAL_SURFACE ( 'NONE', #91, 0.1966536495000000273 ) ;
#41 = CIRCLE ( 'NONE', #56, 0.1818505000000002481 ) ;
#42 = CARTESIAN_POINT ( 'NONE',  ( 0.0000000000000000000, 0.0000000000000000000, 2.834646000000000665 ) ) ;
#43 = DIRECTION ( 'NONE',  ( -0.0000000000000000000, -0.0000000000000000000, -1.000000000000000000 ) ) ;
#44 = ORIENTED_EDGE ( 'NONE', *, *, #25, .T. ) ;
#45 = DIRECTION ( 'NONE',  ( 1.000000000000000000, 0.0000000000000000000, 0.0000000000000000000 ) ) ;
#46 = CONICAL_SURFACE ( 'NONE', #38, 0.1966536495000000273, 0.1745329251994338915 ) ;
#47 = CARTESIAN_POINT ( 'NONE',  ( 0.0000000000000000000, 0.0000000000000000000, 2.834646000000000665 ) ) ;
#48 = ORIENTED_EDGE ( 'NONE', *, *, #258, .T. ) ;
#49 = SURFACE_STYLE_USAGE ( .BOTH. , #79 ) ;
#50 = MECHANICAL_DESIGN_GEOMETRIC_PRESENTATION_REPRESENTATION (  '', ( #293 ), #78 ) ;
#51 = DIRECTION ( 'NONE',  ( -1.224646799147353207E-16, -0.0000000000000000000, -1.000000000000000000 ) ) ;
#52 = UNCERTAINTY_MEASURE_WITH_UNIT (LENGTH_MEASURE( 1.000000000000000082E-05 ), #160, 'distance_accuracy_value', 'NONE');
#53 =( NAMED_UNIT ( * ) PLANE_ANGLE_UNIT ( ) SI_UNIT ( $, .RADIAN. ) );
#54 = EDGE_LOOP ( 'NONE', ( #144, #192, #265, #65 ) ) ;
#55 = ORIENTED_EDGE ( 'NONE', *, *, #112, .T. ) ;
#56 = AXIS2_PLACEMENT_3D ( 'NONE', #42, #292, #175 ) ;
#57 = CARTESIAN_POINT ( 'NONE',  ( 0.1818505000000002481, 2.318874837419510283E-17, 2.834646000000000665 ) ) ;
#58 = APPLICATION_CONTEXT ( 'automotive_design' ) ;
#59 = PRODUCT_RELATED_PRODUCT_CATEGORY ( 'part', '', ( #246 ) ) ;
#60 = ORIENTED_EDGE ( 'NONE', *, *, #7, .F. ) ;
#61 = PRODUCT_CONTEXT ( 'NONE', #164, 'mechanical' ) ;
#62 = VERTEX_POINT ( 'NONE', #9 ) ;
#63 = CONICAL_SURFACE ( 'NONE', #199, 0.1818505000000002481, 0.7853981633974312926 ) ;
#64 = ADVANCED_FACE ( 'NONE', ( #237 ), #146, .T. ) ;
#65 = ORIENTED_EDGE ( 'NONE', *, *, #282, .F. ) ;
#66 = DIRECTION ( 'NONE',  ( 0.0000000000000000000, 0.0000000000000000000, -1.000000000000000000 ) ) ;
#67 = EDGE_CURVE ( 'NONE', #92, #62, #249, .T. ) ;
#68 = CARTESIAN_POINT ( 'NONE',  ( -0.1968504999999999838, 0.0000000000000000000, 2.819646000000000097 ) ) ;
#69 = DIRECTION ( 'NONE',  ( -1.000000000000000000, 0.0000000000000000000, 0.0000000000000000000 ) ) ;
#70 = ORIENTED_EDGE ( 'NONE', *, *, #235, .F. ) ;
#71 = CARTESIAN_POINT ( 'NONE',  ( -0.1968504999999999006, 0.0000000000000000000, 0.7491473946618323332 ) ) ;
#72 = DIRECTION ( 'NONE',  ( -1.224646799147353207E-16, -0.0000000000000000000, -1.000000000000000000 ) ) ;
#73 = ADVANCED_FACE ( 'NONE', ( #281 ), #165, .F. ) ;
#74 = AXIS2_PLACEMENT_3D ( 'NONE', #16, #216, #218 ) ;
#75 = DIRECTION ( 'NONE',  ( -1.224646799147353207E-16, -0.0000000000000000000, -1.000000000000000000 ) ) ;
#76 = DIRECTION ( 'NONE',  ( -1.224646799147353207E-16, -0.0000000000000000000, -1.000000000000000000 ) ) ;
#77 = CARTESIAN_POINT ( 'NONE',  ( 9.174409589621918238E-17, 0.0000000000000000000, 0.7491473946618323332 ) ) ;
#78 =( GEOMETRIC_REPRESENTATION_CONTEXT ( 3 ) GLOBAL_UNCERTAINTY_ASSIGNED_CONTEXT ( ( #252 ) ) GLOBAL_UNIT_ASSIGNED_CONTEXT ( ( #211, #36, #108 ) ) REPRESENTATION_CONTEXT ( 'NONE', 'WORKASPACE' ) );
#79 = SURFACE_SIDE_STYLE ('',( #184 ) ) ;
#80 = ORIENTED_EDGE ( 'NONE', *, *, #104, .F. ) ;
#81 =( LENGTH_UNIT ( ) NAMED_UNIT ( * ) SI_UNIT ( $, .METRE. ) );
#82 = AXIS2_PLACEMENT_3D ( 'NONE', #228, #76, #278 ) ;
#83 = CARTESIAN_POINT ( 'NONE',  ( -0.1818505000000002481, 0.0000000000000000000, 2.834646000000000665 ) ) ;
#84 = ORIENTED_EDGE ( 'NONE', *, *, #94, .T. ) ;
#85 = ADVANCED_FACE ( 'NONE', ( #18 ), #247, .T. ) ;
#86 = DIRECTION ( 'NONE',  ( -0.0000000000000000000, -0.0000000000000000000, -1.000000000000000000 ) ) ;
#87 = LINE ( 'NONE', #173, #2 ) ;
#88 = DIMENSIONAL_EXPONENTS ( 1.000000000000000000, 0.0000000000000000000, 0.0000000000000000000, 0.0000000000000000000, 0.0000000000000000000, 0.0000000000000000000, 0.0000000000000000000 ) ;
#89 = DIRECTION ( 'NONE',  ( 0.0000000000000000000, 0.0000000000000000000, 1.000000000000000000 ) ) ;
#90 = FACE_OUTER_BOUND ( 'NONE', #54, .T. ) ;
#91 = AXIS2_PLACEMENT_3D ( 'NONE', #131, #159, #1 ) ;
#92 = VERTEX_POINT ( 'NONE', #200 ) ;
#93 = DIRECTION ( 'NONE',  ( 1.000000000000000000, 0.0000000000000000000, -0.0000000000000000000 ) ) ;
#94 = EDGE_CURVE ( 'NONE', #135, #210, #166, .T. ) ;
#95 = CYLINDRICAL_SURFACE ( 'NONE', #17, 0.1968504999999999838 ) ;
#96 = LENGTH_MEASURE_WITH_UNIT ( LENGTH_MEASURE( 0.02539999999999999897 ), #182 );
#97 = CIRCLE ( 'NONE', #214, 0.1968504999999999838 ) ;
#98 = VECTOR ( 'NONE', #43, 39.37007874015748143 ) ;
#99 = CARTESIAN_POINT ( 'NONE',  ( 9.160737698129936696E-17, 0.0000000000000000000, 0.7480309999999998904 ) ) ;
#100 = ORIENTED_EDGE ( 'NONE', *, *, #67, .T. ) ;
#101 = CIRCLE ( 'NONE', #137, 0.1968504999999999838 ) ;
#102 = CARTESIAN_POINT ( 'NONE',  ( 0.1968505000000000948, 2.410723347355561570E-17, 0.7491473946618323332 ) ) ;
#103 = ADVANCED_FACE ( 'NONE', ( #273 ), #95, .T. ) ;
#104 = EDGE_CURVE ( 'NONE', #223, #62, #270, .T. ) ;
#105 = ADVANCED_FACE ( 'NONE', ( #158 ), #63, .T. ) ;
#106 = EDGE_LOOP ( 'NONE', ( #100, #257 ) ) ;
#107 = ORIENTED_EDGE ( 'NONE', *, *, #112, .F. ) ;
#108 =( NAMED_UNIT ( * ) SI_UNIT ( $, .STERADIAN. ) SOLID_ANGLE_UNIT ( ) );
#109 = LINE ( 'NONE', #196, #130 ) ;
#110 = FACE_OUTER_BOUND ( 'NONE', #251, .T. ) ;
#111 = DIRECTION ( 'NONE',  ( -1.224646799147353207E-16, -0.0000000000000000000, -1.000000000000000000 ) ) ;
#112 = EDGE_CURVE ( 'NONE', #6, #13, #41, .T. ) ;
#113 = CARTESIAN_POINT ( 'NONE',  ( 0.0000000000000000000, 0.0000000000000000000, 2.834646000000000665 ) ) ;
#114 = ORIENTED_EDGE ( 'NONE', *, *, #167, .F. ) ;
#115 = PRODUCT_DEFINITION_SHAPE ( 'NONE', 'NONE',  #134 ) ;
#116 = DIRECTION ( 'NONE',  ( -0.1736481776669311916, 2.126576849575783316E-17, 0.9848077530122080203 ) ) ;
#117 = ORIENTED_EDGE ( 'NONE', *, *, #238, .F. ) ;
#118 =( NAMED_UNIT ( * ) SI_UNIT ( $, .STERADIAN. ) SOLID_ANGLE_UNIT ( ) );
#119 = FILL_AREA_STYLE ('',( #26 ) ) ;
#120 = VECTOR ( 'NONE', #116, 39.37007874015747433 ) ;
#121 = DIRECTION ( 'NONE',  ( 1.000000000000000000, 0.0000000000000000000, 0.0000000000000000000 ) ) ;
#122 = EDGE_LOOP ( 'NONE', ( #80, #208, #22, #126 ) ) ;
#123 = AXIS2_PLACEMENT_3D ( 'NONE', #194, #187, #288 ) ;
#124 = ORIENTED_EDGE ( 'NONE', *, *, #25, .F. ) ;
#125 = PRESENTATION_STYLE_ASSIGNMENT (( #212 ) ) ;
#126 = ORIENTED_EDGE ( 'NONE', *, *, #191, .F. ) ;
#127 = CIRCLE ( 'NONE', #231, 0.1966536495000000273 ) ;
#128 = STYLED_ITEM ( 'NONE', ( #256 ), #271 ) ;
#129 = CARTESIAN_POINT ( 'NONE',  ( 0.0000000000000000000, 0.0000000000000000000, 2.819646000000000097 ) ) ;
#130 = VECTOR ( 'NONE', #289, 39.37007874015748854 ) ;
#131 = CARTESIAN_POINT ( 'NONE',  ( 0.0000000000000000000, 0.0000000000000000000, 0.0000000000000000000 ) ) ;
#132 = CARTESIAN_POINT ( 'NONE',  ( 0.0000000000000000000, 0.0000000000000000000, 2.834646000000000665 ) ) ;
#133 = CARTESIAN_POINT ( 'NONE',  ( -0.1966536494999999440, 2.408312624008205478E-17, 0.7480309999999998904 ) ) ;
#134 = PRODUCT_DEFINITION ( 'UNKNOWN', '', #294, #140 ) ;
#135 = VERTEX_POINT ( 'NONE', #68 ) ;
#136 = CARTESIAN_POINT ( 'NONE',  ( 0.0000000000000000000, 0.0000000000000000000, 2.834646000000000665 ) ) ;
#137 = AXIS2_PLACEMENT_3D ( 'NONE', #77, #75, #161 ) ;
#138 = ORIENTED_EDGE ( 'NONE', *, *, #174, .F. ) ;
#139 = LENGTH_MEASURE_WITH_UNIT ( LENGTH_MEASURE( 0.02539999999999999897 ), #3 );
#140 = PRODUCT_DEFINITION_CONTEXT ( 'detailed design', #58, 'design' ) ;
#141 = COLOUR_RGB ( '',0.7921568627450980005, 0.8196078431372548767, 0.9333333333333333481 ) ;
#142 = CARTESIAN_POINT ( 'NONE',  ( -0.1966536494999999440, 2.409517985681882908E-17, 0.7480309999999998904 ) ) ;
#143 = LINE ( 'NONE', #253, #8 ) ;
#144 = ORIENTED_EDGE ( 'NONE', *, *, #290, .T. ) ;
#145 = ORIENTED_EDGE ( 'NONE', *, *, #258, .F. ) ;
#146 = CONICAL_SURFACE ( 'NONE', #189, 0.1818505000000002481, 0.7853981633974312926 ) ;
#147 = DIRECTION ( 'NONE',  ( 0.0000000000000000000, 0.0000000000000000000, -1.000000000000000000 ) ) ;
#148 = LENGTH_MEASURE_WITH_UNIT ( LENGTH_MEASURE( 0.02539999999999999897 ), #81 );
#149 = SURFACE_SIDE_STYLE ('',( #264 ) ) ;
#150 = VECTOR ( 'NONE', #86, 39.37007874015748143 ) ;
#151 = FACE_OUTER_BOUND ( 'NONE', #122, .T. ) ;
#152 = PRESENTATION_LAYER_ASSIGNMENT (  '', '', ( #293 ) ) ;
#153 = PRESENTATION_LAYER_ASSIGNMENT (  '', '', ( #128 ) ) ;
#154 = DIRECTION ( 'NONE',  ( 0.0000000000000000000, 0.0000000000000000000, 1.000000000000000000 ) ) ;
#155 = EDGE_CURVE ( 'NONE', #223, #260, #217, .T. ) ;
#156 = DIRECTION ( 'NONE',  ( 1.000000000000000000, 0.0000000000000000000, -0.0000000000000000000 ) ) ;
#157 = DIRECTION ( 'NONE',  ( -0.0000000000000000000, -0.0000000000000000000, -1.000000000000000000 ) ) ;
#158 = FACE_OUTER_BOUND ( 'NONE', #37, .T. ) ;
#159 = DIRECTION ( 'NONE',  ( -1.224646799147353207E-16, -0.0000000000000000000, -1.000000000000000000 ) ) ;
#160 =( CONVERSION_BASED_UNIT ( 'INCH', #96 ) LENGTH_UNIT ( ) NAMED_UNIT ( #227 ) );
#161 = DIRECTION ( 'NONE',  ( 1.000000000000000000, 0.0000000000000000000, 0.0000000000000000000 ) ) ;
#162 = CARTESIAN_POINT ( 'NONE',  ( 9.160737698129936696E-17, 0.0000000000000000000, 0.7480309999999998904 ) ) ;
#163 = ORIENTED_EDGE ( 'NONE', *, *, #290, .F. ) ;
#164 = APPLICATION_CONTEXT ( 'automotive_design' ) ;
#165 = PLANE ( 'NONE',  #239 ) ;
#166 = CIRCLE ( 'NONE', #266, 0.1968504999999999838 ) ;
#167 = EDGE_CURVE ( 'NONE', #135, #204, #276, .T. ) ;
#168 = SHAPE_DEFINITION_REPRESENTATION ( #115, #271 ) ;
#169 = EDGE_LOOP ( 'NONE', ( #107, #10, #219, #70 ) ) ;
#170 = EDGE_LOOP ( 'NONE', ( #84, #203, #234, #114 ) ) ;
#171 = VECTOR ( 'NONE', #179, 39.37007874015748143 ) ;
#172 = ORIENTED_EDGE ( 'NONE', *, *, #287, .T. ) ;
#173 = CARTESIAN_POINT ( 'NONE',  ( 0.1818505000000002481, 2.227026327483460228E-17, 2.834646000000000665 ) ) ;
#174 = EDGE_CURVE ( 'NONE', #13, #6, #261, .T. ) ;
#175 = DIRECTION ( 'NONE',  ( 1.000000000000000000, 0.0000000000000000000, 0.0000000000000000000 ) ) ;
#176 = AXIS2_PLACEMENT_3D ( 'NONE', #14, #263, #35 ) ;
#177 = DIRECTION ( 'NONE',  ( 0.0000000000000000000, 0.0000000000000000000, 1.000000000000000000 ) ) ;
#178 = LINE ( 'NONE', #133, #120 ) ;
#179 = DIRECTION ( 'NONE',  ( 0.1736481776669313859, 0.0000000000000000000, 0.9848077530122077983 ) ) ;
#180 =( NAMED_UNIT ( * ) PLANE_ANGLE_UNIT ( ) SI_UNIT ( $, .RADIAN. ) );
#181 = DIRECTION ( 'NONE',  ( 1.224646799147353207E-16, 0.0000000000000000000, 1.000000000000000000 ) ) ;
#182 =( LENGTH_UNIT ( ) NAMED_UNIT ( * ) SI_UNIT ( $, .METRE. ) );
#183 = ADVANCED_FACE ( 'NONE', ( #110 ), #291, .T. ) ;
#184 = SURFACE_STYLE_FILL_AREA ( #119 ) ;
#185 = VECTOR ( 'NONE', #72, 39.37007874015748143 ) ;
#186 = DIRECTION ( 'NONE',  ( -1.224646799147353207E-16, -0.0000000000000000000, -1.000000000000000000 ) ) ;
#187 = DIRECTION ( 'NONE',  ( -1.224646799147353207E-16, -0.0000000000000000000, -1.000000000000000000 ) ) ;
#188 = CARTESIAN_POINT ( 'NONE',  ( 9.160737698129936696E-17, 0.0000000000000000000, 0.7480309999999998904 ) ) ;
#189 = AXIS2_PLACEMENT_3D ( 'NONE', #240, #147, #262 ) ;
#190 = CARTESIAN_POINT ( 'NONE',  ( 0.1968504999999999838, 2.410723347355560646E-17, 2.834646000000000665 ) ) ;
#191 = EDGE_CURVE ( 'NONE', #62, #92, #215, .T. ) ;
#192 = ORIENTED_EDGE ( 'NONE', *, *, #104, .T. ) ;
#193 = EDGE_CURVE ( 'NONE', #284, #204, #178, .T. ) ;
#194 = CARTESIAN_POINT ( 'NONE',  ( 2.949332346337811403E-33, 0.0000000000000000000, 2.408312624008205170E-17 ) ) ;
#195 = AXIS2_PLACEMENT_3D ( 'NONE', #47, #154, #45 ) ;
#196 = CARTESIAN_POINT ( 'NONE',  ( -0.1818505000000002481, 0.0000000000000000000, 2.834646000000000665 ) ) ;
#197 = CARTESIAN_POINT ( 'NONE',  ( -0.1968504999999999838, 0.0000000000000000000, 2.834646000000000665 ) ) ;
#198 = CARTESIAN_POINT ( 'NONE',  ( 0.1968504999999999838, 2.410723347355560646E-17, 2.819646000000000097 ) ) ;
#199 = AXIS2_PLACEMENT_3D ( 'NONE', #132, #66, #275 ) ;
#200 = CARTESIAN_POINT ( 'NONE',  ( -0.1966536494999999996, 0.0000000000000000000, 4.816625248016410340E-17 ) ) ;
#201 = ORIENTED_EDGE ( 'NONE', *, *, #174, .T. ) ;
#202 = CYLINDRICAL_SURFACE ( 'NONE', #74, 0.1966536495000000273 ) ;
#203 = ORIENTED_EDGE ( 'NONE', *, *, #7, .T. ) ;
#204 = VERTEX_POINT ( 'NONE', #71 ) ;
#205 = CIRCLE ( 'NONE', #82, 0.1968504999999999838 ) ;
#206 = DIRECTION ( 'NONE',  ( 1.000000000000000000, 0.0000000000000000000, 0.0000000000000000000 ) ) ;
#207 =( GEOMETRIC_REPRESENTATION_CONTEXT ( 3 ) GLOBAL_UNCERTAINTY_ASSIGNED_CONTEXT ( ( #52 ) ) GLOBAL_UNIT_ASSIGNED_CONTEXT ( ( #160, #180, #279 ) ) REPRESENTATION_CONTEXT ( 'NONE', 'WORKASPACE' ) );
#208 = ORIENTED_EDGE ( 'NONE', *, *, #20, .T. ) ;
#209 = CARTESIAN_POINT ( 'NONE',  ( 0.0000000000000000000, 0.0000000000000000000, 0.0000000000000000000 ) ) ;
#210 = VERTEX_POINT ( 'NONE', #198 ) ;
#211 =( CONVERSION_BASED_UNIT ( 'INCH', #148 ) LENGTH_UNIT ( ) NAMED_UNIT ( #286 ) );
#212 = SURFACE_STYLE_USAGE ( .BOTH. , #149 ) ;
#213 = CARTESIAN_POINT ( 'NONE',  ( 0.1966536495000001383, 0.0000000000000000000, 0.7480309999999998904 ) ) ;
#214 = AXIS2_PLACEMENT_3D ( 'NONE', #129, #236, #15 ) ;
#215 = CIRCLE ( 'NONE', #233, 0.1966536494999999996 ) ;
#216 = DIRECTION ( 'NONE',  ( -1.224646799147353207E-16, -0.0000000000000000000, -1.000000000000000000 ) ) ;
#217 = LINE ( 'NONE', #298, #171 ) ;
#218 = DIRECTION ( 'NONE',  ( -1.000000000000000000, 0.0000000000000000000, 1.224646799147353207E-16 ) ) ;
#219 = ORIENTED_EDGE ( 'NONE', *, *, #94, .F. ) ;
#220 = AXIS2_PLACEMENT_3D ( 'NONE', #136, #296, #69 ) ;
#221 = CARTESIAN_POINT ( 'NONE',  ( 0.0000000000000000000, 0.0000000000000000000, 2.819646000000000097 ) ) ;
#222 = ORIENTED_EDGE ( 'NONE', *, *, #20, .F. ) ;
#223 = VERTEX_POINT ( 'NONE', #213 ) ;
#224 = ADVANCED_FACE ( 'NONE', ( #90 ), #202, .T. ) ;
#225 = CARTESIAN_POINT ( 'NONE',  ( 9.160737698129936696E-17, 0.0000000000000000000, 0.7480309999999998904 ) ) ;
#226 = AXIS2_PLACEMENT_3D ( 'NONE', #99, #5, #121 ) ;
#227 = DIMENSIONAL_EXPONENTS ( 1.000000000000000000, 0.0000000000000000000, 0.0000000000000000000, 0.0000000000000000000, 0.0000000000000000000, 0.0000000000000000000, 0.0000000000000000000 ) ;
#228 = CARTESIAN_POINT ( 'NONE',  ( 9.174409589621918238E-17, 0.0000000000000000000, 0.7491473946618323332 ) ) ;
#229 = UNCERTAINTY_MEASURE_WITH_UNIT (LENGTH_MEASURE( 1.000000000000000082E-05 ), #24, 'distance_accuracy_value', 'NONE');
#230 = FACE_OUTER_BOUND ( 'NONE', #277, .T. ) ;
#231 = AXIS2_PLACEMENT_3D ( 'NONE', #188, #285, #34 ) ;
#232 = EDGE_LOOP ( 'NONE', ( #163, #274, #172, #280 ) ) ;
#233 = AXIS2_PLACEMENT_3D ( 'NONE', #244, #111, #23 ) ;
#234 = ORIENTED_EDGE ( 'NONE', *, *, #287, .F. ) ;
#235 = EDGE_CURVE ( 'NONE', #13, #135, #109, .T. ) ;
#236 = DIRECTION ( 'NONE',  ( 0.0000000000000000000, 0.0000000000000000000, -1.000000000000000000 ) ) ;
#237 = FACE_OUTER_BOUND ( 'NONE', #169, .T. ) ;
#238 = EDGE_CURVE ( 'NONE', #6, #210, #87, .T. ) ;
#239 = AXIS2_PLACEMENT_3D ( 'NONE', #209, #89, #156 ) ;
#240 = CARTESIAN_POINT ( 'NONE',  ( 0.0000000000000000000, 0.0000000000000000000, 2.834646000000000665 ) ) ;
#241 = ORIENTED_EDGE ( 'NONE', *, *, #155, .T. ) ;
#242 = CARTESIAN_POINT ( 'NONE',  ( 0.0000000000000000000, 0.0000000000000000000, 2.834646000000000665 ) ) ;
#243 = CIRCLE ( 'NONE', #272, 0.1966536495000000273 ) ;
#244 = CARTESIAN_POINT ( 'NONE',  ( 2.949332346337811403E-33, 0.0000000000000000000, 2.408312624008205170E-17 ) ) ;
#245 = DIRECTION ( 'NONE',  ( 1.000000000000000000, 0.0000000000000000000, 0.0000000000000000000 ) ) ;
#246 = PRODUCT ( 'Micro_GEMM-100-2X', 'Micro_GEMM-100-2X', '', ( #61 ) ) ;
#247 = PLANE ( 'NONE',  #32 ) ;
#248 = ADVANCED_FACE ( 'NONE', ( #151 ), #40, .T. ) ;
#249 = CIRCLE ( 'NONE', #123, 0.1966536494999999996 ) ;
#250 = DIRECTION ( 'NONE',  ( -1.000000000000000000, 0.0000000000000000000, 0.0000000000000000000 ) ) ;
#251 = EDGE_LOOP ( 'NONE', ( #60, #44, #31, #145 ) ) ;
#252 = UNCERTAINTY_MEASURE_WITH_UNIT (LENGTH_MEASURE( 1.000000000000000082E-05 ), #211, 'distance_accuracy_value', 'NONE');
#253 = CARTESIAN_POINT ( 'NONE',  ( -0.1966536495000000273, 0.0000000000000000000, 2.408312624008205478E-17 ) ) ;
#254 = CONICAL_SURFACE ( 'NONE', #226, 0.1966536495000000273, 0.1745329251994338915 ) ;
#255 = ORIENTED_EDGE ( 'NONE', *, *, #235, .T. ) ;
#256 = PRESENTATION_STYLE_ASSIGNMENT (( #49 ) ) ;
#257 = ORIENTED_EDGE ( 'NONE', *, *, #191, .T. ) ;
#258 = EDGE_CURVE ( 'NONE', #260, #204, #101, .T. ) ;
#259 = COLOUR_RGB ( '',0.7921568627450980005, 0.8196078431372548767, 0.9333333333333333481 ) ;
#260 = VERTEX_POINT ( 'NONE', #102 ) ;
#261 = CIRCLE ( 'NONE', #195, 0.1818505000000002481 ) ;
#262 = DIRECTION ( 'NONE',  ( -1.000000000000000000, 0.0000000000000000000, 0.0000000000000000000 ) ) ;
#263 = DIRECTION ( 'NONE',  ( 0.0000000000000000000, 0.0000000000000000000, 1.000000000000000000 ) ) ;
#264 = SURFACE_STYLE_FILL_AREA ( #267 ) ;
#265 = ORIENTED_EDGE ( 'NONE', *, *, #67, .F. ) ;
#266 = AXIS2_PLACEMENT_3D ( 'NONE', #221, #21, #245 ) ;
#267 = FILL_AREA_STYLE ('',( #39 ) ) ;
#268 = DIRECTION ( 'NONE',  ( 0.7071067811865354713, 8.659560562354783714E-17, -0.7071067811865594521 ) ) ;
#269 = ADVANCED_FACE ( 'NONE', ( #4 ), #46, .T. ) ;
#270 = LINE ( 'NONE', #19, #185 ) ;
#271 = ADVANCED_BREP_SHAPE_REPRESENTATION ( 'Micro_GEMM-100-2X', ( #27, #176 ), #207 ) ;
#272 = AXIS2_PLACEMENT_3D ( 'NONE', #162, #186, #30 ) ;
#273 = FACE_OUTER_BOUND ( 'NONE', #170, .T. ) ;
#274 = ORIENTED_EDGE ( 'NONE', *, *, #193, .T. ) ;
#275 = DIRECTION ( 'NONE',  ( -1.000000000000000000, 0.0000000000000000000, 0.0000000000000000000 ) ) ;
#276 = LINE ( 'NONE', #197, #98 ) ;
#277 = EDGE_LOOP ( 'NONE', ( #33, #222, #241, #48 ) ) ;
#278 = DIRECTION ( 'NONE',  ( 1.000000000000000000, 0.0000000000000000000, 0.0000000000000000000 ) ) ;
#279 =( NAMED_UNIT ( * ) SI_UNIT ( $, .STERADIAN. ) SOLID_ANGLE_UNIT ( ) );
#280 = ORIENTED_EDGE ( 'NONE', *, *, #155, .F. ) ;
#281 = FACE_OUTER_BOUND ( 'NONE', #106, .T. ) ;
#282 = EDGE_CURVE ( 'NONE', #284, #92, #143, .T. ) ;
#283 = APPLICATION_PROTOCOL_DEFINITION ( 'draft international standard', 'automotive_design', 1998, #58 ) ;
#284 = VERTEX_POINT ( 'NONE', #142 ) ;
#285 = DIRECTION ( 'NONE',  ( -1.224646799147353207E-16, -0.0000000000000000000, -1.000000000000000000 ) ) ;
#286 = DIMENSIONAL_EXPONENTS ( 1.000000000000000000, 0.0000000000000000000, 0.0000000000000000000, 0.0000000000000000000, 0.0000000000000000000, 0.0000000000000000000, 0.0000000000000000000 ) ;
#287 = EDGE_CURVE ( 'NONE', #204, #260, #205, .T. ) ;
#288 = DIRECTION ( 'NONE',  ( -1.000000000000000000, 0.0000000000000000000, 1.224646799147353207E-16 ) ) ;
#289 = DIRECTION ( 'NONE',  ( -0.7071067811865354713, 0.0000000000000000000, -0.7071067811865594521 ) ) ;
#290 = EDGE_CURVE ( 'NONE', #284, #223, #243, .T. ) ;
#291 = CYLINDRICAL_SURFACE ( 'NONE', #220, 0.1968504999999999838 ) ;
#292 = DIRECTION ( 'NONE',  ( 0.0000000000000000000, 0.0000000000000000000, 1.000000000000000000 ) ) ;
#293 = STYLED_ITEM ( 'NONE', ( #125 ), #27 ) ;
#294 = PRODUCT_DEFINITION_FORMATION_WITH_SPECIFIED_SOURCE ( 'ANY', '', #246, .NOT_KNOWN. ) ;
#295 = ADVANCED_FACE ( 'NONE', ( #230 ), #254, .T. ) ;
#296 = DIRECTION ( 'NONE',  ( -0.0000000000000000000, -0.0000000000000000000, -1.000000000000000000 ) ) ;
#297 = CLOSED_SHELL ( 'NONE', ( #224, #269, #64, #103, #183, #85, #105, #295, #248, #73 ) ) ;
#298 = CARTESIAN_POINT ( 'NONE',  ( 0.1966536495000001383, 0.0000000000000000000, 0.7480309999999998904 ) ) ;
#299 = EDGE_LOOP ( 'NONE', ( #201, #55 ) ) ;
ENDSEC;
END-ISO-10303-21;
