ISO-10303-21;
HEADER;
FILE_DESCRIPTION (( 'STEP AP214' ),
    '1' );
FILE_NAME ('05322.STEP',
    '2023-06-22T16:02:28',
    ( '' ),
    ( '' ),
    'SwSTEP 2.0',
    'SolidWorks 2023',
    '' );
FILE_SCHEMA (( 'AUTOMOTIVE_DESIGN' ));
ENDSEC;

DATA;
#1 = DIRECTION ( 'NONE',  ( -6.997981709413449187E-17, 1.000000000000000000, -0.000000000000000000 ) ) ;
#2 = CARTESIAN_POINT ( 'NONE',  ( 0.1875000000000000278, 3.000000000000000444, 2.296212748401288650E-17 ) ) ;
#3 = FACE_OUTER_BOUND ( 'NONE', #112, .T. ) ;
#4 =( NAMED_UNIT ( * ) PLANE_ANGLE_UNIT ( ) SI_UNIT ( $, .RADIAN. ) );
#5 = LINE ( 'NONE', #172, #152 ) ;
#6 = DIRECTION ( 'NONE',  ( -1.000000000000000000, 0.000000000000000000, 0.000000000000000000 ) ) ;
#7 = DIRECTION ( 'NONE',  ( -6.997981709413449187E-17, 1.000000000000000000, 0.000000000000000000 ) ) ;
#8 =( NAMED_UNIT ( * ) SI_UNIT ( $, .STERADIAN. ) SOLID_ANGLE_UNIT ( ) );
#9 = EDGE_CURVE ( 'NONE', #118, #278, #133, .T. ) ;
#10 = COLOUR_RGB ( '',1.000000000000000000, 0.000000000000000000, 0.000000000000000000 ) ;
#11 = ORIENTED_EDGE ( 'NONE', *, *, #270, .T. ) ;
#12 = DIRECTION ( 'NONE',  ( -0.000000000000000000, -1.000000000000000000, -0.000000000000000000 ) ) ;
#13 = SURFACE_STYLE_FILL_AREA ( #297 ) ;
#14 = CARTESIAN_POINT ( 'NONE',  ( 0.000000000000000000, 0.000000000000000000, 0.000000000000000000 ) ) ;
#15 = VERTEX_POINT ( 'NONE', #2 ) ;
#16 = CARTESIAN_POINT ( 'NONE',  ( 0.1875000000000000278, 3.000000000000000444, 0.000000000000000000 ) ) ;
#17 = EDGE_LOOP ( 'NONE', ( #83, #276, #114, #308 ) ) ;
#18 = PRESENTATION_LAYER_ASSIGNMENT (  '', '', ( #151 ) ) ;
#19 =( GEOMETRIC_REPRESENTATION_CONTEXT ( 3 ) GLOBAL_UNCERTAINTY_ASSIGNED_CONTEXT ( ( #127 ) ) GLOBAL_UNIT_ASSIGNED_CONTEXT ( ( #245, #219, #264 ) ) REPRESENTATION_CONTEXT ( 'NONE', 'WORKASPACE' ) );
#20 = EDGE_LOOP ( 'NONE', ( #137, #182, #157, #42 ) ) ;
#21 = COLOUR_RGB ( '',1.000000000000000000, 0.000000000000000000, 0.000000000000000000 ) ;
#22 = FILL_AREA_STYLE ('',( #143 ) ) ;
#23 = SURFACE_SIDE_STYLE ('',( #102 ) ) ;
#24 = COLOUR_RGB ( '',0.7921568627450980005, 0.8196078431372548767, 0.9333333333333333481 ) ;
#25 = MANIFOLD_SOLID_BREP ( 'Revolve - Tool Body (Straight Shanked)', #207 ) ;
#26 = CARTESIAN_POINT ( 'NONE',  ( 0.000000000000000000, 0.000000000000000000, -0.1875000000000000278 ) ) ;
#27 =( LENGTH_UNIT ( ) NAMED_UNIT ( * ) SI_UNIT ( $, .METRE. ) );
#28 = CYLINDRICAL_SURFACE ( 'NONE', #216, 0.1875000000000000833 ) ;
#29 = CARTESIAN_POINT ( 'NONE',  ( -1.224646799147353700E-16, 3.000000000000000444, 0.000000000000000000 ) ) ;
#30 =( NAMED_UNIT ( * ) SI_UNIT ( $, .STERADIAN. ) SOLID_ANGLE_UNIT ( ) );
#31 = DIRECTION ( 'NONE',  ( -6.997981709413449187E-17, 1.000000000000000000, -0.000000000000000000 ) ) ;
#32 = EDGE_CURVE ( 'NONE', #261, #116, #296, .T. ) ;
#33 = PRESENTATION_STYLE_ASSIGNMENT (( #131 ) ) ;
#34 =( NAMED_UNIT ( * ) SI_UNIT ( $, .STERADIAN. ) SOLID_ANGLE_UNIT ( ) );
#35 = PRODUCT_RELATED_PRODUCT_CATEGORY ( 'part', '', ( #249 ) ) ;
#36 =( GEOMETRIC_REPRESENTATION_CONTEXT ( 3 ) GLOBAL_UNCERTAINTY_ASSIGNED_CONTEXT ( ( #111 ) ) GLOBAL_UNIT_ASSIGNED_CONTEXT ( ( #155, #301, #236 ) ) REPRESENTATION_CONTEXT ( 'NONE', 'WORKASPACE' ) );
#37 = AXIS2_PLACEMENT_3D ( 'NONE', #123, #268, #50 ) ;
#38 = ORIENTED_EDGE ( 'NONE', *, *, #120, .T. ) ;
#39 = FILL_AREA_STYLE_COLOUR ( '', #21 ) ;
#40 = ORIENTED_EDGE ( 'NONE', *, *, #194, .F. ) ;
#41 = CYLINDRICAL_SURFACE ( 'NONE', #260, 0.1875000000000000278 ) ;
#42 = ORIENTED_EDGE ( 'NONE', *, *, #190, .F. ) ;
#43 = ORIENTED_EDGE ( 'NONE', *, *, #270, .F. ) ;
#44 = SURFACE_STYLE_USAGE ( .BOTH. , #223 ) ;
#45 = ADVANCED_BREP_SHAPE_REPRESENTATION ( '05322', ( #132, #25, #201 ), #19 ) ;
#46 = COLOUR_RGB ( '',1.000000000000000000, 0.000000000000000000, 0.000000000000000000 ) ;
#47 = FACE_OUTER_BOUND ( 'NONE', #307, .T. ) ;
#48 = LENGTH_MEASURE_WITH_UNIT ( LENGTH_MEASURE( 0.02539999999999999897 ), #93 );
#49 = STYLED_ITEM ( 'NONE', ( #225 ), #25 ) ;
#50 = DIRECTION ( 'NONE',  ( 0.000000000000000000, -0.000000000000000000, 1.000000000000000000 ) ) ;
#51 =( NAMED_UNIT ( * ) SI_UNIT ( $, .STERADIAN. ) SOLID_ANGLE_UNIT ( ) );
#52 = DIRECTION ( 'NONE',  ( 0.000000000000000000, 0.000000000000000000, -1.000000000000000000 ) ) ;
#53 = DIRECTION ( 'NONE',  ( -0.000000000000000000, -1.000000000000000000, -0.000000000000000000 ) ) ;
#54 = DIRECTION ( 'NONE',  ( -0.000000000000000000, -1.000000000000000000, -0.000000000000000000 ) ) ;
#55 =( NAMED_UNIT ( * ) PLANE_ANGLE_UNIT ( ) SI_UNIT ( $, .RADIAN. ) );
#56 = CARTESIAN_POINT ( 'NONE',  ( 0.000000000000000000, 1.250000000000000000, -0.1875000000000000278 ) ) ;
#57 = CYLINDRICAL_SURFACE ( 'NONE', #265, 0.1875000000000000278 ) ;
#58 = AXIS2_PLACEMENT_3D ( 'NONE', #16, #256, #156 ) ;
#59 = SURFACE_STYLE_USAGE ( .BOTH. , #214 ) ;
#60 =( CONVERSION_BASED_UNIT ( 'INCH', #283 ) LENGTH_UNIT ( ) NAMED_UNIT ( #109 ) );
#61 = ORIENTED_EDGE ( 'NONE', *, *, #80, .T. ) ;
#62 = MECHANICAL_DESIGN_GEOMETRIC_PRESENTATION_REPRESENTATION (  '', ( #218 ), #158 ) ;
#63 = EDGE_LOOP ( 'NONE', ( #242, #92, #304, #300 ) ) ;
#64 = ADVANCED_FACE ( 'NONE', ( #65 ), #153, .T. ) ;
#65 = FACE_OUTER_BOUND ( 'NONE', #17, .T. ) ;
#66 = CIRCLE ( 'NONE', #292, 0.1875000000000000278 ) ;
#67 = EDGE_CURVE ( 'NONE', #142, #15, #146, .T. ) ;
#68 = PLANE ( 'NONE',  #37 ) ;
#69 = PRODUCT_CONTEXT ( 'NONE', #145, 'mechanical' ) ;
#70 =( CONVERSION_BASED_UNIT ( 'INCH', #196 ) LENGTH_UNIT ( ) NAMED_UNIT ( #231 ) );
#71 = PRESENTATION_LAYER_ASSIGNMENT (  '', '', ( #218 ) ) ;
#72 = DIRECTION ( 'NONE',  ( -6.997981709413449187E-17, 1.000000000000000000, -0.000000000000000000 ) ) ;
#73 = LENGTH_MEASURE_WITH_UNIT ( LENGTH_MEASURE( 0.02539999999999999897 ), #99 );
#74 = DIRECTION ( 'NONE',  ( -0.000000000000000000, -1.000000000000000000, -0.000000000000000000 ) ) ;
#75 = CARTESIAN_POINT ( 'NONE',  ( 0.1875000000000000278, 1.250000000000000000, 2.296212748401288650E-17 ) ) ;
#76 = DIRECTION ( 'NONE',  ( -6.997981709413449187E-17, 1.000000000000000000, -0.000000000000000000 ) ) ;
#77 = STYLED_ITEM ( 'NONE', ( #181 ), #89 ) ;
#78 = VECTOR ( 'NONE', #54, 39.37007874015748143 ) ;
#79 = MECHANICAL_DESIGN_GEOMETRIC_PRESENTATION_REPRESENTATION (  '', ( #255 ), #162 ) ;
#80 = EDGE_CURVE ( 'NONE', #116, #160, #254, .T. ) ;
#81 = EDGE_LOOP ( 'NONE', ( #189, #135 ) ) ;
#82 = DIMENSIONAL_EXPONENTS ( 1.000000000000000000, 0.000000000000000000, 0.000000000000000000, 0.000000000000000000, 0.000000000000000000, 0.000000000000000000, 0.000000000000000000 ) ;
#83 = ORIENTED_EDGE ( 'NONE', *, *, #120, .F. ) ;
#84 = CIRCLE ( 'NONE', #253, 0.1875000000000001388 ) ;
#85 = ORIENTED_EDGE ( 'NONE', *, *, #243, .F. ) ;
#86 =( NAMED_UNIT ( * ) PLANE_ANGLE_UNIT ( ) SI_UNIT ( $, .RADIAN. ) );
#87 = VERTEX_POINT ( 'NONE', #56 ) ;
#88 = CARTESIAN_POINT ( 'NONE',  ( 0.000000000000000000, 1.250000000000000000, 0.000000000000000000 ) ) ;
#89 = ADVANCED_FACE ( 'NONE', ( #277 ), #41, .T. ) ;
#90 = AXIS2_PLACEMENT_3D ( 'NONE', #210, #284, #306 ) ;
#91 = DIRECTION ( 'NONE',  ( -6.997981709413449187E-17, 1.000000000000000000, -0.000000000000000000 ) ) ;
#92 = ORIENTED_EDGE ( 'NONE', *, *, #243, .T. ) ;
#93 =( LENGTH_UNIT ( ) NAMED_UNIT ( * ) SI_UNIT ( $, .METRE. ) );
#94 = PRESENTATION_LAYER_ASSIGNMENT (  '', '', ( #255 ) ) ;
#95 = CARTESIAN_POINT ( 'NONE',  ( -0.1875000000000000278, 1.250000000000000000, 0.000000000000000000 ) ) ;
#96 =( NAMED_UNIT ( * ) PLANE_ANGLE_UNIT ( ) SI_UNIT ( $, .RADIAN. ) );
#97 = DIRECTION ( 'NONE',  ( 1.000000000000000000, 0.000000000000000000, 0.000000000000000000 ) ) ;
#98 = CARTESIAN_POINT ( 'NONE',  ( 2.296212748401287726E-17, 0.000000000000000000, 0.1875000000000000278 ) ) ;
#99 =( LENGTH_UNIT ( ) NAMED_UNIT ( * ) SI_UNIT ( $, .METRE. ) );
#100 = DIRECTION ( 'NONE',  ( 0.000000000000000000, 0.000000000000000000, 1.000000000000000000 ) ) ;
#101 = CARTESIAN_POINT ( 'NONE',  ( 0.000000000000000000, 0.000000000000000000, 0.000000000000000000 ) ) ;
#102 = SURFACE_STYLE_FILL_AREA ( #229 ) ;
#103 = DIRECTION ( 'NONE',  ( 0.000000000000000000, 0.000000000000000000, -1.000000000000000000 ) ) ;
#104 = EDGE_CURVE ( 'NONE', #160, #116, #291, .T. ) ;
#105 = CARTESIAN_POINT ( 'NONE',  ( 0.000000000000000000, 1.250000000000000000, 0.000000000000000000 ) ) ;
#106 = PRESENTATION_LAYER_ASSIGNMENT (  '', '', ( #49 ) ) ;
#107 = AXIS2_PLACEMENT_3D ( 'NONE', #238, #7, #232 ) ;
#108 = ORIENTED_EDGE ( 'NONE', *, *, #9, .F. ) ;
#109 = DIMENSIONAL_EXPONENTS ( 1.000000000000000000, 0.000000000000000000, 0.000000000000000000, 0.000000000000000000, 0.000000000000000000, 0.000000000000000000, 0.000000000000000000 ) ;
#110 = FILL_AREA_STYLE_COLOUR ( '', #24 ) ;
#111 = UNCERTAINTY_MEASURE_WITH_UNIT (LENGTH_MEASURE( 1.000000000000000082E-05 ), #155, 'distance_accuracy_value', 'NONE');
#112 = EDGE_LOOP ( 'NONE', ( #185, #85 ) ) ;
#113 = LENGTH_MEASURE_WITH_UNIT ( LENGTH_MEASURE( 0.02539999999999999897 ), #177 );
#114 = ORIENTED_EDGE ( 'NONE', *, *, #194, .T. ) ;
#115 =( GEOMETRIC_REPRESENTATION_CONTEXT ( 3 ) GLOBAL_UNCERTAINTY_ASSIGNED_CONTEXT ( ( #178 ) ) GLOBAL_UNIT_ASSIGNED_CONTEXT ( ( #70, #4, #30 ) ) REPRESENTATION_CONTEXT ( 'NONE', 'WORKASPACE' ) );
#116 = VERTEX_POINT ( 'NONE', #204 ) ;
#117 = SURFACE_STYLE_USAGE ( .BOTH. , #275 ) ;
#118 = VERTEX_POINT ( 'NONE', #75 ) ;
#119 = AXIS2_PLACEMENT_3D ( 'NONE', #14, #191, #188 ) ;
#120 = EDGE_CURVE ( 'NONE', #118, #15, #305, .T. ) ;
#121 = SURFACE_STYLE_USAGE ( .BOTH. , #23 ) ;
#122 = AXIS2_PLACEMENT_3D ( 'NONE', #252, #230, #103 ) ;
#123 = CARTESIAN_POINT ( 'NONE',  ( 0.000000000000000000, 1.250000000000000000, 0.000000000000000000 ) ) ;
#124 = DIRECTION ( 'NONE',  ( -0.000000000000000000, -1.000000000000000000, -0.000000000000000000 ) ) ;
#125 = CARTESIAN_POINT ( 'NONE',  ( -1.224646799147353700E-16, 3.000000000000000444, 0.000000000000000000 ) ) ;
#126 = COLOUR_RGB ( '',0.7921568627450980005, 0.8196078431372548767, 0.9333333333333333481 ) ;
#127 = UNCERTAINTY_MEASURE_WITH_UNIT (LENGTH_MEASURE( 1.000000000000000082E-05 ), #245, 'distance_accuracy_value', 'NONE');
#128 = DIRECTION ( 'NONE',  ( -1.000000000000000000, 0.000000000000000000, 0.000000000000000000 ) ) ;
#129 = EDGE_CURVE ( 'NONE', #87, #261, #192, .T. ) ;
#130 = DIMENSIONAL_EXPONENTS ( 1.000000000000000000, 0.000000000000000000, 0.000000000000000000, 0.000000000000000000, 0.000000000000000000, 0.000000000000000000, 0.000000000000000000 ) ;
#131 = SURFACE_STYLE_USAGE ( .BOTH. , #212 ) ;
#132 = MANIFOLD_SOLID_BREP ( 'Revolve - Cutting Edge', #161 ) ;
#133 = CIRCLE ( 'NONE', #309, 0.1875000000000000278 ) ;
#134 = CARTESIAN_POINT ( 'NONE',  ( 0.1874999999999999445, 3.000000000000000444, 2.296212748401288342E-17 ) ) ;
#135 = ORIENTED_EDGE ( 'NONE', *, *, #167, .T. ) ;
#136 = FILL_AREA_STYLE ('',( #39 ) ) ;
#137 = ORIENTED_EDGE ( 'NONE', *, *, #129, .T. ) ;
#138 = LENGTH_MEASURE_WITH_UNIT ( LENGTH_MEASURE( 0.02539999999999999897 ), #213 );
#139 = DIRECTION ( 'NONE',  ( -6.997981709413449187E-17, 1.000000000000000000, -0.000000000000000000 ) ) ;
#140 = MECHANICAL_DESIGN_GEOMETRIC_PRESENTATION_REPRESENTATION (  '', ( #49 ), #115 ) ;
#141 = FILL_AREA_STYLE_COLOUR ( '', #46 ) ;
#142 = VERTEX_POINT ( 'NONE', #180 ) ;
#143 = FILL_AREA_STYLE_COLOUR ( '', #10 ) ;
#144 =( GEOMETRIC_REPRESENTATION_CONTEXT ( 3 ) GLOBAL_UNCERTAINTY_ASSIGNED_CONTEXT ( ( #199 ) ) GLOBAL_UNIT_ASSIGNED_CONTEXT ( ( #60, #96, #295 ) ) REPRESENTATION_CONTEXT ( 'NONE', 'WORKASPACE' ) );
#145 = APPLICATION_CONTEXT ( 'automotive_design' ) ;
#146 = CIRCLE ( 'NONE', #170, 0.1875000000000001388 ) ;
#147 = ADVANCED_FACE ( 'NONE', ( #280 ), #154, .F. ) ;
#148 =( NAMED_UNIT ( * ) PLANE_ANGLE_UNIT ( ) SI_UNIT ( $, .RADIAN. ) );
#149 =( CONVERSION_BASED_UNIT ( 'INCH', #73 ) LENGTH_UNIT ( ) NAMED_UNIT ( #259 ) );
#150 = ADVANCED_FACE ( 'NONE', ( #274 ), #57, .T. ) ;
#151 = STYLED_ITEM ( 'NONE', ( #168 ), #183 ) ;
#152 = VECTOR ( 'NONE', #271, 39.37007874015748143 ) ;
#153 = CYLINDRICAL_SURFACE ( 'NONE', #285, 0.1875000000000000833 ) ;
#154 = PLANE ( 'NONE',  #58 ) ;
#155 =( CONVERSION_BASED_UNIT ( 'INCH', #138 ) LENGTH_UNIT ( ) NAMED_UNIT ( #82 ) );
#156 = DIRECTION ( 'NONE',  ( 1.000000000000000000, 6.997981709413449187E-17, 0.000000000000000000 ) ) ;
#157 = ORIENTED_EDGE ( 'NONE', *, *, #104, .F. ) ;
#158 =( GEOMETRIC_REPRESENTATION_CONTEXT ( 3 ) GLOBAL_UNCERTAINTY_ASSIGNED_CONTEXT ( ( #233 ) ) GLOBAL_UNIT_ASSIGNED_CONTEXT ( ( #239, #86, #8 ) ) REPRESENTATION_CONTEXT ( 'NONE', 'WORKASPACE' ) );
#159 = SURFACE_STYLE_FILL_AREA ( #234 ) ;
#160 = VERTEX_POINT ( 'NONE', #288 ) ;
#161 = CLOSED_SHELL ( 'NONE', ( #150, #183, #89, #266 ) ) ;
#162 =( GEOMETRIC_REPRESENTATION_CONTEXT ( 3 ) GLOBAL_UNCERTAINTY_ASSIGNED_CONTEXT ( ( #184 ) ) GLOBAL_UNIT_ASSIGNED_CONTEXT ( ( #289, #55, #34 ) ) REPRESENTATION_CONTEXT ( 'NONE', 'WORKASPACE' ) );
#163 = ORIENTED_EDGE ( 'NONE', *, *, #67, .F. ) ;
#164 = PLANE ( 'NONE',  #119 ) ;
#165 = FILL_AREA_STYLE ('',( #287 ) ) ;
#166 =( LENGTH_UNIT ( ) NAMED_UNIT ( * ) SI_UNIT ( $, .METRE. ) );
#167 = EDGE_CURVE ( 'NONE', #15, #142, #84, .T. ) ;
#168 = PRESENTATION_STYLE_ASSIGNMENT (( #121 ) ) ;
#169 = CARTESIAN_POINT ( 'NONE',  ( -1.224646799147353700E-16, 3.000000000000000444, 0.000000000000000000 ) ) ;
#170 = AXIS2_PLACEMENT_3D ( 'NONE', #175, #31, #128 ) ;
#171 = VECTOR ( 'NONE', #124, 39.37007874015748143 ) ;
#172 = CARTESIAN_POINT ( 'NONE',  ( -0.1875000000000002220, 3.000000000000000444, 0.000000000000000000 ) ) ;
#173 = DIRECTION ( 'NONE',  ( 0.000000000000000000, 0.000000000000000000, -1.000000000000000000 ) ) ;
#174 = PRODUCT_DEFINITION_CONTEXT ( 'detailed design', #240, 'design' ) ;
#175 = CARTESIAN_POINT ( 'NONE',  ( -1.224646799147353700E-16, 3.000000000000000444, 0.000000000000000000 ) ) ;
#176 = AXIS2_PLACEMENT_3D ( 'NONE', #202, #294, #173 ) ;
#177 =( LENGTH_UNIT ( ) NAMED_UNIT ( * ) SI_UNIT ( $, .METRE. ) );
#178 = UNCERTAINTY_MEASURE_WITH_UNIT (LENGTH_MEASURE( 1.000000000000000082E-05 ), #70, 'distance_accuracy_value', 'NONE');
#179 = DIMENSIONAL_EXPONENTS ( 1.000000000000000000, 0.000000000000000000, 0.000000000000000000, 0.000000000000000000, 0.000000000000000000, 0.000000000000000000, 0.000000000000000000 ) ;
#180 = CARTESIAN_POINT ( 'NONE',  ( -0.1875000000000002776, 3.000000000000000444, 0.000000000000000000 ) ) ;
#181 = PRESENTATION_STYLE_ASSIGNMENT (( #117 ) ) ;
#182 = ORIENTED_EDGE ( 'NONE', *, *, #32, .T. ) ;
#183 = ADVANCED_FACE ( 'NONE', ( #3 ), #68, .T. ) ;
#184 = UNCERTAINTY_MEASURE_WITH_UNIT (LENGTH_MEASURE( 1.000000000000000082E-05 ), #289, 'distance_accuracy_value', 'NONE');
#185 = ORIENTED_EDGE ( 'NONE', *, *, #129, .F. ) ;
#186 = MECHANICAL_DESIGN_GEOMETRIC_PRESENTATION_REPRESENTATION (  '', ( #77 ), #36 ) ;
#187 = PRODUCT_DEFINITION_FORMATION_WITH_SPECIFIED_SOURCE ( 'ANY', '', #249, .NOT_KNOWN. ) ;
#188 = DIRECTION ( 'NONE',  ( 0.000000000000000000, 0.000000000000000000, -1.000000000000000000 ) ) ;
#189 = ORIENTED_EDGE ( 'NONE', *, *, #67, .T. ) ;
#190 = EDGE_CURVE ( 'NONE', #87, #160, #290, .T. ) ;
#191 = DIRECTION ( 'NONE',  ( 0.000000000000000000, -1.000000000000000000, -0.000000000000000000 ) ) ;
#192 = CIRCLE ( 'NONE', #269, 0.1875000000000000278 ) ;
#193 = MECHANICAL_DESIGN_GEOMETRIC_PRESENTATION_REPRESENTATION (  '', ( #151 ), #220 ) ;
#194 = EDGE_CURVE ( 'NONE', #278, #142, #5, .T. ) ;
#195 = SURFACE_SIDE_STYLE ('',( #293 ) ) ;
#196 = LENGTH_MEASURE_WITH_UNIT ( LENGTH_MEASURE( 0.02539999999999999897 ), #27 );
#197 = PRODUCT_DEFINITION_SHAPE ( 'NONE', 'NONE',  #257 ) ;
#198 = CARTESIAN_POINT ( 'NONE',  ( 0.000000000000000000, 0.000000000000000000, 0.000000000000000000 ) ) ;
#199 = UNCERTAINTY_MEASURE_WITH_UNIT (LENGTH_MEASURE( 1.000000000000000082E-05 ), #60, 'distance_accuracy_value', 'NONE');
#200 = MECHANICAL_DESIGN_GEOMETRIC_PRESENTATION_REPRESENTATION (  '', ( #215 ), #144 ) ;
#201 = AXIS2_PLACEMENT_3D ( 'NONE', #101, #100, #97 ) ;
#202 = CARTESIAN_POINT ( 'NONE',  ( 0.000000000000000000, 1.250000000000000000, 0.000000000000000000 ) ) ;
#203 = SHAPE_DEFINITION_REPRESENTATION ( #197, #45 ) ;
#204 = CARTESIAN_POINT ( 'NONE',  ( 2.296212748401287726E-17, 0.000000000000000000, 0.1875000000000000278 ) ) ;
#205 = DIRECTION ( 'NONE',  ( -1.000000000000000000, 0.000000000000000000, 0.000000000000000000 ) ) ;
#206 = PLANE ( 'NONE',  #107 ) ;
#207 = CLOSED_SHELL ( 'NONE', ( #209, #251, #64, #147 ) ) ;
#208 = CARTESIAN_POINT ( 'NONE',  ( 2.296212748401287726E-17, 1.250000000000000000, 0.1875000000000000278 ) ) ;
#209 = ADVANCED_FACE ( 'NONE', ( #250 ), #28, .T. ) ;
#210 = CARTESIAN_POINT ( 'NONE',  ( 0.000000000000000000, 0.000000000000000000, 0.000000000000000000 ) ) ;
#211 = ORIENTED_EDGE ( 'NONE', *, *, #104, .T. ) ;
#212 = SURFACE_SIDE_STYLE ('',( #13 ) ) ;
#213 =( LENGTH_UNIT ( ) NAMED_UNIT ( * ) SI_UNIT ( $, .METRE. ) );
#214 = SURFACE_SIDE_STYLE ('',( #235 ) ) ;
#215 = STYLED_ITEM ( 'NONE', ( #217 ), #150 ) ;
#216 = AXIS2_PLACEMENT_3D ( 'NONE', #125, #227, #6 ) ;
#217 = PRESENTATION_STYLE_ASSIGNMENT (( #59 ) ) ;
#218 = STYLED_ITEM ( 'NONE', ( #33 ), #132 ) ;
#219 =( NAMED_UNIT ( * ) PLANE_ANGLE_UNIT ( ) SI_UNIT ( $, .RADIAN. ) );
#220 =( GEOMETRIC_REPRESENTATION_CONTEXT ( 3 ) GLOBAL_UNCERTAINTY_ASSIGNED_CONTEXT ( ( #281 ) ) GLOBAL_UNIT_ASSIGNED_CONTEXT ( ( #149, #148, #51 ) ) REPRESENTATION_CONTEXT ( 'NONE', 'WORKASPACE' ) );
#221 = CARTESIAN_POINT ( 'NONE',  ( 0.000000000000000000, 1.250000000000000000, 0.000000000000000000 ) ) ;
#222 = LENGTH_MEASURE_WITH_UNIT ( LENGTH_MEASURE( 0.02539999999999999897 ), #166 );
#223 = SURFACE_SIDE_STYLE ('',( #263 ) ) ;
#224 = SURFACE_STYLE_USAGE ( .BOTH. , #195 ) ;
#225 = PRESENTATION_STYLE_ASSIGNMENT (( #44 ) ) ;
#226 = APPLICATION_PROTOCOL_DEFINITION ( 'draft international standard', 'automotive_design', 1998, #240 ) ;
#227 = DIRECTION ( 'NONE',  ( -6.997981709413449187E-17, 1.000000000000000000, -0.000000000000000000 ) ) ;
#228 = CIRCLE ( 'NONE', #176, 0.1875000000000000278 ) ;
#229 = FILL_AREA_STYLE ('',( #247 ) ) ;
#230 = DIRECTION ( 'NONE',  ( -0.000000000000000000, -1.000000000000000000, -0.000000000000000000 ) ) ;
#231 = DIMENSIONAL_EXPONENTS ( 1.000000000000000000, 0.000000000000000000, 0.000000000000000000, 0.000000000000000000, 0.000000000000000000, 0.000000000000000000, 0.000000000000000000 ) ;
#232 = DIRECTION ( 'NONE',  ( -1.000000000000000000, -6.997981709413449187E-17, 0.000000000000000000 ) ) ;
#233 = UNCERTAINTY_MEASURE_WITH_UNIT (LENGTH_MEASURE( 1.000000000000000082E-05 ), #239, 'distance_accuracy_value', 'NONE');
#234 = FILL_AREA_STYLE ('',( #141 ) ) ;
#235 = SURFACE_STYLE_FILL_AREA ( #136 ) ;
#236 =( NAMED_UNIT ( * ) SI_UNIT ( $, .STERADIAN. ) SOLID_ANGLE_UNIT ( ) );
#237 = EDGE_LOOP ( 'NONE', ( #43, #108 ) ) ;
#238 = CARTESIAN_POINT ( 'NONE',  ( 4.591101375495486296E-34, 1.250000000000000000, 0.000000000000000000 ) ) ;
#239 =( CONVERSION_BASED_UNIT ( 'INCH', #113 ) LENGTH_UNIT ( ) NAMED_UNIT ( #130 ) );
#240 = APPLICATION_CONTEXT ( 'automotive_design' ) ;
#241 = PRESENTATION_LAYER_ASSIGNMENT (  '', '', ( #77 ) ) ;
#242 = ORIENTED_EDGE ( 'NONE', *, *, #32, .F. ) ;
#243 = EDGE_CURVE ( 'NONE', #261, #87, #228, .T. ) ;
#244 = DIRECTION ( 'NONE',  ( -1.000000000000000000, 0.000000000000000000, 0.000000000000000000 ) ) ;
#245 =( CONVERSION_BASED_UNIT ( 'INCH', #222 ) LENGTH_UNIT ( ) NAMED_UNIT ( #282 ) );
#246 = PRESENTATION_STYLE_ASSIGNMENT (( #224 ) ) ;
#247 = FILL_AREA_STYLE_COLOUR ( '', #286 ) ;
#248 = DIRECTION ( 'NONE',  ( -1.000000000000000000, 0.000000000000000000, 0.000000000000000000 ) ) ;
#249 = PRODUCT ( '05322', '05322', '', ( #69 ) ) ;
#250 = FACE_OUTER_BOUND ( 'NONE', #258, .T. ) ;
#251 = ADVANCED_FACE ( 'NONE', ( #302 ), #206, .F. ) ;
#252 = CARTESIAN_POINT ( 'NONE',  ( 0.000000000000000000, 0.000000000000000000, 0.000000000000000000 ) ) ;
#253 = AXIS2_PLACEMENT_3D ( 'NONE', #29, #72, #248 ) ;
#254 = CIRCLE ( 'NONE', #90, 0.1875000000000000278 ) ;
#255 = STYLED_ITEM ( 'NONE', ( #246 ), #266 ) ;
#256 = DIRECTION ( 'NONE',  ( 6.997981709413449187E-17, -1.000000000000000000, 0.000000000000000000 ) ) ;
#257 = PRODUCT_DEFINITION ( 'UNKNOWN', '', #187, #174 ) ;
#258 = EDGE_LOOP ( 'NONE', ( #11, #38, #163, #40 ) ) ;
#259 = DIMENSIONAL_EXPONENTS ( 1.000000000000000000, 0.000000000000000000, 0.000000000000000000, 0.000000000000000000, 0.000000000000000000, 0.000000000000000000, 0.000000000000000000 ) ;
#260 = AXIS2_PLACEMENT_3D ( 'NONE', #198, #74, #52 ) ;
#261 = VERTEX_POINT ( 'NONE', #208 ) ;
#262 = DIRECTION ( 'NONE',  ( -1.000000000000000000, 0.000000000000000000, 0.000000000000000000 ) ) ;
#263 = SURFACE_STYLE_FILL_AREA ( #165 ) ;
#264 =( NAMED_UNIT ( * ) SI_UNIT ( $, .STERADIAN. ) SOLID_ANGLE_UNIT ( ) );
#265 = AXIS2_PLACEMENT_3D ( 'NONE', #273, #53, #272 ) ;
#266 = ADVANCED_FACE ( 'NONE', ( #47 ), #164, .T. ) ;
#267 = APPLICATION_PROTOCOL_DEFINITION ( 'draft international standard', 'automotive_design', 1998, #145 ) ;
#268 = DIRECTION ( 'NONE',  ( 0.000000000000000000, 1.000000000000000000, 0.000000000000000000 ) ) ;
#269 = AXIS2_PLACEMENT_3D ( 'NONE', #105, #12, #299 ) ;
#270 = EDGE_CURVE ( 'NONE', #278, #118, #66, .T. ) ;
#271 = DIRECTION ( 'NONE',  ( -6.997981709413449187E-17, 1.000000000000000000, -0.000000000000000000 ) ) ;
#272 = DIRECTION ( 'NONE',  ( 0.000000000000000000, 0.000000000000000000, -1.000000000000000000 ) ) ;
#273 = CARTESIAN_POINT ( 'NONE',  ( 0.000000000000000000, 0.000000000000000000, 0.000000000000000000 ) ) ;
#274 = FACE_OUTER_BOUND ( 'NONE', #20, .T. ) ;
#275 = SURFACE_SIDE_STYLE ('',( #159 ) ) ;
#276 = ORIENTED_EDGE ( 'NONE', *, *, #9, .T. ) ;
#277 = FACE_OUTER_BOUND ( 'NONE', #63, .T. ) ;
#278 = VERTEX_POINT ( 'NONE', #95 ) ;
#279 = PRESENTATION_LAYER_ASSIGNMENT (  '', '', ( #215 ) ) ;
#280 = FACE_OUTER_BOUND ( 'NONE', #81, .T. ) ;
#281 = UNCERTAINTY_MEASURE_WITH_UNIT (LENGTH_MEASURE( 1.000000000000000082E-05 ), #149, 'distance_accuracy_value', 'NONE');
#282 = DIMENSIONAL_EXPONENTS ( 1.000000000000000000, 0.000000000000000000, 0.000000000000000000, 0.000000000000000000, 0.000000000000000000, 0.000000000000000000, 0.000000000000000000 ) ;
#283 = LENGTH_MEASURE_WITH_UNIT ( LENGTH_MEASURE( 0.02539999999999999897 ), #303 );
#284 = DIRECTION ( 'NONE',  ( -0.000000000000000000, -1.000000000000000000, -0.000000000000000000 ) ) ;
#285 = AXIS2_PLACEMENT_3D ( 'NONE', #169, #76, #205 ) ;
#286 = COLOUR_RGB ( '',1.000000000000000000, 0.000000000000000000, 0.000000000000000000 ) ;
#287 = FILL_AREA_STYLE_COLOUR ( '', #126 ) ;
#288 = CARTESIAN_POINT ( 'NONE',  ( 0.000000000000000000, 0.000000000000000000, -0.1875000000000000278 ) ) ;
#289 =( CONVERSION_BASED_UNIT ( 'INCH', #48 ) LENGTH_UNIT ( ) NAMED_UNIT ( #179 ) );
#290 = LINE ( 'NONE', #26, #171 ) ;
#291 = CIRCLE ( 'NONE', #122, 0.1875000000000000278 ) ;
#292 = AXIS2_PLACEMENT_3D ( 'NONE', #88, #1, #262 ) ;
#293 = SURFACE_STYLE_FILL_AREA ( #22 ) ;
#294 = DIRECTION ( 'NONE',  ( -0.000000000000000000, -1.000000000000000000, -0.000000000000000000 ) ) ;
#295 =( NAMED_UNIT ( * ) SI_UNIT ( $, .STERADIAN. ) SOLID_ANGLE_UNIT ( ) );
#296 = LINE ( 'NONE', #98, #78 ) ;
#297 = FILL_AREA_STYLE ('',( #110 ) ) ;
#298 = VECTOR ( 'NONE', #139, 39.37007874015748143 ) ;
#299 = DIRECTION ( 'NONE',  ( 0.000000000000000000, 0.000000000000000000, -1.000000000000000000 ) ) ;
#300 = ORIENTED_EDGE ( 'NONE', *, *, #80, .F. ) ;
#301 =( NAMED_UNIT ( * ) PLANE_ANGLE_UNIT ( ) SI_UNIT ( $, .RADIAN. ) );
#302 = FACE_OUTER_BOUND ( 'NONE', #237, .T. ) ;
#303 =( LENGTH_UNIT ( ) NAMED_UNIT ( * ) SI_UNIT ( $, .METRE. ) );
#304 = ORIENTED_EDGE ( 'NONE', *, *, #190, .T. ) ;
#305 = LINE ( 'NONE', #134, #298 ) ;
#306 = DIRECTION ( 'NONE',  ( 0.000000000000000000, 0.000000000000000000, -1.000000000000000000 ) ) ;
#307 = EDGE_LOOP ( 'NONE', ( #211, #61 ) ) ;
#308 = ORIENTED_EDGE ( 'NONE', *, *, #167, .F. ) ;
#309 = AXIS2_PLACEMENT_3D ( 'NONE', #221, #91, #244 ) ;
ENDSEC;
END-ISO-10303-21;
