ISO-10303-21;
HEADER;
FILE_DESCRIPTION (( 'STEP AP214' ),
    '1' );
FILE_NAME ('30737W.STEP',
    '2023-06-22T19:08:41',
    ( '' ),
    ( '' ),
    'SwSTEP 2.0',
    'SolidWorks 2023',
    '' );
FILE_SCHEMA (( 'AUTOMOTIVE_DESIGN' ));
ENDSEC;

DATA;
#1 =( LENGTH_UNIT ( ) NAMED_UNIT ( * ) SI_UNIT ( $, .METRE. ) );
#2 = EDGE_LOOP ( 'NONE', ( #196, #299 ) ) ;
#3 = EDGE_CURVE ( 'NONE', #245, #292, #209, .T. ) ;
#4 = DIRECTION ( 'NONE',  ( -1.000000000000000000, 0.000000000000000000, 0.000000000000000000 ) ) ;
#5 = COLOUR_RGB ( '',1.000000000000000000, 0.000000000000000000, 0.000000000000000000 ) ;
#6 = ORIENTED_EDGE ( 'NONE', *, *, #83, .F. ) ;
#7 = CARTESIAN_POINT ( 'NONE',  ( -0.5000000000000000000, 2.625000000000000000, 0.000000000000000000 ) ) ;
#8 = ORIENTED_EDGE ( 'NONE', *, *, #107, .F. ) ;
#9 = EDGE_CURVE ( 'NONE', #187, #77, #103, .T. ) ;
#10 = FILL_AREA_STYLE_COLOUR ( '', #244 ) ;
#11 = LINE ( 'NONE', #204, #154 ) ;
#12 = PLANE ( 'NONE',  #221 ) ;
#13 = FILL_AREA_STYLE_COLOUR ( '', #240 ) ;
#14 =( NAMED_UNIT ( * ) PLANE_ANGLE_UNIT ( ) SI_UNIT ( $, .RADIAN. ) );
#15 =( NAMED_UNIT ( * ) SI_UNIT ( $, .STERADIAN. ) SOLID_ANGLE_UNIT ( ) );
#16 = DIRECTION ( 'NONE',  ( 0.000000000000000000, -0.000000000000000000, 1.000000000000000000 ) ) ;
#17 = PRODUCT_DEFINITION_CONTEXT ( 'detailed design', #21, 'design' ) ;
#18 =( CONVERSION_BASED_UNIT ( 'INCH', #86 ) LENGTH_UNIT ( ) NAMED_UNIT ( #138 ) );
#19 = DIRECTION ( 'NONE',  ( -1.000000000000000000, -1.546922272607182960E-16, 0.000000000000000000 ) ) ;
#20 = SURFACE_STYLE_USAGE ( .BOTH. , #262 ) ;
#21 = APPLICATION_CONTEXT ( 'automotive_design' ) ;
#22 =( LENGTH_UNIT ( ) NAMED_UNIT ( * ) SI_UNIT ( $, .METRE. ) );
#23 = DIRECTION ( 'NONE',  ( -0.000000000000000000, -1.000000000000000000, -0.000000000000000000 ) ) ;
#24 =( NAMED_UNIT ( * ) SI_UNIT ( $, .STERADIAN. ) SOLID_ANGLE_UNIT ( ) );
#25 = EDGE_LOOP ( 'NONE', ( #168, #144 ) ) ;
#26 = EDGE_CURVE ( 'NONE', #192, #101, #141, .T. ) ;
#27 = CIRCLE ( 'NONE', #97, 0.5000000000000003331 ) ;
#28 =( NAMED_UNIT ( * ) PLANE_ANGLE_UNIT ( ) SI_UNIT ( $, .RADIAN. ) );
#29 = DIRECTION ( 'NONE',  ( 0.000000000000000000, 0.000000000000000000, -1.000000000000000000 ) ) ;
#30 = AXIS2_PLACEMENT_3D ( 'NONE', #43, #164, #19 ) ;
#31 = ADVANCED_FACE ( 'NONE', ( #148 ), #32, .T. ) ;
#32 = CYLINDRICAL_SURFACE ( 'NONE', #74, 0.5000000000000001110 ) ;
#33 = PRESENTATION_STYLE_ASSIGNMENT (( #272 ) ) ;
#34 = AXIS2_PLACEMENT_3D ( 'NONE', #166, #235, #16 ) ;
#35 = EDGE_CURVE ( 'NONE', #77, #187, #72, .T. ) ;
#36 = DIRECTION ( 'NONE',  ( -0.000000000000000000, -1.000000000000000000, -0.000000000000000000 ) ) ;
#37 = PRESENTATION_LAYER_ASSIGNMENT (  '', '', ( #170 ) ) ;
#38 =( NAMED_UNIT ( * ) SI_UNIT ( $, .STERADIAN. ) SOLID_ANGLE_UNIT ( ) );
#39 = DIRECTION ( 'NONE',  ( -0.000000000000000000, -1.000000000000000000, -0.000000000000000000 ) ) ;
#40 =( NAMED_UNIT ( * ) SI_UNIT ( $, .STERADIAN. ) SOLID_ANGLE_UNIT ( ) );
#41 = CARTESIAN_POINT ( 'NONE',  ( 0.5000000000000000000, 5.000000000000000000, 6.123233995736768501E-17 ) ) ;
#42 =( CONVERSION_BASED_UNIT ( 'INCH', #260 ) LENGTH_UNIT ( ) NAMED_UNIT ( #183 ) );
#43 = CARTESIAN_POINT ( 'NONE',  ( 5.982421293720428680E-33, 2.625000000000000000, 0.000000000000000000 ) ) ;
#44 = EDGE_CURVE ( 'NONE', #52, #190, #108, .T. ) ;
#45 = PRESENTATION_LAYER_ASSIGNMENT (  '', '', ( #184 ) ) ;
#46 = CARTESIAN_POINT ( 'NONE',  ( 0.000000000000000000, 0.000000000000000000, 0.000000000000000000 ) ) ;
#47 =( NAMED_UNIT ( * ) PLANE_ANGLE_UNIT ( ) SI_UNIT ( $, .RADIAN. ) );
#48 = DIMENSIONAL_EXPONENTS ( 1.000000000000000000, 0.000000000000000000, 0.000000000000000000, 0.000000000000000000, 0.000000000000000000, 0.000000000000000000, 0.000000000000000000 ) ;
#49 = FILL_AREA_STYLE_COLOUR ( '', #5 ) ;
#50 = FILL_AREA_STYLE ('',( #214 ) ) ;
#51 = UNCERTAINTY_MEASURE_WITH_UNIT (LENGTH_MEASURE( 1.000000000000000082E-05 ), #18, 'distance_accuracy_value', 'NONE');
#52 = VERTEX_POINT ( 'NONE', #231 ) ;
#53 = ORIENTED_EDGE ( 'NONE', *, *, #44, .T. ) ;
#54 = EDGE_LOOP ( 'NONE', ( #297, #264, #198, #169 ) ) ;
#55 = AXIS2_PLACEMENT_3D ( 'NONE', #152, #275, #149 ) ;
#56 =( GEOMETRIC_REPRESENTATION_CONTEXT ( 3 ) GLOBAL_UNCERTAINTY_ASSIGNED_CONTEXT ( ( #232 ) ) GLOBAL_UNIT_ASSIGNED_CONTEXT ( ( #91, #308, #289 ) ) REPRESENTATION_CONTEXT ( 'NONE', 'WORKASPACE' ) );
#57 = EDGE_LOOP ( 'NONE', ( #6, #61, #271, #80 ) ) ;
#58 = CARTESIAN_POINT ( 'NONE',  ( 0.000000000000000000, 0.000000000000000000, 0.000000000000000000 ) ) ;
#59 = ORIENTED_EDGE ( 'NONE', *, *, #67, .F. ) ;
#60 = UNCERTAINTY_MEASURE_WITH_UNIT (LENGTH_MEASURE( 1.000000000000000082E-05 ), #191, 'distance_accuracy_value', 'NONE');
#61 = ORIENTED_EDGE ( 'NONE', *, *, #208, .T. ) ;
#62 = DIRECTION ( 'NONE',  ( 1.000000000000000000, 0.000000000000000000, 0.000000000000000000 ) ) ;
#63 = CARTESIAN_POINT ( 'NONE',  ( 0.000000000000000000, 2.625000000000000000, 0.000000000000000000 ) ) ;
#64 =( GEOMETRIC_REPRESENTATION_CONTEXT ( 3 ) GLOBAL_UNCERTAINTY_ASSIGNED_CONTEXT ( ( #201 ) ) GLOBAL_UNIT_ASSIGNED_CONTEXT ( ( #279, #136, #15 ) ) REPRESENTATION_CONTEXT ( 'NONE', 'WORKASPACE' ) );
#65 =( GEOMETRIC_REPRESENTATION_CONTEXT ( 3 ) GLOBAL_UNCERTAINTY_ASSIGNED_CONTEXT ( ( #186 ) ) GLOBAL_UNIT_ASSIGNED_CONTEXT ( ( #213, #285, #295 ) ) REPRESENTATION_CONTEXT ( 'NONE', 'WORKASPACE' ) );
#66 = FACE_OUTER_BOUND ( 'NONE', #25, .T. ) ;
#67 = EDGE_CURVE ( 'NONE', #190, #52, #233, .T. ) ;
#68 =( LENGTH_UNIT ( ) NAMED_UNIT ( * ) SI_UNIT ( $, .METRE. ) );
#69 = FILL_AREA_STYLE ('',( #13 ) ) ;
#70 = AXIS2_PLACEMENT_3D ( 'NONE', #300, #81, #62 ) ;
#71 = SURFACE_STYLE_USAGE ( .BOTH. , #303 ) ;
#72 = CIRCLE ( 'NONE', #247, 0.5000000000000000000 ) ;
#73 = SURFACE_SIDE_STYLE ('',( #131 ) ) ;
#74 = AXIS2_PLACEMENT_3D ( 'NONE', #226, #298, #4 ) ;
#75 = DIRECTION ( 'NONE',  ( 0.000000000000000000, 0.000000000000000000, -1.000000000000000000 ) ) ;
#76 = MECHANICAL_DESIGN_GEOMETRIC_PRESENTATION_REPRESENTATION (  '', ( #170 ), #210 ) ;
#77 = VERTEX_POINT ( 'NONE', #96 ) ;
#78 = DIRECTION ( 'NONE',  ( -0.000000000000000000, -1.000000000000000000, -0.000000000000000000 ) ) ;
#79 = STYLED_ITEM ( 'NONE', ( #120 ), #293 ) ;
#80 = ORIENTED_EDGE ( 'NONE', *, *, #9, .F. ) ;
#81 = DIRECTION ( 'NONE',  ( 0.000000000000000000, 0.000000000000000000, 1.000000000000000000 ) ) ;
#82 = UNCERTAINTY_MEASURE_WITH_UNIT (LENGTH_MEASURE( 1.000000000000000082E-05 ), #180, 'distance_accuracy_value', 'NONE');
#83 = EDGE_CURVE ( 'NONE', #292, #187, #88, .T. ) ;
#84 = DIRECTION ( 'NONE',  ( -0.000000000000000000, -1.000000000000000000, -0.000000000000000000 ) ) ;
#85 = LENGTH_MEASURE_WITH_UNIT ( LENGTH_MEASURE( 0.02539999999999999897 ), #207 );
#86 = LENGTH_MEASURE_WITH_UNIT ( LENGTH_MEASURE( 0.02539999999999999897 ), #155 );
#87 = FILL_AREA_STYLE ('',( #256 ) ) ;
#88 = LINE ( 'NONE', #288, #128 ) ;
#89 = PRODUCT_CONTEXT ( 'NONE', #147, 'mechanical' ) ;
#90 = SURFACE_STYLE_FILL_AREA ( #50 ) ;
#91 =( CONVERSION_BASED_UNIT ( 'INCH', #132 ) LENGTH_UNIT ( ) NAMED_UNIT ( #48 ) );
#92 = DIRECTION ( 'NONE',  ( -0.000000000000000000, -1.000000000000000000, -0.000000000000000000 ) ) ;
#93 = CARTESIAN_POINT ( 'NONE',  ( 0.4999999999999997780, 5.000000000000000000, 6.123233995736767268E-17 ) ) ;
#94 = DIRECTION ( 'NONE',  ( 0.000000000000000000, -1.000000000000000000, -0.000000000000000000 ) ) ;
#95 = DIMENSIONAL_EXPONENTS ( 1.000000000000000000, 0.000000000000000000, 0.000000000000000000, 0.000000000000000000, 0.000000000000000000, 0.000000000000000000, 0.000000000000000000 ) ;
#96 = CARTESIAN_POINT ( 'NONE',  ( 0.000000000000000000, 0.000000000000000000, -0.5000000000000000000 ) ) ;
#97 = AXIS2_PLACEMENT_3D ( 'NONE', #98, #242, #140 ) ;
#98 = CARTESIAN_POINT ( 'NONE',  ( -3.673940397442059375E-16, 5.000000000000000000, 0.000000000000000000 ) ) ;
#99 = LENGTH_MEASURE_WITH_UNIT ( LENGTH_MEASURE( 0.02539999999999999897 ), #1 );
#100 = PRESENTATION_LAYER_ASSIGNMENT (  '', '', ( #265 ) ) ;
#101 = VERTEX_POINT ( 'NONE', #41 ) ;
#102 = CARTESIAN_POINT ( 'NONE',  ( 0.000000000000000000, 0.000000000000000000, 0.000000000000000000 ) ) ;
#103 = CIRCLE ( 'NONE', #290, 0.5000000000000000000 ) ;
#104 = SURFACE_STYLE_FILL_AREA ( #153 ) ;
#105 = CARTESIAN_POINT ( 'NONE',  ( 0.000000000000000000, 2.625000000000000000, 0.000000000000000000 ) ) ;
#106 = DIRECTION ( 'NONE',  ( -0.000000000000000000, -1.000000000000000000, -0.000000000000000000 ) ) ;
#107 = EDGE_CURVE ( 'NONE', #101, #192, #27, .T. ) ;
#108 = CIRCLE ( 'NONE', #217, 0.5000000000000000000 ) ;
#109 =( GEOMETRIC_REPRESENTATION_CONTEXT ( 3 ) GLOBAL_UNCERTAINTY_ASSIGNED_CONTEXT ( ( #51 ) ) GLOBAL_UNIT_ASSIGNED_CONTEXT ( ( #18, #282, #38 ) ) REPRESENTATION_CONTEXT ( 'NONE', 'WORKASPACE' ) );
#110 = SURFACE_SIDE_STYLE ('',( #104 ) ) ;
#111 = DIRECTION ( 'NONE',  ( -1.546922272607182960E-16, 1.000000000000000000, -0.000000000000000000 ) ) ;
#112 = DIRECTION ( 'NONE',  ( 0.000000000000000000, 0.000000000000000000, -1.000000000000000000 ) ) ;
#113 = SURFACE_STYLE_FILL_AREA ( #69 ) ;
#114 = COLOUR_RGB ( '',0.7921568627450980005, 0.8196078431372548767, 0.9333333333333333481 ) ;
#115 = FACE_OUTER_BOUND ( 'NONE', #224, .T. ) ;
#116 = PRESENTATION_STYLE_ASSIGNMENT (( #20 ) ) ;
#117 = PRODUCT_RELATED_PRODUCT_CATEGORY ( 'part', '', ( #269 ) ) ;
#118 = CARTESIAN_POINT ( 'NONE',  ( 0.000000000000000000, 0.000000000000000000, 0.000000000000000000 ) ) ;
#119 = PRESENTATION_STYLE_ASSIGNMENT (( #71 ) ) ;
#120 = PRESENTATION_STYLE_ASSIGNMENT (( #135 ) ) ;
#121 = FILL_AREA_STYLE ('',( #158 ) ) ;
#122 = ADVANCED_FACE ( 'NONE', ( #130 ), #178, .F. ) ;
#123 = ORIENTED_EDGE ( 'NONE', *, *, #26, .T. ) ;
#124 = CARTESIAN_POINT ( 'NONE',  ( 0.000000000000000000, 2.625000000000000000, 0.000000000000000000 ) ) ;
#125 = CLOSED_SHELL ( 'NONE', ( #266, #246, #31, #122 ) ) ;
#126 = DIRECTION ( 'NONE',  ( -1.000000000000000000, 0.000000000000000000, 0.000000000000000000 ) ) ;
#127 =( GEOMETRIC_REPRESENTATION_CONTEXT ( 3 ) GLOBAL_UNCERTAINTY_ASSIGNED_CONTEXT ( ( #82 ) ) GLOBAL_UNIT_ASSIGNED_CONTEXT ( ( #180, #47, #24 ) ) REPRESENTATION_CONTEXT ( 'NONE', 'WORKASPACE' ) );
#128 = VECTOR ( 'NONE', #39, 39.37007874015748143 ) ;
#129 = DIRECTION ( 'NONE',  ( -0.000000000000000000, -1.000000000000000000, -0.000000000000000000 ) ) ;
#130 = FACE_OUTER_BOUND ( 'NONE', #219, .T. ) ;
#131 = SURFACE_STYLE_FILL_AREA ( #87 ) ;
#132 = LENGTH_MEASURE_WITH_UNIT ( LENGTH_MEASURE( 0.02539999999999999897 ), #22 );
#133 = STYLED_ITEM ( 'NONE', ( #237 ), #291 ) ;
#134 = DIRECTION ( 'NONE',  ( 0.000000000000000000, 0.000000000000000000, -1.000000000000000000 ) ) ;
#135 = SURFACE_STYLE_USAGE ( .BOTH. , #212 ) ;
#136 =( NAMED_UNIT ( * ) PLANE_ANGLE_UNIT ( ) SI_UNIT ( $, .RADIAN. ) );
#137 = CYLINDRICAL_SURFACE ( 'NONE', #251, 0.5000000000000000000 ) ;
#138 = DIMENSIONAL_EXPONENTS ( 1.000000000000000000, 0.000000000000000000, 0.000000000000000000, 0.000000000000000000, 0.000000000000000000, 0.000000000000000000, 0.000000000000000000 ) ;
#139 = DIMENSIONAL_EXPONENTS ( 1.000000000000000000, 0.000000000000000000, 0.000000000000000000, 0.000000000000000000, 0.000000000000000000, 0.000000000000000000, 0.000000000000000000 ) ;
#140 = DIRECTION ( 'NONE',  ( -1.000000000000000000, 0.000000000000000000, 0.000000000000000000 ) ) ;
#141 = CIRCLE ( 'NONE', #55, 0.5000000000000003331 ) ;
#142 = MECHANICAL_DESIGN_GEOMETRIC_PRESENTATION_REPRESENTATION (  '', ( #265 ), #109 ) ;
#143 = CARTESIAN_POINT ( 'NONE',  ( 0.000000000000000000, 0.000000000000000000, 0.000000000000000000 ) ) ;
#144 = ORIENTED_EDGE ( 'NONE', *, *, #208, .F. ) ;
#145 = ORIENTED_EDGE ( 'NONE', *, *, #35, .F. ) ;
#146 = ORIENTED_EDGE ( 'NONE', *, *, #173, .F. ) ;
#147 = APPLICATION_CONTEXT ( 'automotive_design' ) ;
#148 = FACE_OUTER_BOUND ( 'NONE', #188, .T. ) ;
#149 = DIRECTION ( 'NONE',  ( -1.000000000000000000, 0.000000000000000000, 0.000000000000000000 ) ) ;
#150 = PRESENTATION_LAYER_ASSIGNMENT (  '', '', ( #79 ) ) ;
#151 = ORIENTED_EDGE ( 'NONE', *, *, #3, .T. ) ;
#152 = CARTESIAN_POINT ( 'NONE',  ( -3.673940397442059375E-16, 5.000000000000000000, 0.000000000000000000 ) ) ;
#153 = FILL_AREA_STYLE ('',( #10 ) ) ;
#154 = VECTOR ( 'NONE', #129, 39.37007874015748143 ) ;
#155 =( LENGTH_UNIT ( ) NAMED_UNIT ( * ) SI_UNIT ( $, .METRE. ) );
#156 = SHAPE_DEFINITION_REPRESENTATION ( #225, #241 ) ;
#157 = CARTESIAN_POINT ( 'NONE',  ( 6.123233995736766036E-17, 2.625000000000000000, 0.5000000000000000000 ) ) ;
#158 = FILL_AREA_STYLE_COLOUR ( '', #218 ) ;
#159 = APPLICATION_PROTOCOL_DEFINITION ( 'draft international standard', 'automotive_design', 1998, #21 ) ;
#160 = SURFACE_STYLE_USAGE ( .BOTH. , #206 ) ;
#161 =( GEOMETRIC_REPRESENTATION_CONTEXT ( 3 ) GLOBAL_UNCERTAINTY_ASSIGNED_CONTEXT ( ( #60 ) ) GLOBAL_UNIT_ASSIGNED_CONTEXT ( ( #191, #28, #253 ) ) REPRESENTATION_CONTEXT ( 'NONE', 'WORKASPACE' ) );
#162 = ADVANCED_FACE ( 'NONE', ( #66 ), #238, .T. ) ;
#163 =( LENGTH_UNIT ( ) NAMED_UNIT ( * ) SI_UNIT ( $, .METRE. ) );
#164 = DIRECTION ( 'NONE',  ( -1.546922272607182960E-16, 1.000000000000000000, 0.000000000000000000 ) ) ;
#165 = DIRECTION ( 'NONE',  ( -1.546922272607182960E-16, 1.000000000000000000, -0.000000000000000000 ) ) ;
#166 = CARTESIAN_POINT ( 'NONE',  ( 0.000000000000000000, 2.625000000000000000, 0.000000000000000000 ) ) ;
#167 = AXIS2_PLACEMENT_3D ( 'NONE', #243, #185, #280 ) ;
#168 = ORIENTED_EDGE ( 'NONE', *, *, #3, .F. ) ;
#169 = ORIENTED_EDGE ( 'NONE', *, *, #223, .F. ) ;
#170 = STYLED_ITEM ( 'NONE', ( #119 ), #228 ) ;
#171 = DIRECTION ( 'NONE',  ( -1.546922272607182960E-16, 1.000000000000000000, -0.000000000000000000 ) ) ;
#172 = APPLICATION_PROTOCOL_DEFINITION ( 'draft international standard', 'automotive_design', 1998, #147 ) ;
#173 = EDGE_CURVE ( 'NONE', #52, #101, #181, .T. ) ;
#174 = EDGE_LOOP ( 'NONE', ( #151, #274, #145, #270 ) ) ;
#175 = CIRCLE ( 'NONE', #309, 0.5000000000000000000 ) ;
#176 = ADVANCED_FACE ( 'NONE', ( #304 ), #137, .T. ) ;
#177 = CARTESIAN_POINT ( 'NONE',  ( 0.000000000000000000, 2.625000000000000000, -0.5000000000000000000 ) ) ;
#178 = PLANE ( 'NONE',  #167 ) ;
#179 = LINE ( 'NONE', #286, #301 ) ;
#180 =( CONVERSION_BASED_UNIT ( 'INCH', #257 ) LENGTH_UNIT ( ) NAMED_UNIT ( #139 ) );
#181 = LINE ( 'NONE', #93, #248 ) ;
#182 = AXIS2_PLACEMENT_3D ( 'NONE', #105, #106, #249 ) ;
#183 = DIMENSIONAL_EXPONENTS ( 1.000000000000000000, 0.000000000000000000, 0.000000000000000000, 0.000000000000000000, 0.000000000000000000, 0.000000000000000000, 0.000000000000000000 ) ;
#184 = STYLED_ITEM ( 'NONE', ( #116 ), #162 ) ;
#185 = DIRECTION ( 'NONE',  ( 1.546922272607182960E-16, -1.000000000000000000, 0.000000000000000000 ) ) ;
#186 = UNCERTAINTY_MEASURE_WITH_UNIT (LENGTH_MEASURE( 1.000000000000000082E-05 ), #213, 'distance_accuracy_value', 'NONE');
#187 = VERTEX_POINT ( 'NONE', #267 ) ;
#188 = EDGE_LOOP ( 'NONE', ( #146, #53, #252, #8 ) ) ;
#189 = AXIS2_PLACEMENT_3D ( 'NONE', #46, #84, #134 ) ;
#190 = VERTEX_POINT ( 'NONE', #7 ) ;
#191 =( CONVERSION_BASED_UNIT ( 'INCH', #99 ) LENGTH_UNIT ( ) NAMED_UNIT ( #222 ) );
#192 = VERTEX_POINT ( 'NONE', #227 ) ;
#193 = PRESENTATION_LAYER_ASSIGNMENT (  '', '', ( #133 ) ) ;
#194 = MANIFOLD_SOLID_BREP ( 'Revolve - Tool Body (Straight Shanked)', #125 ) ;
#195 = AXIS2_PLACEMENT_3D ( 'NONE', #197, #171, #307 ) ;
#196 = ORIENTED_EDGE ( 'NONE', *, *, #35, .T. ) ;
#197 = CARTESIAN_POINT ( 'NONE',  ( 0.000000000000000000, 2.625000000000000000, 0.000000000000000000 ) ) ;
#198 = ORIENTED_EDGE ( 'NONE', *, *, #26, .F. ) ;
#199 = PRODUCT_DEFINITION_FORMATION_WITH_SPECIFIED_SOURCE ( 'ANY', '', #269, .NOT_KNOWN. ) ;
#200 = PRODUCT_DEFINITION ( 'UNKNOWN', '', #199, #17 ) ;
#201 = UNCERTAINTY_MEASURE_WITH_UNIT (LENGTH_MEASURE( 1.000000000000000082E-05 ), #279, 'distance_accuracy_value', 'NONE');
#202 = MECHANICAL_DESIGN_GEOMETRIC_PRESENTATION_REPRESENTATION (  '', ( #184 ), #56 ) ;
#203 = CYLINDRICAL_SURFACE ( 'NONE', #189, 0.5000000000000000000 ) ;
#204 = CARTESIAN_POINT ( 'NONE',  ( 0.000000000000000000, 0.000000000000000000, -0.5000000000000000000 ) ) ;
#205 = MECHANICAL_DESIGN_GEOMETRIC_PRESENTATION_REPRESENTATION (  '', ( #133 ), #64 ) ;
#206 = SURFACE_SIDE_STYLE ('',( #113 ) ) ;
#207 =( LENGTH_UNIT ( ) NAMED_UNIT ( * ) SI_UNIT ( $, .METRE. ) );
#208 = EDGE_CURVE ( 'NONE', #292, #245, #175, .T. ) ;
#209 = CIRCLE ( 'NONE', #182, 0.5000000000000000000 ) ;
#210 =( GEOMETRIC_REPRESENTATION_CONTEXT ( 3 ) GLOBAL_UNCERTAINTY_ASSIGNED_CONTEXT ( ( #230 ) ) GLOBAL_UNIT_ASSIGNED_CONTEXT ( ( #42, #14, #40 ) ) REPRESENTATION_CONTEXT ( 'NONE', 'WORKASPACE' ) );
#211 = DIRECTION ( 'NONE',  ( 0.000000000000000000, 0.000000000000000000, -1.000000000000000000 ) ) ;
#212 = SURFACE_SIDE_STYLE ('',( #90 ) ) ;
#213 =( CONVERSION_BASED_UNIT ( 'INCH', #239 ) LENGTH_UNIT ( ) NAMED_UNIT ( #95 ) );
#214 = FILL_AREA_STYLE_COLOUR ( '', #114 ) ;
#215 = DIMENSIONAL_EXPONENTS ( 1.000000000000000000, 0.000000000000000000, 0.000000000000000000, 0.000000000000000000, 0.000000000000000000, 0.000000000000000000, 0.000000000000000000 ) ;
#216 = SURFACE_STYLE_FILL_AREA ( #121 ) ;
#217 = AXIS2_PLACEMENT_3D ( 'NONE', #124, #229, #126 ) ;
#218 = COLOUR_RGB ( '',1.000000000000000000, 0.000000000000000000, 0.000000000000000000 ) ;
#219 = EDGE_LOOP ( 'NONE', ( #123, #220 ) ) ;
#220 = ORIENTED_EDGE ( 'NONE', *, *, #107, .T. ) ;
#221 = AXIS2_PLACEMENT_3D ( 'NONE', #118, #94, #112 ) ;
#222 = DIMENSIONAL_EXPONENTS ( 1.000000000000000000, 0.000000000000000000, 0.000000000000000000, 0.000000000000000000, 0.000000000000000000, 0.000000000000000000, 0.000000000000000000 ) ;
#223 = EDGE_CURVE ( 'NONE', #190, #192, #179, .T. ) ;
#224 = EDGE_LOOP ( 'NONE', ( #59, #294 ) ) ;
#225 = PRODUCT_DEFINITION_SHAPE ( 'NONE', 'NONE',  #200 ) ;
#226 = CARTESIAN_POINT ( 'NONE',  ( -3.673940397442059375E-16, 5.000000000000000000, 0.000000000000000000 ) ) ;
#227 = CARTESIAN_POINT ( 'NONE',  ( -0.5000000000000006661, 5.000000000000000000, 0.000000000000000000 ) ) ;
#228 = ADVANCED_FACE ( 'NONE', ( #255 ), #203, .T. ) ;
#229 = DIRECTION ( 'NONE',  ( -1.546922272607182960E-16, 1.000000000000000000, -0.000000000000000000 ) ) ;
#230 = UNCERTAINTY_MEASURE_WITH_UNIT (LENGTH_MEASURE( 1.000000000000000082E-05 ), #42, 'distance_accuracy_value', 'NONE');
#231 = CARTESIAN_POINT ( 'NONE',  ( 0.5000000000000000000, 2.625000000000000000, 6.123233995736768501E-17 ) ) ;
#232 = UNCERTAINTY_MEASURE_WITH_UNIT (LENGTH_MEASURE( 1.000000000000000082E-05 ), #91, 'distance_accuracy_value', 'NONE');
#233 = CIRCLE ( 'NONE', #195, 0.5000000000000000000 ) ;
#234 = FACE_OUTER_BOUND ( 'NONE', #54, .T. ) ;
#235 = DIRECTION ( 'NONE',  ( 0.000000000000000000, 1.000000000000000000, 0.000000000000000000 ) ) ;
#236 = SURFACE_STYLE_FILL_AREA ( #278 ) ;
#237 = PRESENTATION_STYLE_ASSIGNMENT (( #305 ) ) ;
#238 = PLANE ( 'NONE',  #34 ) ;
#239 = LENGTH_MEASURE_WITH_UNIT ( LENGTH_MEASURE( 0.02539999999999999897 ), #163 );
#240 = COLOUR_RGB ( '',1.000000000000000000, 0.000000000000000000, 0.000000000000000000 ) ;
#241 = ADVANCED_BREP_SHAPE_REPRESENTATION ( '30737W', ( #293, #194, #70 ), #161 ) ;
#242 = DIRECTION ( 'NONE',  ( -1.546922272607182960E-16, 1.000000000000000000, -0.000000000000000000 ) ) ;
#243 = CARTESIAN_POINT ( 'NONE',  ( 0.5000000000000000000, 5.000000000000000000, 0.000000000000000000 ) ) ;
#244 = COLOUR_RGB ( '',0.7921568627450980005, 0.8196078431372548767, 0.9333333333333333481 ) ;
#245 = VERTEX_POINT ( 'NONE', #177 ) ;
#246 = ADVANCED_FACE ( 'NONE', ( #115 ), #302, .F. ) ;
#247 = AXIS2_PLACEMENT_3D ( 'NONE', #102, #36, #250 ) ;
#248 = VECTOR ( 'NONE', #165, 39.37007874015748143 ) ;
#249 = DIRECTION ( 'NONE',  ( 0.000000000000000000, 0.000000000000000000, -1.000000000000000000 ) ) ;
#250 = DIRECTION ( 'NONE',  ( 0.000000000000000000, 0.000000000000000000, -1.000000000000000000 ) ) ;
#251 = AXIS2_PLACEMENT_3D ( 'NONE', #143, #23, #75 ) ;
#252 = ORIENTED_EDGE ( 'NONE', *, *, #223, .T. ) ;
#253 =( NAMED_UNIT ( * ) SI_UNIT ( $, .STERADIAN. ) SOLID_ANGLE_UNIT ( ) );
#254 = PRESENTATION_LAYER_ASSIGNMENT (  '', '', ( #268 ) ) ;
#255 = FACE_OUTER_BOUND ( 'NONE', #57, .T. ) ;
#256 = FILL_AREA_STYLE_COLOUR ( '', #273 ) ;
#257 = LENGTH_MEASURE_WITH_UNIT ( LENGTH_MEASURE( 0.02539999999999999897 ), #276 );
#258 = MECHANICAL_DESIGN_GEOMETRIC_PRESENTATION_REPRESENTATION (  '', ( #79 ), #127 ) ;
#259 = PRESENTATION_STYLE_ASSIGNMENT (( #160 ) ) ;
#260 = LENGTH_MEASURE_WITH_UNIT ( LENGTH_MEASURE( 0.02539999999999999897 ), #68 );
#261 = CYLINDRICAL_SURFACE ( 'NONE', #263, 0.5000000000000001110 ) ;
#262 = SURFACE_SIDE_STYLE ('',( #216 ) ) ;
#263 = AXIS2_PLACEMENT_3D ( 'NONE', #306, #111, #287 ) ;
#264 = ORIENTED_EDGE ( 'NONE', *, *, #173, .T. ) ;
#265 = STYLED_ITEM ( 'NONE', ( #33 ), #194 ) ;
#266 = ADVANCED_FACE ( 'NONE', ( #234 ), #261, .T. ) ;
#267 = CARTESIAN_POINT ( 'NONE',  ( 6.123233995736766036E-17, 0.000000000000000000, 0.5000000000000000000 ) ) ;
#268 = STYLED_ITEM ( 'NONE', ( #259 ), #176 ) ;
#269 = PRODUCT ( '30737W', '30737W', '', ( #89 ) ) ;
#270 = ORIENTED_EDGE ( 'NONE', *, *, #281, .F. ) ;
#271 = ORIENTED_EDGE ( 'NONE', *, *, #281, .T. ) ;
#272 = SURFACE_STYLE_USAGE ( .BOTH. , #110 ) ;
#273 = COLOUR_RGB ( '',1.000000000000000000, 0.000000000000000000, 0.000000000000000000 ) ;
#274 = ORIENTED_EDGE ( 'NONE', *, *, #83, .T. ) ;
#275 = DIRECTION ( 'NONE',  ( -1.546922272607182960E-16, 1.000000000000000000, -0.000000000000000000 ) ) ;
#276 =( LENGTH_UNIT ( ) NAMED_UNIT ( * ) SI_UNIT ( $, .METRE. ) );
#277 = MECHANICAL_DESIGN_GEOMETRIC_PRESENTATION_REPRESENTATION (  '', ( #268 ), #65 ) ;
#278 = FILL_AREA_STYLE ('',( #49 ) ) ;
#279 =( CONVERSION_BASED_UNIT ( 'INCH', #85 ) LENGTH_UNIT ( ) NAMED_UNIT ( #215 ) );
#280 = DIRECTION ( 'NONE',  ( 1.000000000000000000, 1.546922272607182960E-16, 0.000000000000000000 ) ) ;
#281 = EDGE_CURVE ( 'NONE', #245, #77, #11, .T. ) ;
#282 =( NAMED_UNIT ( * ) PLANE_ANGLE_UNIT ( ) SI_UNIT ( $, .RADIAN. ) );
#283 = DIRECTION ( 'NONE',  ( -1.546922272607182960E-16, 1.000000000000000000, -0.000000000000000000 ) ) ;
#284 = FACE_OUTER_BOUND ( 'NONE', #2, .T. ) ;
#285 =( NAMED_UNIT ( * ) PLANE_ANGLE_UNIT ( ) SI_UNIT ( $, .RADIAN. ) );
#286 = CARTESIAN_POINT ( 'NONE',  ( -0.5000000000000004441, 5.000000000000000000, 0.000000000000000000 ) ) ;
#287 = DIRECTION ( 'NONE',  ( -1.000000000000000000, 0.000000000000000000, 0.000000000000000000 ) ) ;
#288 = CARTESIAN_POINT ( 'NONE',  ( 6.123233995736766036E-17, 0.000000000000000000, 0.5000000000000000000 ) ) ;
#289 =( NAMED_UNIT ( * ) SI_UNIT ( $, .STERADIAN. ) SOLID_ANGLE_UNIT ( ) );
#290 = AXIS2_PLACEMENT_3D ( 'NONE', #58, #78, #29 ) ;
#291 = ADVANCED_FACE ( 'NONE', ( #284 ), #12, .T. ) ;
#292 = VERTEX_POINT ( 'NONE', #157 ) ;
#293 = MANIFOLD_SOLID_BREP ( 'Revolve - Cutting Edge', #296 ) ;
#294 = ORIENTED_EDGE ( 'NONE', *, *, #44, .F. ) ;
#295 =( NAMED_UNIT ( * ) SI_UNIT ( $, .STERADIAN. ) SOLID_ANGLE_UNIT ( ) );
#296 = CLOSED_SHELL ( 'NONE', ( #176, #162, #228, #291 ) ) ;
#297 = ORIENTED_EDGE ( 'NONE', *, *, #67, .T. ) ;
#298 = DIRECTION ( 'NONE',  ( -1.546922272607182960E-16, 1.000000000000000000, -0.000000000000000000 ) ) ;
#299 = ORIENTED_EDGE ( 'NONE', *, *, #9, .T. ) ;
#300 = CARTESIAN_POINT ( 'NONE',  ( 0.000000000000000000, 0.000000000000000000, 0.000000000000000000 ) ) ;
#301 = VECTOR ( 'NONE', #283, 39.37007874015748143 ) ;
#302 = PLANE ( 'NONE',  #30 ) ;
#303 = SURFACE_SIDE_STYLE ('',( #236 ) ) ;
#304 = FACE_OUTER_BOUND ( 'NONE', #174, .T. ) ;
#305 = SURFACE_STYLE_USAGE ( .BOTH. , #73 ) ;
#306 = CARTESIAN_POINT ( 'NONE',  ( -3.673940397442059375E-16, 5.000000000000000000, 0.000000000000000000 ) ) ;
#307 = DIRECTION ( 'NONE',  ( -1.000000000000000000, 0.000000000000000000, 0.000000000000000000 ) ) ;
#308 =( NAMED_UNIT ( * ) PLANE_ANGLE_UNIT ( ) SI_UNIT ( $, .RADIAN. ) );
#309 = AXIS2_PLACEMENT_3D ( 'NONE', #63, #92, #211 ) ;
ENDSEC;
END-ISO-10303-21;
