ISO-10303-21;
HEADER;
FILE_DESCRIPTION (( 'STEP AP214' ),
    '1' );
FILE_NAME ('03347.STEP',
    '2023-06-22T15:11:59',
    ( '' ),
    ( '' ),
    'SwSTEP 2.0',
    'SolidWorks 2023',
    '' );
FILE_SCHEMA (( 'AUTOMOTIVE_DESIGN' ));
ENDSEC;

DATA;
#1 = MANIFOLD_SOLID_BREP ( 'Revolve - Cutting Edge', #213 ) ;
#2 = FACE_OUTER_BOUND ( 'NONE', #154, .T. ) ;
#3 =( NAMED_UNIT ( * ) PLANE_ANGLE_UNIT ( ) SI_UNIT ( $, .RADIAN. ) );
#4 = EDGE_LOOP ( 'NONE', ( #118, #33 ) ) ;
#5 = UNCERTAINTY_MEASURE_WITH_UNIT (LENGTH_MEASURE( 1.000000000000000082E-05 ), #239, 'distance_accuracy_value', 'NONE');
#6 = SURFACE_STYLE_USAGE ( .BOTH. , #136 ) ;
#7 = DIRECTION ( 'NONE',  ( 0.000000000000000000, 0.000000000000000000, -1.000000000000000000 ) ) ;
#8 = STYLED_ITEM ( 'NONE', ( #65 ), #177 ) ;
#9 = EDGE_LOOP ( 'NONE', ( #291, #268 ) ) ;
#10 = ADVANCED_FACE ( 'NONE', ( #254 ), #223, .T. ) ;
#11 = PRESENTATION_LAYER_ASSIGNMENT (  '', '', ( #109 ) ) ;
#12 = CARTESIAN_POINT ( 'NONE',  ( -1.224646799147353700E-16, 3.000000000000000444, 0.000000000000000000 ) ) ;
#13 = DIRECTION ( 'NONE',  ( -1.000000000000000000, -6.123233995736769734E-17, 0.000000000000000000 ) ) ;
#14 = DIRECTION ( 'NONE',  ( -6.123233995736769734E-17, 1.000000000000000000, -0.000000000000000000 ) ) ;
#15 = DIRECTION ( 'NONE',  ( 1.000000000000000000, 6.123233995736769734E-17, 0.000000000000000000 ) ) ;
#16 = ORIENTED_EDGE ( 'NONE', *, *, #124, .T. ) ;
#17 = AXIS2_PLACEMENT_3D ( 'NONE', #248, #152, #290 ) ;
#18 = SURFACE_STYLE_FILL_AREA ( #140 ) ;
#19 = ORIENTED_EDGE ( 'NONE', *, *, #228, .F. ) ;
#20 = EDGE_CURVE ( 'NONE', #250, #198, #263, .T. ) ;
#21 = COLOUR_RGB ( '',1.000000000000000000, 0.000000000000000000, 0.000000000000000000 ) ;
#22 = ADVANCED_FACE ( 'NONE', ( #40 ), #226, .F. ) ;
#23 = DIRECTION ( 'NONE',  ( -1.000000000000000000, 0.000000000000000000, 0.000000000000000000 ) ) ;
#24 = PRODUCT_RELATED_PRODUCT_CATEGORY ( 'part', '', ( #68 ) ) ;
#25 = CYLINDRICAL_SURFACE ( 'NONE', #35, 0.1875000000000000278 ) ;
#26 =( GEOMETRIC_REPRESENTATION_CONTEXT ( 3 ) GLOBAL_UNCERTAINTY_ASSIGNED_CONTEXT ( ( #247 ) ) GLOBAL_UNIT_ASSIGNED_CONTEXT ( ( #64, #117, #308 ) ) REPRESENTATION_CONTEXT ( 'NONE', 'WORKASPACE' ) );
#27 = AXIS2_PLACEMENT_3D ( 'NONE', #113, #53, #13 ) ;
#28 = LINE ( 'NONE', #172, #159 ) ;
#29 =( CONVERSION_BASED_UNIT ( 'INCH', #71 ) LENGTH_UNIT ( ) NAMED_UNIT ( #190 ) );
#30 = DIRECTION ( 'NONE',  ( -6.123233995736769734E-17, 1.000000000000000000, -0.000000000000000000 ) ) ;
#31 =( NAMED_UNIT ( * ) PLANE_ANGLE_UNIT ( ) SI_UNIT ( $, .RADIAN. ) );
#32 = CARTESIAN_POINT ( 'NONE',  ( 3.032960542342103792E-32, 1.000000000000000000, 0.000000000000000000 ) ) ;
#33 = ORIENTED_EDGE ( 'NONE', *, *, #228, .T. ) ;
#34 = SURFACE_STYLE_FILL_AREA ( #100 ) ;
#35 = AXIS2_PLACEMENT_3D ( 'NONE', #119, #158, #261 ) ;
#36 = PRESENTATION_LAYER_ASSIGNMENT (  '', '', ( #49 ) ) ;
#37 = ORIENTED_EDGE ( 'NONE', *, *, #257, .T. ) ;
#38 = DIRECTION ( 'NONE',  ( -1.000000000000000000, 0.000000000000000000, 0.000000000000000000 ) ) ;
#39 =( CONVERSION_BASED_UNIT ( 'INCH', #285 ) LENGTH_UNIT ( ) NAMED_UNIT ( #122 ) );
#40 = FACE_OUTER_BOUND ( 'NONE', #4, .T. ) ;
#41 = DIRECTION ( 'NONE',  ( -0.000000000000000000, -1.000000000000000000, -0.000000000000000000 ) ) ;
#42 = EDGE_CURVE ( 'NONE', #233, #176, #236, .T. ) ;
#43 = PRESENTATION_STYLE_ASSIGNMENT (( #203 ) ) ;
#44 = CARTESIAN_POINT ( 'NONE',  ( 2.296212748401287726E-17, 0.000000000000000000, 0.1875000000000000278 ) ) ;
#45 = DIRECTION ( 'NONE',  ( -6.123233995736769734E-17, 1.000000000000000000, -0.000000000000000000 ) ) ;
#46 = CARTESIAN_POINT ( 'NONE',  ( -1.224646799147353700E-16, 3.000000000000000444, 0.000000000000000000 ) ) ;
#47 = DIMENSIONAL_EXPONENTS ( 1.000000000000000000, 0.000000000000000000, 0.000000000000000000, 0.000000000000000000, 0.000000000000000000, 0.000000000000000000, 0.000000000000000000 ) ;
#48 = ORIENTED_EDGE ( 'NONE', *, *, #171, .T. ) ;
#49 = STYLED_ITEM ( 'NONE', ( #243 ), #265 ) ;
#50 = PLANE ( 'NONE',  #55 ) ;
#51 = CARTESIAN_POINT ( 'NONE',  ( 0.000000000000000000, 0.000000000000000000, 0.000000000000000000 ) ) ;
#52 = DIRECTION ( 'NONE',  ( -6.123233995736769734E-17, 1.000000000000000000, -0.000000000000000000 ) ) ;
#53 = DIRECTION ( 'NONE',  ( -6.123233995736769734E-17, 1.000000000000000000, 0.000000000000000000 ) ) ;
#54 = MECHANICAL_DESIGN_GEOMETRIC_PRESENTATION_REPRESENTATION (  '', ( #8 ), #26 ) ;
#55 = AXIS2_PLACEMENT_3D ( 'NONE', #115, #201, #300 ) ;
#56 = SURFACE_STYLE_USAGE ( .BOTH. , #173 ) ;
#57 = VERTEX_POINT ( 'NONE', #309 ) ;
#58 = VECTOR ( 'NONE', #185, 39.37007874015748143 ) ;
#59 = ORIENTED_EDGE ( 'NONE', *, *, #20, .F. ) ;
#60 = EDGE_CURVE ( 'NONE', #259, #116, #295, .T. ) ;
#61 = ORIENTED_EDGE ( 'NONE', *, *, #70, .F. ) ;
#62 = CARTESIAN_POINT ( 'NONE',  ( 0.1874999999999999445, 3.000000000000000444, 2.296212748401288342E-17 ) ) ;
#63 = AXIS2_PLACEMENT_3D ( 'NONE', #237, #95, #7 ) ;
#64 =( CONVERSION_BASED_UNIT ( 'INCH', #208 ) LENGTH_UNIT ( ) NAMED_UNIT ( #206 ) );
#65 = PRESENTATION_STYLE_ASSIGNMENT (( #89 ) ) ;
#66 = DIMENSIONAL_EXPONENTS ( 1.000000000000000000, 0.000000000000000000, 0.000000000000000000, 0.000000000000000000, 0.000000000000000000, 0.000000000000000000, 0.000000000000000000 ) ;
#67 = COLOUR_RGB ( '',1.000000000000000000, 0.000000000000000000, 0.000000000000000000 ) ;
#68 = PRODUCT ( '03347', '03347', '', ( #165 ) ) ;
#69 = DIRECTION ( 'NONE',  ( -0.000000000000000000, -1.000000000000000000, -0.000000000000000000 ) ) ;
#70 = EDGE_CURVE ( 'NONE', #57, #72, #104, .T. ) ;
#71 = LENGTH_MEASURE_WITH_UNIT ( LENGTH_MEASURE( 0.02539999999999999897 ), #101 );
#72 = VERTEX_POINT ( 'NONE', #187 ) ;
#73 = AXIS2_PLACEMENT_3D ( 'NONE', #249, #131, #77 ) ;
#74 =( GEOMETRIC_REPRESENTATION_CONTEXT ( 3 ) GLOBAL_UNCERTAINTY_ASSIGNED_CONTEXT ( ( #289 ) ) GLOBAL_UNIT_ASSIGNED_CONTEXT ( ( #29, #3, #107 ) ) REPRESENTATION_CONTEXT ( 'NONE', 'WORKASPACE' ) );
#75 = SURFACE_STYLE_FILL_AREA ( #125 ) ;
#76 = DIRECTION ( 'NONE',  ( -6.123233995736769734E-17, 1.000000000000000000, -0.000000000000000000 ) ) ;
#77 = DIRECTION ( 'NONE',  ( 0.000000000000000000, 0.000000000000000000, -1.000000000000000000 ) ) ;
#78 = PRODUCT_DEFINITION ( 'UNKNOWN', '', #141, #280 ) ;
#79 = VECTOR ( 'NONE', #92, 39.37007874015748143 ) ;
#80 = SURFACE_STYLE_FILL_AREA ( #294 ) ;
#81 =( LENGTH_UNIT ( ) NAMED_UNIT ( * ) SI_UNIT ( $, .METRE. ) );
#82 = FILL_AREA_STYLE_COLOUR ( '', #224 ) ;
#83 = MECHANICAL_DESIGN_GEOMETRIC_PRESENTATION_REPRESENTATION (  '', ( #219 ), #144 ) ;
#84 = CIRCLE ( 'NONE', #274, 0.1875000000000000278 ) ;
#85 = EDGE_LOOP ( 'NONE', ( #276, #16, #168, #175 ) ) ;
#86 = FACE_OUTER_BOUND ( 'NONE', #103, .T. ) ;
#87 =( CONVERSION_BASED_UNIT ( 'INCH', #138 ) LENGTH_UNIT ( ) NAMED_UNIT ( #184 ) );
#88 = SURFACE_SIDE_STYLE ('',( #214 ) ) ;
#89 = SURFACE_STYLE_USAGE ( .BOTH. , #235 ) ;
#90 = DIRECTION ( 'NONE',  ( -0.000000000000000000, -1.000000000000000000, -0.000000000000000000 ) ) ;
#91 = STYLED_ITEM ( 'NONE', ( #281 ), #98 ) ;
#92 = DIRECTION ( 'NONE',  ( -6.123233995736769734E-17, 1.000000000000000000, -0.000000000000000000 ) ) ;
#93 = DIRECTION ( 'NONE',  ( 0.000000000000000000, 0.000000000000000000, -1.000000000000000000 ) ) ;
#94 = EDGE_CURVE ( 'NONE', #72, #176, #96, .T. ) ;
#95 = DIRECTION ( 'NONE',  ( 0.000000000000000000, -1.000000000000000000, -0.000000000000000000 ) ) ;
#96 = LINE ( 'NONE', #286, #282 ) ;
#97 = CLOSED_SHELL ( 'NONE', ( #180, #305, #10, #22 ) ) ;
#98 = ADVANCED_FACE ( 'NONE', ( #240 ), #25, .T. ) ;
#99 = APPLICATION_CONTEXT ( 'automotive_design' ) ;
#100 = FILL_AREA_STYLE ('',( #251 ) ) ;
#101 =( LENGTH_UNIT ( ) NAMED_UNIT ( * ) SI_UNIT ( $, .METRE. ) );
#102 = UNCERTAINTY_MEASURE_WITH_UNIT (LENGTH_MEASURE( 1.000000000000000082E-05 ), #39, 'distance_accuracy_value', 'NONE');
#103 = EDGE_LOOP ( 'NONE', ( #59, #303 ) ) ;
#104 = CIRCLE ( 'NONE', #260, 0.1875000000000000278 ) ;
#105 = CIRCLE ( 'NONE', #17, 0.1875000000000000278 ) ;
#106 = DIRECTION ( 'NONE',  ( -1.000000000000000000, 0.000000000000000000, 0.000000000000000000 ) ) ;
#107 =( NAMED_UNIT ( * ) SI_UNIT ( $, .STERADIAN. ) SOLID_ANGLE_UNIT ( ) );
#108 = LENGTH_MEASURE_WITH_UNIT ( LENGTH_MEASURE( 0.02539999999999999897 ), #164 );
#109 = STYLED_ITEM ( 'NONE', ( #166 ), #195 ) ;
#110 = PRESENTATION_STYLE_ASSIGNMENT (( #56 ) ) ;
#111 = EDGE_LOOP ( 'NONE', ( #229, #112, #37, #19 ) ) ;
#112 = ORIENTED_EDGE ( 'NONE', *, *, #230, .T. ) ;
#113 = CARTESIAN_POINT ( 'NONE',  ( 3.515061990613733472E-34, 1.000000000000000000, 0.000000000000000000 ) ) ;
#114 = SURFACE_STYLE_FILL_AREA ( #296 ) ;
#115 = CARTESIAN_POINT ( 'NONE',  ( 0.000000000000000000, 1.000000000000000000, 0.000000000000000000 ) ) ;
#116 = VERTEX_POINT ( 'NONE', #186 ) ;
#117 =( NAMED_UNIT ( * ) PLANE_ANGLE_UNIT ( ) SI_UNIT ( $, .RADIAN. ) );
#118 = ORIENTED_EDGE ( 'NONE', *, *, #60, .T. ) ;
#119 = CARTESIAN_POINT ( 'NONE',  ( 0.000000000000000000, 0.000000000000000000, 0.000000000000000000 ) ) ;
#120 =( LENGTH_UNIT ( ) NAMED_UNIT ( * ) SI_UNIT ( $, .METRE. ) );
#121 = AXIS2_PLACEMENT_3D ( 'NONE', #46, #147, #269 ) ;
#122 = DIMENSIONAL_EXPONENTS ( 1.000000000000000000, 0.000000000000000000, 0.000000000000000000, 0.000000000000000000, 0.000000000000000000, 0.000000000000000000, 0.000000000000000000 ) ;
#123 = CARTESIAN_POINT ( 'NONE',  ( 0.000000000000000000, 1.000000000000000000, 0.000000000000000000 ) ) ;
#124 = EDGE_CURVE ( 'NONE', #198, #116, #204, .T. ) ;
#125 = FILL_AREA_STYLE ('',( #189 ) ) ;
#126 = FILL_AREA_STYLE_COLOUR ( '', #67 ) ;
#127 = COLOUR_RGB ( '',1.000000000000000000, 0.000000000000000000, 0.000000000000000000 ) ;
#128 = CYLINDRICAL_SURFACE ( 'NONE', #148, 0.1875000000000000833 ) ;
#129 = UNCERTAINTY_MEASURE_WITH_UNIT (LENGTH_MEASURE( 1.000000000000000082E-05 ), #292, 'distance_accuracy_value', 'NONE');
#130 =( LENGTH_UNIT ( ) NAMED_UNIT ( * ) SI_UNIT ( $, .METRE. ) );
#131 = DIRECTION ( 'NONE',  ( -0.000000000000000000, -1.000000000000000000, -0.000000000000000000 ) ) ;
#132 = CARTESIAN_POINT ( 'NONE',  ( 0.000000000000000000, 0.000000000000000000, 0.000000000000000000 ) ) ;
#133 = ORIENTED_EDGE ( 'NONE', *, *, #94, .T. ) ;
#134 = AXIS2_PLACEMENT_3D ( 'NONE', #258, #157, #15 ) ;
#135 = MECHANICAL_DESIGN_GEOMETRIC_PRESENTATION_REPRESENTATION (  '', ( #49 ), #209 ) ;
#136 = SURFACE_SIDE_STYLE ('',( #75 ) ) ;
#137 = DIRECTION ( 'NONE',  ( -6.123233995736769734E-17, 1.000000000000000000, -0.000000000000000000 ) ) ;
#138 = LENGTH_MEASURE_WITH_UNIT ( LENGTH_MEASURE( 0.02539999999999999897 ), #301 );
#139 = DIMENSIONAL_EXPONENTS ( 1.000000000000000000, 0.000000000000000000, 0.000000000000000000, 0.000000000000000000, 0.000000000000000000, 0.000000000000000000, 0.000000000000000000 ) ;
#140 = FILL_AREA_STYLE ('',( #205 ) ) ;
#141 = PRODUCT_DEFINITION_FORMATION_WITH_SPECIFIED_SOURCE ( 'ANY', '', #68, .NOT_KNOWN. ) ;
#142 = LINE ( 'NONE', #44, #58 ) ;
#143 = FILL_AREA_STYLE ('',( #126 ) ) ;
#144 =( GEOMETRIC_REPRESENTATION_CONTEXT ( 3 ) GLOBAL_UNCERTAINTY_ASSIGNED_CONTEXT ( ( #266 ) ) GLOBAL_UNIT_ASSIGNED_CONTEXT ( ( #87, #256, #179 ) ) REPRESENTATION_CONTEXT ( 'NONE', 'WORKASPACE' ) );
#145 = CYLINDRICAL_SURFACE ( 'NONE', #73, 0.1875000000000000278 ) ;
#146 = UNCERTAINTY_MEASURE_WITH_UNIT (LENGTH_MEASURE( 1.000000000000000082E-05 ), #262, 'distance_accuracy_value', 'NONE');
#147 = DIRECTION ( 'NONE',  ( -6.123233995736769734E-17, 1.000000000000000000, -0.000000000000000000 ) ) ;
#148 = AXIS2_PLACEMENT_3D ( 'NONE', #271, #76, #221 ) ;
#149 =( GEOMETRIC_REPRESENTATION_CONTEXT ( 3 ) GLOBAL_UNCERTAINTY_ASSIGNED_CONTEXT ( ( #102 ) ) GLOBAL_UNIT_ASSIGNED_CONTEXT ( ( #39, #31, #244 ) ) REPRESENTATION_CONTEXT ( 'NONE', 'WORKASPACE' ) );
#150 = CARTESIAN_POINT ( 'NONE',  ( 0.1875000000000000278, 1.000000000000000000, 2.296212748401288650E-17 ) ) ;
#151 = APPLICATION_PROTOCOL_DEFINITION ( 'draft international standard', 'automotive_design', 1998, #99 ) ;
#152 = DIRECTION ( 'NONE',  ( -0.000000000000000000, -1.000000000000000000, -0.000000000000000000 ) ) ;
#153 = AXIS2_PLACEMENT_3D ( 'NONE', #51, #217, #288 ) ;
#154 = EDGE_LOOP ( 'NONE', ( #192, #61 ) ) ;
#155 = ORIENTED_EDGE ( 'NONE', *, *, #241, .T. ) ;
#156 = AXIS2_PLACEMENT_3D ( 'NONE', #32, #30, #106 ) ;
#157 = DIRECTION ( 'NONE',  ( 6.123233995736769734E-17, -1.000000000000000000, 0.000000000000000000 ) ) ;
#158 = DIRECTION ( 'NONE',  ( -0.000000000000000000, -1.000000000000000000, -0.000000000000000000 ) ) ;
#159 = VECTOR ( 'NONE', #52, 39.37007874015748143 ) ;
#160 =( LENGTH_UNIT ( ) NAMED_UNIT ( * ) SI_UNIT ( $, .METRE. ) );
#161 = SHAPE_DEFINITION_REPRESENTATION ( #283, #279 ) ;
#162 = CARTESIAN_POINT ( 'NONE',  ( -1.224646799147353700E-16, 3.000000000000000444, 0.000000000000000000 ) ) ;
#163 = MECHANICAL_DESIGN_GEOMETRIC_PRESENTATION_REPRESENTATION (  '', ( #91 ), #277 ) ;
#164 =( LENGTH_UNIT ( ) NAMED_UNIT ( * ) SI_UNIT ( $, .METRE. ) );
#165 = PRODUCT_CONTEXT ( 'NONE', #99, 'mechanical' ) ;
#166 = PRESENTATION_STYLE_ASSIGNMENT (( #6 ) ) ;
#167 =( GEOMETRIC_REPRESENTATION_CONTEXT ( 3 ) GLOBAL_UNCERTAINTY_ASSIGNED_CONTEXT ( ( #5 ) ) GLOBAL_UNIT_ASSIGNED_CONTEXT ( ( #239, #215, #170 ) ) REPRESENTATION_CONTEXT ( 'NONE', 'WORKASPACE' ) );
#168 = ORIENTED_EDGE ( 'NONE', *, *, #60, .F. ) ;
#169 = FACE_OUTER_BOUND ( 'NONE', #85, .T. ) ;
#170 =( NAMED_UNIT ( * ) SI_UNIT ( $, .STERADIAN. ) SOLID_ANGLE_UNIT ( ) );
#171 = EDGE_CURVE ( 'NONE', #57, #233, #142, .T. ) ;
#172 = CARTESIAN_POINT ( 'NONE',  ( -0.1875000000000002220, 3.000000000000000444, 0.000000000000000000 ) ) ;
#173 = SURFACE_SIDE_STYLE ('',( #80 ) ) ;
#174 = ORIENTED_EDGE ( 'NONE', *, *, #94, .F. ) ;
#175 = ORIENTED_EDGE ( 'NONE', *, *, #257, .F. ) ;
#176 = VERTEX_POINT ( 'NONE', #232 ) ;
#177 = ADVANCED_FACE ( 'NONE', ( #304 ), #264, .T. ) ;
#178 = ORIENTED_EDGE ( 'NONE', *, *, #171, .F. ) ;
#179 =( NAMED_UNIT ( * ) SI_UNIT ( $, .STERADIAN. ) SOLID_ANGLE_UNIT ( ) );
#180 = ADVANCED_FACE ( 'NONE', ( #169 ), #128, .T. ) ;
#181 = SURFACE_STYLE_USAGE ( .BOTH. , #88 ) ;
#182 = MECHANICAL_DESIGN_GEOMETRIC_PRESENTATION_REPRESENTATION (  '', ( #109 ), #167 ) ;
#183 = COLOUR_RGB ( '',1.000000000000000000, 0.000000000000000000, 0.000000000000000000 ) ;
#184 = DIMENSIONAL_EXPONENTS ( 1.000000000000000000, 0.000000000000000000, 0.000000000000000000, 0.000000000000000000, 0.000000000000000000, 0.000000000000000000, 0.000000000000000000 ) ;
#185 = DIRECTION ( 'NONE',  ( -0.000000000000000000, -1.000000000000000000, -0.000000000000000000 ) ) ;
#186 = CARTESIAN_POINT ( 'NONE',  ( 0.1875000000000000278, 3.000000000000000444, 2.296212748401288650E-17 ) ) ;
#187 = CARTESIAN_POINT ( 'NONE',  ( 0.000000000000000000, 1.000000000000000000, -0.1875000000000000278 ) ) ;
#188 = AXIS2_PLACEMENT_3D ( 'NONE', #12, #14, #38 ) ;
#189 = FILL_AREA_STYLE_COLOUR ( '', #21 ) ;
#190 = DIMENSIONAL_EXPONENTS ( 1.000000000000000000, 0.000000000000000000, 0.000000000000000000, 0.000000000000000000, 0.000000000000000000, 0.000000000000000000, 0.000000000000000000 ) ;
#191 = SURFACE_STYLE_USAGE ( .BOTH. , #287 ) ;
#192 = ORIENTED_EDGE ( 'NONE', *, *, #241, .F. ) ;
#193 = LENGTH_MEASURE_WITH_UNIT ( LENGTH_MEASURE( 0.02539999999999999897 ), #130 );
#194 = CARTESIAN_POINT ( 'NONE',  ( -0.1875000000000000278, 1.000000000000000000, 0.000000000000000000 ) ) ;
#195 = ADVANCED_FACE ( 'NONE', ( #270 ), #145, .T. ) ;
#196 =( NAMED_UNIT ( * ) PLANE_ANGLE_UNIT ( ) SI_UNIT ( $, .RADIAN. ) );
#197 = PRESENTATION_LAYER_ASSIGNMENT (  '', '', ( #91 ) ) ;
#198 = VERTEX_POINT ( 'NONE', #150 ) ;
#199 = CARTESIAN_POINT ( 'NONE',  ( 0.000000000000000000, 0.000000000000000000, 0.000000000000000000 ) ) ;
#200 = PRESENTATION_LAYER_ASSIGNMENT (  '', '', ( #8 ) ) ;
#201 = DIRECTION ( 'NONE',  ( 0.000000000000000000, 1.000000000000000000, 0.000000000000000000 ) ) ;
#202 = COLOUR_RGB ( '',0.7921568627450980005, 0.8196078431372548767, 0.9333333333333333481 ) ;
#203 = SURFACE_STYLE_USAGE ( .BOTH. , #278 ) ;
#204 = LINE ( 'NONE', #62, #79 ) ;
#205 = FILL_AREA_STYLE_COLOUR ( '', #127 ) ;
#206 = DIMENSIONAL_EXPONENTS ( 1.000000000000000000, 0.000000000000000000, 0.000000000000000000, 0.000000000000000000, 0.000000000000000000, 0.000000000000000000, 0.000000000000000000 ) ;
#207 = CIRCLE ( 'NONE', #121, 0.1875000000000001388 ) ;
#208 = LENGTH_MEASURE_WITH_UNIT ( LENGTH_MEASURE( 0.02539999999999999897 ), #120 );
#209 =( GEOMETRIC_REPRESENTATION_CONTEXT ( 3 ) GLOBAL_UNCERTAINTY_ASSIGNED_CONTEXT ( ( #129 ) ) GLOBAL_UNIT_ASSIGNED_CONTEXT ( ( #292, #196, #227 ) ) REPRESENTATION_CONTEXT ( 'NONE', 'WORKASPACE' ) );
#210 = DIRECTION ( 'NONE',  ( 0.000000000000000000, 0.000000000000000000, -1.000000000000000000 ) ) ;
#211 = DIRECTION ( 'NONE',  ( 0.000000000000000000, 0.000000000000000000, -1.000000000000000000 ) ) ;
#212 = CARTESIAN_POINT ( 'NONE',  ( -0.1875000000000002776, 3.000000000000000444, 0.000000000000000000 ) ) ;
#213 = CLOSED_SHELL ( 'NONE', ( #195, #265, #98, #177 ) ) ;
#214 = SURFACE_STYLE_FILL_AREA ( #143 ) ;
#215 =( NAMED_UNIT ( * ) PLANE_ANGLE_UNIT ( ) SI_UNIT ( $, .RADIAN. ) );
#216 = ORIENTED_EDGE ( 'NONE', *, *, #70, .T. ) ;
#217 = DIRECTION ( 'NONE',  ( 0.000000000000000000, 0.000000000000000000, 1.000000000000000000 ) ) ;
#218 = CARTESIAN_POINT ( 'NONE',  ( 2.296212748401287726E-17, 0.000000000000000000, 0.1875000000000000278 ) ) ;
#219 = STYLED_ITEM ( 'NONE', ( #43 ), #1 ) ;
#220 = MECHANICAL_DESIGN_GEOMETRIC_PRESENTATION_REPRESENTATION (  '', ( #231 ), #149 ) ;
#221 = DIRECTION ( 'NONE',  ( -1.000000000000000000, 0.000000000000000000, 0.000000000000000000 ) ) ;
#222 = PLANE ( 'NONE',  #27 ) ;
#223 = CYLINDRICAL_SURFACE ( 'NONE', #188, 0.1875000000000000833 ) ;
#224 = COLOUR_RGB ( '',0.7921568627450980005, 0.8196078431372548767, 0.9333333333333333481 ) ;
#225 = ORIENTED_EDGE ( 'NONE', *, *, #307, .F. ) ;
#226 = PLANE ( 'NONE',  #134 ) ;
#227 =( NAMED_UNIT ( * ) SI_UNIT ( $, .STERADIAN. ) SOLID_ANGLE_UNIT ( ) );
#228 = EDGE_CURVE ( 'NONE', #116, #259, #207, .T. ) ;
#229 = ORIENTED_EDGE ( 'NONE', *, *, #124, .F. ) ;
#230 = EDGE_CURVE ( 'NONE', #198, #250, #293, .T. ) ;
#231 = STYLED_ITEM ( 'NONE', ( #110 ), #306 ) ;
#232 = CARTESIAN_POINT ( 'NONE',  ( 0.000000000000000000, 0.000000000000000000, -0.1875000000000000278 ) ) ;
#233 = VERTEX_POINT ( 'NONE', #218 ) ;
#234 =( NAMED_UNIT ( * ) PLANE_ANGLE_UNIT ( ) SI_UNIT ( $, .RADIAN. ) );
#235 = SURFACE_SIDE_STYLE ('',( #18 ) ) ;
#236 = CIRCLE ( 'NONE', #299, 0.1875000000000000278 ) ;
#237 = CARTESIAN_POINT ( 'NONE',  ( 0.000000000000000000, 0.000000000000000000, 0.000000000000000000 ) ) ;
#238 = DIRECTION ( 'NONE',  ( -0.000000000000000000, -1.000000000000000000, -0.000000000000000000 ) ) ;
#239 =( CONVERSION_BASED_UNIT ( 'INCH', #108 ) LENGTH_UNIT ( ) NAMED_UNIT ( #47 ) );
#240 = FACE_OUTER_BOUND ( 'NONE', #298, .T. ) ;
#241 = EDGE_CURVE ( 'NONE', #72, #57, #105, .T. ) ;
#242 = APPLICATION_CONTEXT ( 'automotive_design' ) ;
#243 = PRESENTATION_STYLE_ASSIGNMENT (( #191 ) ) ;
#244 =( NAMED_UNIT ( * ) SI_UNIT ( $, .STERADIAN. ) SOLID_ANGLE_UNIT ( ) );
#245 = PRESENTATION_LAYER_ASSIGNMENT (  '', '', ( #231 ) ) ;
#246 = ORIENTED_EDGE ( 'NONE', *, *, #42, .F. ) ;
#247 = UNCERTAINTY_MEASURE_WITH_UNIT (LENGTH_MEASURE( 1.000000000000000082E-05 ), #64, 'distance_accuracy_value', 'NONE');
#248 = CARTESIAN_POINT ( 'NONE',  ( 0.000000000000000000, 1.000000000000000000, 0.000000000000000000 ) ) ;
#249 = CARTESIAN_POINT ( 'NONE',  ( 0.000000000000000000, 0.000000000000000000, 0.000000000000000000 ) ) ;
#250 = VERTEX_POINT ( 'NONE', #194 ) ;
#251 = FILL_AREA_STYLE_COLOUR ( '', #183 ) ;
#252 = PRESENTATION_LAYER_ASSIGNMENT (  '', '', ( #219 ) ) ;
#253 = FILL_AREA_STYLE_COLOUR ( '', #202 ) ;
#254 = FACE_OUTER_BOUND ( 'NONE', #111, .T. ) ;
#255 = CARTESIAN_POINT ( 'NONE',  ( 3.032960542342103792E-32, 1.000000000000000000, 0.000000000000000000 ) ) ;
#256 =( NAMED_UNIT ( * ) PLANE_ANGLE_UNIT ( ) SI_UNIT ( $, .RADIAN. ) );
#257 = EDGE_CURVE ( 'NONE', #250, #259, #28, .T. ) ;
#258 = CARTESIAN_POINT ( 'NONE',  ( 0.1875000000000000278, 3.000000000000000444, 0.000000000000000000 ) ) ;
#259 = VERTEX_POINT ( 'NONE', #212 ) ;
#260 = AXIS2_PLACEMENT_3D ( 'NONE', #123, #90, #210 ) ;
#261 = DIRECTION ( 'NONE',  ( 0.000000000000000000, 0.000000000000000000, -1.000000000000000000 ) ) ;
#262 =( CONVERSION_BASED_UNIT ( 'INCH', #284 ) LENGTH_UNIT ( ) NAMED_UNIT ( #139 ) );
#263 = CIRCLE ( 'NONE', #273, 0.1875000000000000278 ) ;
#264 = PLANE ( 'NONE',  #63 ) ;
#265 = ADVANCED_FACE ( 'NONE', ( #2 ), #50, .T. ) ;
#266 = UNCERTAINTY_MEASURE_WITH_UNIT (LENGTH_MEASURE( 1.000000000000000082E-05 ), #87, 'distance_accuracy_value', 'NONE');
#267 = APPLICATION_PROTOCOL_DEFINITION ( 'draft international standard', 'automotive_design', 1998, #242 ) ;
#268 = ORIENTED_EDGE ( 'NONE', *, *, #42, .T. ) ;
#269 = DIRECTION ( 'NONE',  ( -1.000000000000000000, 0.000000000000000000, 0.000000000000000000 ) ) ;
#270 = FACE_OUTER_BOUND ( 'NONE', #275, .T. ) ;
#271 = CARTESIAN_POINT ( 'NONE',  ( -1.224646799147353700E-16, 3.000000000000000444, 0.000000000000000000 ) ) ;
#272 = AXIS2_PLACEMENT_3D ( 'NONE', #162, #45, #23 ) ;
#273 = AXIS2_PLACEMENT_3D ( 'NONE', #255, #137, #297 ) ;
#274 = AXIS2_PLACEMENT_3D ( 'NONE', #132, #238, #211 ) ;
#275 = EDGE_LOOP ( 'NONE', ( #155, #48, #225, #174 ) ) ;
#276 = ORIENTED_EDGE ( 'NONE', *, *, #20, .T. ) ;
#277 =( GEOMETRIC_REPRESENTATION_CONTEXT ( 3 ) GLOBAL_UNCERTAINTY_ASSIGNED_CONTEXT ( ( #146 ) ) GLOBAL_UNIT_ASSIGNED_CONTEXT ( ( #262, #234, #302 ) ) REPRESENTATION_CONTEXT ( 'NONE', 'WORKASPACE' ) );
#278 = SURFACE_SIDE_STYLE ('',( #114 ) ) ;
#279 = ADVANCED_BREP_SHAPE_REPRESENTATION ( '03347', ( #1, #306, #153 ), #74 ) ;
#280 = PRODUCT_DEFINITION_CONTEXT ( 'detailed design', #242, 'design' ) ;
#281 = PRESENTATION_STYLE_ASSIGNMENT (( #181 ) ) ;
#282 = VECTOR ( 'NONE', #69, 39.37007874015748143 ) ;
#283 = PRODUCT_DEFINITION_SHAPE ( 'NONE', 'NONE',  #78 ) ;
#284 = LENGTH_MEASURE_WITH_UNIT ( LENGTH_MEASURE( 0.02539999999999999897 ), #160 );
#285 = LENGTH_MEASURE_WITH_UNIT ( LENGTH_MEASURE( 0.02539999999999999897 ), #81 );
#286 = CARTESIAN_POINT ( 'NONE',  ( 0.000000000000000000, 0.000000000000000000, -0.1875000000000000278 ) ) ;
#287 = SURFACE_SIDE_STYLE ('',( #34 ) ) ;
#288 = DIRECTION ( 'NONE',  ( 1.000000000000000000, 0.000000000000000000, 0.000000000000000000 ) ) ;
#289 = UNCERTAINTY_MEASURE_WITH_UNIT (LENGTH_MEASURE( 1.000000000000000082E-05 ), #29, 'distance_accuracy_value', 'NONE');
#290 = DIRECTION ( 'NONE',  ( 0.000000000000000000, 0.000000000000000000, -1.000000000000000000 ) ) ;
#291 = ORIENTED_EDGE ( 'NONE', *, *, #307, .T. ) ;
#292 =( CONVERSION_BASED_UNIT ( 'INCH', #193 ) LENGTH_UNIT ( ) NAMED_UNIT ( #66 ) );
#293 = CIRCLE ( 'NONE', #156, 0.1875000000000000278 ) ;
#294 = FILL_AREA_STYLE ('',( #253 ) ) ;
#295 = CIRCLE ( 'NONE', #272, 0.1875000000000001388 ) ;
#296 = FILL_AREA_STYLE ('',( #82 ) ) ;
#297 = DIRECTION ( 'NONE',  ( -1.000000000000000000, 0.000000000000000000, 0.000000000000000000 ) ) ;
#298 = EDGE_LOOP ( 'NONE', ( #178, #216, #133, #246 ) ) ;
#299 = AXIS2_PLACEMENT_3D ( 'NONE', #199, #41, #93 ) ;
#300 = DIRECTION ( 'NONE',  ( 0.000000000000000000, -0.000000000000000000, 1.000000000000000000 ) ) ;
#301 =( LENGTH_UNIT ( ) NAMED_UNIT ( * ) SI_UNIT ( $, .METRE. ) );
#302 =( NAMED_UNIT ( * ) SI_UNIT ( $, .STERADIAN. ) SOLID_ANGLE_UNIT ( ) );
#303 = ORIENTED_EDGE ( 'NONE', *, *, #230, .F. ) ;
#304 = FACE_OUTER_BOUND ( 'NONE', #9, .T. ) ;
#305 = ADVANCED_FACE ( 'NONE', ( #86 ), #222, .F. ) ;
#306 = MANIFOLD_SOLID_BREP ( 'Revolve - Tool Body (Straight Shanked)', #97 ) ;
#307 = EDGE_CURVE ( 'NONE', #176, #233, #84, .T. ) ;
#308 =( NAMED_UNIT ( * ) SI_UNIT ( $, .STERADIAN. ) SOLID_ANGLE_UNIT ( ) );
#309 = CARTESIAN_POINT ( 'NONE',  ( 2.296212748401287726E-17, 1.000000000000000000, 0.1875000000000000278 ) ) ;
ENDSEC;
END-ISO-10303-21;
