ISO-10303-21;
HEADER;
FILE_DESCRIPTION (( 'STEP AP214' ),
    '1' );
FILE_NAME ('Micro_AMRM-013-2X.STEP',
    '2021-09-01T17:13:49',
    ( '' ),
    ( '' ),
    'SwSTEP 2.0',
    'SolidWorks 2020',
    '' );
FILE_SCHEMA (( 'AUTOMOTIVE_DESIGN' ));
ENDSEC;

DATA;
#1 = FACE_OUTER_BOUND ( 'NONE', #63, .T. ) ;
#2 = AXIS2_PLACEMENT_3D ( 'NONE', #38, #74, #127 ) ;
#3 = EDGE_LOOP ( 'NONE', ( #202, #134 ) ) ;
#4 = EDGE_LOOP ( 'NONE', ( #248, #64, #126, #181 ) ) ;
#5 = CARTESIAN_POINT ( 'NONE',  ( 0.02556490950000001733, 0.0000000000000000000, 0.1535430000000000128 ) ) ;
#6 = LINE ( 'NONE', #117, #37 ) ;
#7 =( NAMED_UNIT ( * ) SI_UNIT ( $, .STERADIAN. ) SOLID_ANGLE_UNIT ( ) );
#8 = PRODUCT_DEFINITION ( 'UNKNOWN', '', #264, #274 ) ;
#9 = VECTOR ( 'NONE', #277, 39.37007874015747433 ) ;
#10 = CARTESIAN_POINT ( 'NONE',  ( 0.0000000000000000000, 0.0000000000000000000, 1.968503999999999809 ) ) ;
#11 = DIRECTION ( 'NONE',  ( 0.0000000000000000000, 0.0000000000000000000, 1.000000000000000000 ) ) ;
#12 = CYLINDRICAL_SURFACE ( 'NONE', #282, 0.02556490949999999998 ) ;
#13 = CARTESIAN_POINT ( 'NONE',  ( 5.573538102852276524E-17, 0.0000000000000000000, 0.4551139240091747751 ) ) ;
#14 = CARTESIAN_POINT ( 'NONE',  ( 0.02556490949999999998, 3.130798458966676147E-18, -3.130798458966676147E-18 ) ) ;
#15 = CLOSED_SHELL ( 'NONE', ( #128, #46, #254, #149, #213, #129, #284, #172, #112, #39 ) ) ;
#16 = FACE_OUTER_BOUND ( 'NONE', #228, .T. ) ;
#17 = EDGE_LOOP ( 'NONE', ( #201, #223, #67, #159 ) ) ;
#18 = DIRECTION ( 'NONE',  ( 0.0000000000000000000, 0.0000000000000000000, -1.000000000000000000 ) ) ;
#19 = VERTEX_POINT ( 'NONE', #5 ) ;
#20 = DIRECTION ( 'NONE',  ( 0.0000000000000000000, 0.0000000000000000000, 1.000000000000000000 ) ) ;
#21 = ORIENTED_EDGE ( 'NONE', *, *, #115, .F. ) ;
#22 = ORIENTED_EDGE ( 'NONE', *, *, #169, .F. ) ;
#23 = VERTEX_POINT ( 'NONE', #132 ) ;
#24 = CARTESIAN_POINT ( 'NONE',  ( 0.0000000000000000000, 0.0000000000000000000, 0.0000000000000000000 ) ) ;
#25 = PRESENTATION_STYLE_ASSIGNMENT (( #118 ) ) ;
#26 =( CONVERSION_BASED_UNIT ( 'INCH', #207 ) LENGTH_UNIT ( ) NAMED_UNIT ( #298 ) );
#27 =( NAMED_UNIT ( * ) PLANE_ANGLE_UNIT ( ) SI_UNIT ( $, .RADIAN. ) );
#28 = CARTESIAN_POINT ( 'NONE',  ( 0.02556490950000001733, 0.0000000000000000000, 0.1535430000000000128 ) ) ;
#29 = DIRECTION ( 'NONE',  ( 1.000000000000000000, 0.0000000000000000000, 0.0000000000000000000 ) ) ;
#30 = PRESENTATION_LAYER_ASSIGNMENT (  '', '', ( #276 ) ) ;
#31 = FACE_OUTER_BOUND ( 'NONE', #4, .T. ) ;
#32 = DIRECTION ( 'NONE',  ( -1.000000000000000000, 0.0000000000000000000, 1.224646799147353207E-16 ) ) ;
#33 = CARTESIAN_POINT ( 'NONE',  ( 1.880359434814820563E-17, 0.0000000000000000000, 0.1535430000000000128 ) ) ;
#34 = SURFACE_STYLE_FILL_AREA ( #238 ) ;
#35 = ORIENTED_EDGE ( 'NONE', *, *, #157, .F. ) ;
#36 = LINE ( 'NONE', #176, #120 ) ;
#37 = VECTOR ( 'NONE', #229, 39.37007874015748143 ) ;
#38 = CARTESIAN_POINT ( 'NONE',  ( 1.880359434814820563E-17, 0.0000000000000000000, 0.1535430000000000128 ) ) ;
#39 = ADVANCED_FACE ( 'NONE', ( #163 ), #203, .F. ) ;
#40 = DIRECTION ( 'NONE',  ( 1.000000000000000000, 0.0000000000000000000, 0.0000000000000000000 ) ) ;
#41 = EDGE_LOOP ( 'NONE', ( #224, #109, #246, #66 ) ) ;
#42 = ORIENTED_EDGE ( 'NONE', *, *, #187, .F. ) ;
#43 = EDGE_LOOP ( 'NONE', ( #137, #21, #114, #279 ) ) ;
#44 = AXIS2_PLACEMENT_3D ( 'NONE', #142, #173, #125 ) ;
#45 = EDGE_LOOP ( 'NONE', ( #221, #164 ) ) ;
#46 = ADVANCED_FACE ( 'NONE', ( #1 ), #210, .T. ) ;
#47 = DIRECTION ( 'NONE',  ( 0.0000000000000000000, 0.0000000000000000000, 1.000000000000000000 ) ) ;
#48 = DIRECTION ( 'NONE',  ( 1.000000000000000000, 0.0000000000000000000, 0.0000000000000000000 ) ) ;
#49 = FACE_OUTER_BOUND ( 'NONE', #3, .T. ) ;
#50 = SHAPE_DEFINITION_REPRESENTATION ( #260, #188 ) ;
#51 = DIRECTION ( 'NONE',  ( 1.000000000000000000, 0.0000000000000000000, -0.0000000000000000000 ) ) ;
#52 = AXIS2_PLACEMENT_3D ( 'NONE', #196, #18, #261 ) ;
#53 = FACE_OUTER_BOUND ( 'NONE', #244, .T. ) ;
#54 = PLANE ( 'NONE',  #135 ) ;
#55 = VERTEX_POINT ( 'NONE', #131 ) ;
#56 = SURFACE_SIDE_STYLE ('',( #34 ) ) ;
#57 = DIRECTION ( 'NONE',  ( -1.000000000000000000, 0.0000000000000000000, 0.0000000000000000000 ) ) ;
#58 = CYLINDRICAL_SURFACE ( 'NONE', #106, 0.02556490949999999998 ) ;
#59 = EDGE_CURVE ( 'NONE', #55, #19, #102, .T. ) ;
#60 = CIRCLE ( 'NONE', #226, 0.06374000000000018540 ) ;
#61 = CONICAL_SURFACE ( 'NONE', #107, 0.06374000000000018540, 0.7853981633974528309 ) ;
#62 = DIMENSIONAL_EXPONENTS ( 1.000000000000000000, 0.0000000000000000000, 0.0000000000000000000, 0.0000000000000000000, 0.0000000000000000000, 0.0000000000000000000, 0.0000000000000000000 ) ;
#63 = EDGE_LOOP ( 'NONE', ( #222, #272, #185, #299 ) ) ;
#64 = ORIENTED_EDGE ( 'NONE', *, *, #157, .T. ) ;
#65 = EDGE_LOOP ( 'NONE', ( #35, #273, #110, #42 ) ) ;
#66 = ORIENTED_EDGE ( 'NONE', *, *, #256, .F. ) ;
#67 = ORIENTED_EDGE ( 'NONE', *, *, #165, .F. ) ;
#68 = MECHANICAL_DESIGN_GEOMETRIC_PRESENTATION_REPRESENTATION (  '', ( #240 ), #116 ) ;
#69 = DIRECTION ( 'NONE',  ( 0.7071067811865507924, 8.659560562354973534E-17, -0.7071067811865443531 ) ) ;
#70 = FILL_AREA_STYLE ('',( #209 ) ) ;
#71 = EDGE_CURVE ( 'NONE', #55, #133, #108, .T. ) ;
#72 = PRODUCT_RELATED_PRODUCT_CATEGORY ( 'part', '', ( #197 ) ) ;
#73 = DIRECTION ( 'NONE',  ( -1.224646799147353207E-16, -0.0000000000000000000, -1.000000000000000000 ) ) ;
#74 = DIRECTION ( 'NONE',  ( -1.224646799147353207E-16, -0.0000000000000000000, -1.000000000000000000 ) ) ;
#75 = AXIS2_PLACEMENT_3D ( 'NONE', #76, #192, #148 ) ;
#76 = CARTESIAN_POINT ( 'NONE',  ( 3.834122311549006146E-34, 0.0000000000000000000, 3.130798458966676147E-18 ) ) ;
#77 = LENGTH_MEASURE_WITH_UNIT ( LENGTH_MEASURE( 0.02539999999999999897 ), #243 );
#78 = DIRECTION ( 'NONE',  ( 1.224646799147353207E-16, 0.0000000000000000000, 1.000000000000000000 ) ) ;
#79 = DIRECTION ( 'NONE',  ( 0.1736481776669313859, 0.0000000000000000000, 0.9848077530122077983 ) ) ;
#80 = AXIS2_PLACEMENT_3D ( 'NONE', #236, #193, #32 ) ;
#81 = UNCERTAINTY_MEASURE_WITH_UNIT (LENGTH_MEASURE( 1.000000000000000082E-05 ), #257, 'distance_accuracy_value', 'NONE');
#82 = VERTEX_POINT ( 'NONE', #186 ) ;
#83 = CARTESIAN_POINT ( 'NONE',  ( 0.0000000000000000000, 0.0000000000000000000, 0.0000000000000000000 ) ) ;
#84 = DIRECTION ( 'NONE',  ( -1.000000000000000000, 0.0000000000000000000, 0.0000000000000000000 ) ) ;
#85 = VECTOR ( 'NONE', #69, 39.37007874015748143 ) ;
#86 = COLOUR_RGB ( '',0.7921568627450980005, 0.8196078431372548767, 0.9333333333333333481 ) ;
#87 = VERTEX_POINT ( 'NONE', #252 ) ;
#88 = DIRECTION ( 'NONE',  ( -1.224646799147353207E-16, -0.0000000000000000000, -1.000000000000000000 ) ) ;
#89 = CARTESIAN_POINT ( 'NONE',  ( 0.06374000000000018540, 7.805898697765251255E-18, 1.968503999999999809 ) ) ;
#90 = CIRCLE ( 'NONE', #251, 0.07874000000000001831 ) ;
#91 = CIRCLE ( 'NONE', #234, 0.06374000000000018540 ) ;
#92 = LENGTH_MEASURE_WITH_UNIT ( LENGTH_MEASURE( 0.02539999999999999897 ), #190 );
#93 = DIRECTION ( 'NONE',  ( -0.0000000000000000000, -0.0000000000000000000, -1.000000000000000000 ) ) ;
#94 = CIRCLE ( 'NONE', #2, 0.02556490949999999998 ) ;
#95 = DIRECTION ( 'NONE',  ( -1.000000000000000000, 0.0000000000000000000, 0.0000000000000000000 ) ) ;
#96 = EDGE_CURVE ( 'NONE', #82, #250, #281, .T. ) ;
#97 = EDGE_CURVE ( 'NONE', #19, #87, #166, .T. ) ;
#98 = CARTESIAN_POINT ( 'NONE',  ( -0.02556490949999999998, 0.0000000000000000000, 3.130798458966676147E-18 ) ) ;
#99 = CARTESIAN_POINT ( 'NONE',  ( 0.02556490949999999998, 3.130798458966676147E-18, 0.0000000000000000000 ) ) ;
#100 = DIRECTION ( 'NONE',  ( -1.224646799147353207E-16, -0.0000000000000000000, -1.000000000000000000 ) ) ;
#101 = DIRECTION ( 'NONE',  ( 0.0000000000000000000, 0.0000000000000000000, -1.000000000000000000 ) ) ;
#102 = CIRCLE ( 'NONE', #286, 0.02556490949999999998 ) ;
#103 = VECTOR ( 'NONE', #73, 39.37007874015748143 ) ;
#104 = CARTESIAN_POINT ( 'NONE',  ( -0.07873999999999996280, 0.0000000000000000000, 0.4551139240091747751 ) ) ;
#105 = DIRECTION ( 'NONE',  ( -1.000000000000000000, 0.0000000000000000000, 1.224646799147353207E-16 ) ) ;
#106 = AXIS2_PLACEMENT_3D ( 'NONE', #215, #270, #171 ) ;
#107 = AXIS2_PLACEMENT_3D ( 'NONE', #147, #124, #216 ) ;
#108 = LINE ( 'NONE', #183, #9 ) ;
#109 = ORIENTED_EDGE ( 'NONE', *, *, #169, .T. ) ;
#110 = ORIENTED_EDGE ( 'NONE', *, *, #292, .T. ) ;
#111 = AXIS2_PLACEMENT_3D ( 'NONE', #195, #237, #177 ) ;
#112 = ADVANCED_FACE ( 'NONE', ( #208 ), #12, .T. ) ;
#113 = DIRECTION ( 'NONE',  ( 1.224646799147353207E-16, 0.0000000000000000000, 1.000000000000000000 ) ) ;
#114 = ORIENTED_EDGE ( 'NONE', *, *, #297, .T. ) ;
#115 = EDGE_CURVE ( 'NONE', #23, #82, #60, .T. ) ;
#116 =( GEOMETRIC_REPRESENTATION_CONTEXT ( 3 ) GLOBAL_UNCERTAINTY_ASSIGNED_CONTEXT ( ( #200 ) ) GLOBAL_UNIT_ASSIGNED_CONTEXT ( ( #258, #290, #214 ) ) REPRESENTATION_CONTEXT ( 'NONE', 'WORKASPACE' ) );
#117 = CARTESIAN_POINT ( 'NONE',  ( -0.06374000000000018540, 0.0000000000000000000, 1.968503999999999809 ) ) ;
#118 = SURFACE_STYLE_USAGE ( .BOTH. , #259 ) ;
#119 = CYLINDRICAL_SURFACE ( 'NONE', #211, 0.07874000000000001831 ) ;
#120 = VECTOR ( 'NONE', #93, 39.37007874015748143 ) ;
#121 = CARTESIAN_POINT ( 'NONE',  ( -0.02556490949999999998, 0.0000000000000000000, 6.261596917933352294E-18 ) ) ;
#122 = DIRECTION ( 'NONE',  ( -1.224646799147353207E-16, -0.0000000000000000000, -1.000000000000000000 ) ) ;
#123 = DIRECTION ( 'NONE',  ( -0.0000000000000000000, -0.0000000000000000000, -1.000000000000000000 ) ) ;
#124 = DIRECTION ( 'NONE',  ( 0.0000000000000000000, 0.0000000000000000000, -1.000000000000000000 ) ) ;
#125 = DIRECTION ( 'NONE',  ( -1.000000000000000000, 0.0000000000000000000, 0.0000000000000000000 ) ) ;
#126 = ORIENTED_EDGE ( 'NONE', *, *, #278, .F. ) ;
#127 = DIRECTION ( 'NONE',  ( -1.000000000000000000, 0.0000000000000000000, 0.0000000000000000000 ) ) ;
#128 = ADVANCED_FACE ( 'NONE', ( #293 ), #58, .T. ) ;
#129 = ADVANCED_FACE ( 'NONE', ( #49 ), #54, .T. ) ;
#130 = UNCERTAINTY_MEASURE_WITH_UNIT (LENGTH_MEASURE( 1.000000000000000082E-05 ), #26, 'distance_accuracy_value', 'NONE');
#131 = CARTESIAN_POINT ( 'NONE',  ( -0.02556490949999998263, 6.386833677726468869E-18, 0.1535430000000000128 ) ) ;
#132 = CARTESIAN_POINT ( 'NONE',  ( -0.06374000000000018540, 0.0000000000000000000, 1.968503999999999809 ) ) ;
#133 = VERTEX_POINT ( 'NONE', #104 ) ;
#134 = ORIENTED_EDGE ( 'NONE', *, *, #156, .T. ) ;
#135 = AXIS2_PLACEMENT_3D ( 'NONE', #153, #175, #51 ) ;
#136 = AXIS2_PLACEMENT_3D ( 'NONE', #167, #47, #48 ) ;
#137 = ORIENTED_EDGE ( 'NONE', *, *, #96, .F. ) ;
#138 = PRODUCT_CONTEXT ( 'NONE', #287, 'mechanical' ) ;
#139 = APPLICATION_PROTOCOL_DEFINITION ( 'draft international standard', 'automotive_design', 1998, #287 ) ;
#140 = MECHANICAL_DESIGN_GEOMETRIC_PRESENTATION_REPRESENTATION (  '', ( #276 ), #296 ) ;
#141 = EDGE_CURVE ( 'NONE', #250, #225, #143, .T. ) ;
#142 = CARTESIAN_POINT ( 'NONE',  ( 0.0000000000000000000, 0.0000000000000000000, 1.968503999999999809 ) ) ;
#143 = CIRCLE ( 'NONE', #52, 0.07874000000000001831 ) ;
#144 = FILL_AREA_STYLE_COLOUR ( '', #86 ) ;
#145 = CIRCLE ( 'NONE', #80, 0.02556490949999999998 ) ;
#146 =( NAMED_UNIT ( * ) PLANE_ANGLE_UNIT ( ) SI_UNIT ( $, .RADIAN. ) );
#147 = CARTESIAN_POINT ( 'NONE',  ( 0.0000000000000000000, 0.0000000000000000000, 1.968503999999999809 ) ) ;
#148 = DIRECTION ( 'NONE',  ( -1.000000000000000000, 0.0000000000000000000, 1.224646799147353207E-16 ) ) ;
#149 = ADVANCED_FACE ( 'NONE', ( #31 ), #295, .T. ) ;
#150 = PRESENTATION_STYLE_ASSIGNMENT (( #235 ) ) ;
#151 = VERTEX_POINT ( 'NONE', #121 ) ;
#152 = DIRECTION ( 'NONE',  ( 0.0000000000000000000, 0.0000000000000000000, -1.000000000000000000 ) ) ;
#153 = CARTESIAN_POINT ( 'NONE',  ( 0.0000000000000000000, 0.0000000000000000000, 1.968503999999999809 ) ) ;
#154 = VECTOR ( 'NONE', #79, 39.37007874015748143 ) ;
#155 = CIRCLE ( 'NONE', #75, 0.02556490949999999998 ) ;
#156 = EDGE_CURVE ( 'NONE', #82, #23, #91, .T. ) ;
#157 = EDGE_CURVE ( 'NONE', #250, #87, #294, .T. ) ;
#158 = CARTESIAN_POINT ( 'NONE',  ( 1.880359434814820563E-17, 0.0000000000000000000, 0.1535430000000000128 ) ) ;
#159 = ORIENTED_EDGE ( 'NONE', *, *, #249, .F. ) ;
#160 = AXIS2_PLACEMENT_3D ( 'NONE', #219, #101, #29 ) ;
#161 = EDGE_CURVE ( 'NONE', #225, #250, #291, .T. ) ;
#162 = VERTEX_POINT ( 'NONE', #99 ) ;
#163 = FACE_OUTER_BOUND ( 'NONE', #45, .T. ) ;
#164 = ORIENTED_EDGE ( 'NONE', *, *, #256, .T. ) ;
#165 = EDGE_CURVE ( 'NONE', #151, #162, #155, .T. ) ;
#166 = LINE ( 'NONE', #28, #154 ) ;
#167 = CARTESIAN_POINT ( 'NONE',  ( 0.0000000000000000000, 0.0000000000000000000, 0.0000000000000000000 ) ) ;
#168 = SURFACE_STYLE_FILL_AREA ( #70 ) ;
#169 = EDGE_CURVE ( 'NONE', #19, #55, #94, .T. ) ;
#170 = CARTESIAN_POINT ( 'NONE',  ( 0.0000000000000000000, 0.0000000000000000000, 1.968503999999999809 ) ) ;
#171 = DIRECTION ( 'NONE',  ( -1.000000000000000000, 0.0000000000000000000, 1.224646799147353207E-16 ) ) ;
#172 = ADVANCED_FACE ( 'NONE', ( #16 ), #245, .T. ) ;
#173 = DIRECTION ( 'NONE',  ( -0.0000000000000000000, -0.0000000000000000000, -1.000000000000000000 ) ) ;
#174 = DIRECTION ( 'NONE',  ( 1.000000000000000000, 0.0000000000000000000, 0.0000000000000000000 ) ) ;
#175 = DIRECTION ( 'NONE',  ( 0.0000000000000000000, 0.0000000000000000000, 1.000000000000000000 ) ) ;
#176 = CARTESIAN_POINT ( 'NONE',  ( -0.07874000000000001831, 0.0000000000000000000, 1.968503999999999809 ) ) ;
#177 = DIRECTION ( 'NONE',  ( 1.000000000000000000, 0.0000000000000000000, 0.0000000000000000000 ) ) ;
#178 = ORIENTED_EDGE ( 'NONE', *, *, #97, .T. ) ;
#179 = VECTOR ( 'NONE', #122, 39.37007874015748143 ) ;
#180 = ORIENTED_EDGE ( 'NONE', *, *, #156, .F. ) ;
#181 = ORIENTED_EDGE ( 'NONE', *, *, #292, .F. ) ;
#182 = AXIS2_PLACEMENT_3D ( 'NONE', #24, #20, #184 ) ;
#183 = CARTESIAN_POINT ( 'NONE',  ( -0.02556490949999998263, 3.130798458966676147E-18, 0.1535430000000000128 ) ) ;
#184 = DIRECTION ( 'NONE',  ( 1.000000000000000000, 0.0000000000000000000, -0.0000000000000000000 ) ) ;
#185 = ORIENTED_EDGE ( 'NONE', *, *, #278, .T. ) ;
#186 = CARTESIAN_POINT ( 'NONE',  ( 0.06374000000000018540, 8.724383797125754882E-18, 1.968503999999999809 ) ) ;
#187 = EDGE_CURVE ( 'NONE', #87, #133, #232, .T. ) ;
#188 = ADVANCED_BREP_SHAPE_REPRESENTATION ( 'Micro_AMRM-013-2X', ( #242, #136 ), #265 ) ;
#189 = AXIS2_PLACEMENT_3D ( 'NONE', #158, #113, #40 ) ;
#190 =( LENGTH_UNIT ( ) NAMED_UNIT ( * ) SI_UNIT ( $, .METRE. ) );
#191 = CARTESIAN_POINT ( 'NONE',  ( -0.07874000000000001831, 0.0000000000000000000, 1.953504000000000129 ) ) ;
#192 = DIRECTION ( 'NONE',  ( -1.224646799147353207E-16, -0.0000000000000000000, -1.000000000000000000 ) ) ;
#193 = DIRECTION ( 'NONE',  ( -1.224646799147353207E-16, -0.0000000000000000000, -1.000000000000000000 ) ) ;
#194 = CONICAL_SURFACE ( 'NONE', #227, 0.06374000000000018540, 0.7853981633974528309 ) ;
#195 = CARTESIAN_POINT ( 'NONE',  ( 5.573538102852276524E-17, 0.0000000000000000000, 0.4551139240091747751 ) ) ;
#196 = CARTESIAN_POINT ( 'NONE',  ( 0.0000000000000000000, 0.0000000000000000000, 1.953504000000000129 ) ) ;
#197 = PRODUCT ( 'Micro_AMRM-013-2X', 'Micro_AMRM-013-2X', '', ( #138 ) ) ;
#198 = DIRECTION ( 'NONE',  ( -1.224646799147353207E-16, -0.0000000000000000000, -1.000000000000000000 ) ) ;
#199 = VECTOR ( 'NONE', #241, 39.37007874015748143 ) ;
#200 = UNCERTAINTY_MEASURE_WITH_UNIT (LENGTH_MEASURE( 1.000000000000000082E-05 ), #258, 'distance_accuracy_value', 'NONE');
#201 = ORIENTED_EDGE ( 'NONE', *, *, #59, .T. ) ;
#202 = ORIENTED_EDGE ( 'NONE', *, *, #115, .T. ) ;
#203 = PLANE ( 'NONE',  #182 ) ;
#204 = PRESENTATION_LAYER_ASSIGNMENT (  '', '', ( #240 ) ) ;
#205 = CARTESIAN_POINT ( 'NONE',  ( 1.880359434814820563E-17, 0.0000000000000000000, 0.1535430000000000128 ) ) ;
#206 = ORIENTED_EDGE ( 'NONE', *, *, #161, .F. ) ;
#207 = LENGTH_MEASURE_WITH_UNIT ( LENGTH_MEASURE( 0.02539999999999999897 ), #283 );
#208 = FACE_OUTER_BOUND ( 'NONE', #41, .T. ) ;
#209 = FILL_AREA_STYLE_COLOUR ( '', #271 ) ;
#210 = CONICAL_SURFACE ( 'NONE', #189, 0.02556490949999999998, 0.1745329251994338915 ) ;
#211 = AXIS2_PLACEMENT_3D ( 'NONE', #10, #123, #95 ) ;
#212 = DIRECTION ( 'NONE',  ( 0.0000000000000000000, 0.0000000000000000000, 1.000000000000000000 ) ) ;
#213 = ADVANCED_FACE ( 'NONE', ( #220 ), #119, .T. ) ;
#214 =( NAMED_UNIT ( * ) SI_UNIT ( $, .STERADIAN. ) SOLID_ANGLE_UNIT ( ) );
#215 = CARTESIAN_POINT ( 'NONE',  ( 0.0000000000000000000, 0.0000000000000000000, 0.0000000000000000000 ) ) ;
#216 = DIRECTION ( 'NONE',  ( -1.000000000000000000, 0.0000000000000000000, 0.0000000000000000000 ) ) ;
#217 = CARTESIAN_POINT ( 'NONE',  ( 0.0000000000000000000, 0.0000000000000000000, 1.968503999999999809 ) ) ;
#218 = AXIS2_PLACEMENT_3D ( 'NONE', #33, #78, #268 ) ;
#219 = CARTESIAN_POINT ( 'NONE',  ( 0.0000000000000000000, 0.0000000000000000000, 1.953504000000000129 ) ) ;
#220 = FACE_OUTER_BOUND ( 'NONE', #65, .T. ) ;
#221 = ORIENTED_EDGE ( 'NONE', *, *, #165, .T. ) ;
#222 = ORIENTED_EDGE ( 'NONE', *, *, #59, .F. ) ;
#223 = ORIENTED_EDGE ( 'NONE', *, *, #230, .T. ) ;
#224 = ORIENTED_EDGE ( 'NONE', *, *, #230, .F. ) ;
#225 = VERTEX_POINT ( 'NONE', #191 ) ;
#226 = AXIS2_PLACEMENT_3D ( 'NONE', #170, #212, #289 ) ;
#227 = AXIS2_PLACEMENT_3D ( 'NONE', #239, #152, #57 ) ;
#228 = EDGE_LOOP ( 'NONE', ( #267, #22, #178, #247 ) ) ;
#229 = DIRECTION ( 'NONE',  ( -0.7071067811865507924, 0.0000000000000000000, -0.7071067811865443531 ) ) ;
#230 = EDGE_CURVE ( 'NONE', #19, #162, #288, .T. ) ;
#231 = APPLICATION_PROTOCOL_DEFINITION ( 'draft international standard', 'automotive_design', 1998, #255 ) ;
#232 = CIRCLE ( 'NONE', #111, 0.07874000000000001831 ) ;
#233 = CARTESIAN_POINT ( 'NONE',  ( 0.07874000000000001831, 9.642868896486260050E-18, 1.968503999999999809 ) ) ;
#234 = AXIS2_PLACEMENT_3D ( 'NONE', #217, #11, #266 ) ;
#235 = SURFACE_STYLE_USAGE ( .BOTH. , #56 ) ;
#236 = CARTESIAN_POINT ( 'NONE',  ( 3.834122311549006146E-34, 0.0000000000000000000, 3.130798458966676147E-18 ) ) ;
#237 = DIRECTION ( 'NONE',  ( -1.224646799147353207E-16, -0.0000000000000000000, -1.000000000000000000 ) ) ;
#238 = FILL_AREA_STYLE ('',( #144 ) ) ;
#239 = CARTESIAN_POINT ( 'NONE',  ( 0.0000000000000000000, 0.0000000000000000000, 1.968503999999999809 ) ) ;
#240 = STYLED_ITEM ( 'NONE', ( #150 ), #242 ) ;
#241 = DIRECTION ( 'NONE',  ( -0.0000000000000000000, -0.0000000000000000000, -1.000000000000000000 ) ) ;
#242 = MANIFOLD_SOLID_BREP ( 'Cut-Revolve1', #15 ) ;
#243 =( LENGTH_UNIT ( ) NAMED_UNIT ( * ) SI_UNIT ( $, .METRE. ) );
#244 = EDGE_LOOP ( 'NONE', ( #180, #275, #206, #280 ) ) ;
#245 = CONICAL_SURFACE ( 'NONE', #218, 0.02556490949999999998, 0.1745329251994338915 ) ;
#246 = ORIENTED_EDGE ( 'NONE', *, *, #249, .T. ) ;
#247 = ORIENTED_EDGE ( 'NONE', *, *, #187, .T. ) ;
#248 = ORIENTED_EDGE ( 'NONE', *, *, #161, .T. ) ;
#249 = EDGE_CURVE ( 'NONE', #55, #151, #262, .T. ) ;
#250 = VERTEX_POINT ( 'NONE', #263 ) ;
#251 = AXIS2_PLACEMENT_3D ( 'NONE', #13, #100, #174 ) ;
#252 = CARTESIAN_POINT ( 'NONE',  ( 0.07874000000000007382, 9.642868896486266213E-18, 0.4551139240091747751 ) ) ;
#253 =( NAMED_UNIT ( * ) SI_UNIT ( $, .STERADIAN. ) SOLID_ANGLE_UNIT ( ) );
#254 = ADVANCED_FACE ( 'NONE', ( #53 ), #61, .T. ) ;
#255 = APPLICATION_CONTEXT ( 'automotive_design' ) ;
#256 = EDGE_CURVE ( 'NONE', #162, #151, #145, .T. ) ;
#257 =( CONVERSION_BASED_UNIT ( 'INCH', #92 ) LENGTH_UNIT ( ) NAMED_UNIT ( #285 ) );
#258 =( CONVERSION_BASED_UNIT ( 'INCH', #77 ) LENGTH_UNIT ( ) NAMED_UNIT ( #62 ) );
#259 = SURFACE_SIDE_STYLE ('',( #168 ) ) ;
#260 = PRODUCT_DEFINITION_SHAPE ( 'NONE', 'NONE',  #8 ) ;
#261 = DIRECTION ( 'NONE',  ( 1.000000000000000000, 0.0000000000000000000, 0.0000000000000000000 ) ) ;
#262 = LINE ( 'NONE', #98, #179 ) ;
#263 = CARTESIAN_POINT ( 'NONE',  ( 0.07874000000000001831, 9.642868896486260050E-18, 1.953504000000000129 ) ) ;
#264 = PRODUCT_DEFINITION_FORMATION_WITH_SPECIFIED_SOURCE ( 'ANY', '', #197, .NOT_KNOWN. ) ;
#265 =( GEOMETRIC_REPRESENTATION_CONTEXT ( 3 ) GLOBAL_UNCERTAINTY_ASSIGNED_CONTEXT ( ( #130 ) ) GLOBAL_UNIT_ASSIGNED_CONTEXT ( ( #26, #146, #7 ) ) REPRESENTATION_CONTEXT ( 'NONE', 'WORKASPACE' ) );
#266 = DIRECTION ( 'NONE',  ( 1.000000000000000000, 0.0000000000000000000, 0.0000000000000000000 ) ) ;
#267 = ORIENTED_EDGE ( 'NONE', *, *, #71, .F. ) ;
#268 = DIRECTION ( 'NONE',  ( 1.000000000000000000, 0.0000000000000000000, 0.0000000000000000000 ) ) ;
#269 = FACE_OUTER_BOUND ( 'NONE', #43, .T. ) ;
#270 = DIRECTION ( 'NONE',  ( -1.224646799147353207E-16, -0.0000000000000000000, -1.000000000000000000 ) ) ;
#271 = COLOUR_RGB ( '',0.7921568627450980005, 0.8196078431372548767, 0.9333333333333333481 ) ;
#272 = ORIENTED_EDGE ( 'NONE', *, *, #71, .T. ) ;
#273 = ORIENTED_EDGE ( 'NONE', *, *, #141, .T. ) ;
#274 = PRODUCT_DEFINITION_CONTEXT ( 'detailed design', #255, 'design' ) ;
#275 = ORIENTED_EDGE ( 'NONE', *, *, #96, .T. ) ;
#276 = STYLED_ITEM ( 'NONE', ( #25 ), #188 ) ;
#277 = DIRECTION ( 'NONE',  ( -0.1736481776669311916, 2.126576849575783316E-17, 0.9848077530122080203 ) ) ;
#278 = EDGE_CURVE ( 'NONE', #133, #87, #90, .T. ) ;
#279 = ORIENTED_EDGE ( 'NONE', *, *, #141, .F. ) ;
#280 = ORIENTED_EDGE ( 'NONE', *, *, #297, .F. ) ;
#281 = LINE ( 'NONE', #89, #85 ) ;
#282 = AXIS2_PLACEMENT_3D ( 'NONE', #83, #198, #105 ) ;
#283 =( LENGTH_UNIT ( ) NAMED_UNIT ( * ) SI_UNIT ( $, .METRE. ) );
#284 = ADVANCED_FACE ( 'NONE', ( #269 ), #194, .T. ) ;
#285 = DIMENSIONAL_EXPONENTS ( 1.000000000000000000, 0.0000000000000000000, 0.0000000000000000000, 0.0000000000000000000, 0.0000000000000000000, 0.0000000000000000000, 0.0000000000000000000 ) ;
#286 = AXIS2_PLACEMENT_3D ( 'NONE', #205, #88, #84 ) ;
#287 = APPLICATION_CONTEXT ( 'automotive_design' ) ;
#288 = LINE ( 'NONE', #14, #103 ) ;
#289 = DIRECTION ( 'NONE',  ( 1.000000000000000000, 0.0000000000000000000, 0.0000000000000000000 ) ) ;
#290 =( NAMED_UNIT ( * ) PLANE_ANGLE_UNIT ( ) SI_UNIT ( $, .RADIAN. ) );
#291 = CIRCLE ( 'NONE', #160, 0.07874000000000001831 ) ;
#292 = EDGE_CURVE ( 'NONE', #225, #133, #36, .T. ) ;
#293 = FACE_OUTER_BOUND ( 'NONE', #17, .T. ) ;
#294 = LINE ( 'NONE', #233, #199 ) ;
#295 = CYLINDRICAL_SURFACE ( 'NONE', #44, 0.07874000000000001831 ) ;
#296 =( GEOMETRIC_REPRESENTATION_CONTEXT ( 3 ) GLOBAL_UNCERTAINTY_ASSIGNED_CONTEXT ( ( #81 ) ) GLOBAL_UNIT_ASSIGNED_CONTEXT ( ( #257, #27, #253 ) ) REPRESENTATION_CONTEXT ( 'NONE', 'WORKASPACE' ) );
#297 = EDGE_CURVE ( 'NONE', #23, #225, #6, .T. ) ;
#298 = DIMENSIONAL_EXPONENTS ( 1.000000000000000000, 0.0000000000000000000, 0.0000000000000000000, 0.0000000000000000000, 0.0000000000000000000, 0.0000000000000000000, 0.0000000000000000000 ) ;
#299 = ORIENTED_EDGE ( 'NONE', *, *, #97, .F. ) ;
ENDSEC;
END-ISO-10303-21;
