ISO-10303-21;
HEADER;
FILE_DESCRIPTION (( 'STEP AP214' ),
    '1' );
FILE_NAME ('00062.STEP',
    '2023-06-22T14:02:38',
    ( '' ),
    ( '' ),
    'SwSTEP 2.0',
    'SolidWorks 2023',
    '' );
FILE_SCHEMA (( 'AUTOMOTIVE_DESIGN' ));
ENDSEC;

DATA;
#1 =( NAMED_UNIT ( * ) SI_UNIT ( $, .STERADIAN. ) SOLID_ANGLE_UNIT ( ) );
#2 = EDGE_CURVE ( 'NONE', #128, #150, #180, .T. ) ;
#3 = PLANE ( 'NONE',  #218 ) ;
#4 = MECHANICAL_DESIGN_GEOMETRIC_PRESENTATION_REPRESENTATION (  '', ( #175 ), #198 ) ;
#5 = SURFACE_STYLE_FILL_AREA ( #215 ) ;
#6 = EDGE_CURVE ( 'NONE', #128, #246, #249, .T. ) ;
#7 = MECHANICAL_DESIGN_GEOMETRIC_PRESENTATION_REPRESENTATION (  '', ( #245 ), #115 ) ;
#8 = FILL_AREA_STYLE_COLOUR ( '', #250 ) ;
#9 = ORIENTED_EDGE ( 'NONE', *, *, #141, .F. ) ;
#10 = CIRCLE ( 'NONE', #266, 0.06250000000000000000 ) ;
#11 = ORIENTED_EDGE ( 'NONE', *, *, #6, .T. ) ;
#12 =( CONVERSION_BASED_UNIT ( 'INCH', #103 ) LENGTH_UNIT ( ) NAMED_UNIT ( #197 ) );
#13 = CARTESIAN_POINT ( 'NONE',  ( -0.06250000000000009714, 2.500000000000000000, 0.000000000000000000 ) ) ;
#14 = CARTESIAN_POINT ( 'NONE',  ( 0.000000000000000000, 0.7500000000000001110, 0.000000000000000000 ) ) ;
#15 = ORIENTED_EDGE ( 'NONE', *, *, #61, .T. ) ;
#16 = AXIS2_PLACEMENT_3D ( 'NONE', #267, #193, #66 ) ;
#17 = DIRECTION ( 'NONE',  ( -1.000000000000000000, 0.000000000000000000, 0.000000000000000000 ) ) ;
#18 = DIRECTION ( 'NONE',  ( 0.000000000000000000, 0.000000000000000000, -1.000000000000000000 ) ) ;
#19 = ORIENTED_EDGE ( 'NONE', *, *, #64, .T. ) ;
#20 = CARTESIAN_POINT ( 'NONE',  ( -6.123233995736766036E-17, 2.500000000000000000, 0.000000000000000000 ) ) ;
#21 = FACE_OUTER_BOUND ( 'NONE', #31, .T. ) ;
#22 = EDGE_CURVE ( 'NONE', #71, #203, #111, .T. ) ;
#23 = PRESENTATION_STYLE_ASSIGNMENT (( #50 ) ) ;
#24 = FILL_AREA_STYLE_COLOUR ( '', #194 ) ;
#25 = CLOSED_SHELL ( 'NONE', ( #268, #114, #301, #255 ) ) ;
#26 = PRESENTATION_LAYER_ASSIGNMENT (  '', '', ( #175 ) ) ;
#27 = PRODUCT_RELATED_PRODUCT_CATEGORY ( 'part', '', ( #83 ) ) ;
#28 = EDGE_LOOP ( 'NONE', ( #277, #183 ) ) ;
#29 = DIMENSIONAL_EXPONENTS ( 1.000000000000000000, 0.000000000000000000, 0.000000000000000000, 0.000000000000000000, 0.000000000000000000, 0.000000000000000000, 0.000000000000000000 ) ;
#30 = PRESENTATION_STYLE_ASSIGNMENT (( #142 ) ) ;
#31 = EDGE_LOOP ( 'NONE', ( #122, #121, #307, #98 ) ) ;
#32 = VECTOR ( 'NONE', #260, 39.37007874015748143 ) ;
#33 = STYLED_ITEM ( 'NONE', ( #23 ), #88 ) ;
#34 = EDGE_LOOP ( 'NONE', ( #222, #201 ) ) ;
#35 = CARTESIAN_POINT ( 'NONE',  ( 0.000000000000000000, 0.7500000000000001110, -0.06250000000000000000 ) ) ;
#36 = SURFACE_STYLE_FILL_AREA ( #254 ) ;
#37 = VERTEX_POINT ( 'NONE', #79 ) ;
#38 = ORIENTED_EDGE ( 'NONE', *, *, #22, .T. ) ;
#39 = CIRCLE ( 'NONE', #95, 0.06250000000000005551 ) ;
#40 = CARTESIAN_POINT ( 'NONE',  ( -6.123233995736766036E-17, 2.500000000000000000, 0.000000000000000000 ) ) ;
#41 = PRODUCT_DEFINITION_CONTEXT ( 'detailed design', #238, 'design' ) ;
#42 = PRESENTATION_LAYER_ASSIGNMENT (  '', '', ( #245 ) ) ;
#43 = SURFACE_SIDE_STYLE ('',( #5 ) ) ;
#44 = FILL_AREA_STYLE_COLOUR ( '', #59 ) ;
#45 = DIRECTION ( 'NONE',  ( 1.000000000000000000, 0.000000000000000000, 0.000000000000000000 ) ) ;
#46 = EDGE_LOOP ( 'NONE', ( #217, #283, #82, #73 ) ) ;
#47 = VECTOR ( 'NONE', #305, 39.37007874015748143 ) ;
#48 = AXIS2_PLACEMENT_3D ( 'NONE', #288, #167, #45 ) ;
#49 = SURFACE_SIDE_STYLE ('',( #117 ) ) ;
#50 = SURFACE_STYLE_USAGE ( .BOTH. , #196 ) ;
#51 = FACE_OUTER_BOUND ( 'NONE', #46, .T. ) ;
#52 = ORIENTED_EDGE ( 'NONE', *, *, #2, .F. ) ;
#53 = LENGTH_MEASURE_WITH_UNIT ( LENGTH_MEASURE( 0.02539999999999999897 ), #177 );
#54 = MECHANICAL_DESIGN_GEOMETRIC_PRESENTATION_REPRESENTATION (  '', ( #90 ), #76 ) ;
#55 = ORIENTED_EDGE ( 'NONE', *, *, #61, .F. ) ;
#56 = DIRECTION ( 'NONE',  ( -0.000000000000000000, -1.000000000000000000, -0.000000000000000000 ) ) ;
#57 = DIRECTION ( 'NONE',  ( 0.000000000000000000, 0.000000000000000000, -1.000000000000000000 ) ) ;
#58 = CARTESIAN_POINT ( 'NONE',  ( -0.06250000000000000000, 0.7499999999999998890, 0.000000000000000000 ) ) ;
#59 = COLOUR_RGB ( '',0.7921568627450980005, 0.8196078431372548767, 0.9333333333333333481 ) ;
#60 = FACE_OUTER_BOUND ( 'NONE', #231, .T. ) ;
#61 = EDGE_CURVE ( 'NONE', #200, #71, #202, .T. ) ;
#62 = CARTESIAN_POINT ( 'NONE',  ( 3.825917812912900435E-35, 0.7500000000000001110, 0.000000000000000000 ) ) ;
#63 =( LENGTH_UNIT ( ) NAMED_UNIT ( * ) SI_UNIT ( $, .METRE. ) );
#64 = EDGE_CURVE ( 'NONE', #37, #150, #242, .T. ) ;
#65 =( NAMED_UNIT ( * ) SI_UNIT ( $, .STERADIAN. ) SOLID_ANGLE_UNIT ( ) );
#66 = DIRECTION ( 'NONE',  ( 0.000000000000000000, 0.000000000000000000, -1.000000000000000000 ) ) ;
#67 =( GEOMETRIC_REPRESENTATION_CONTEXT ( 3 ) GLOBAL_UNCERTAINTY_ASSIGNED_CONTEXT ( ( #85 ) ) GLOBAL_UNIT_ASSIGNED_CONTEXT ( ( #243, #92, #65 ) ) REPRESENTATION_CONTEXT ( 'NONE', 'WORKASPACE' ) );
#68 = EDGE_CURVE ( 'NONE', #246, #37, #108, .T. ) ;
#69 = PRESENTATION_LAYER_ASSIGNMENT (  '', '', ( #146 ) ) ;
#70 = SURFACE_STYLE_FILL_AREA ( #97 ) ;
#71 = VERTEX_POINT ( 'NONE', #199 ) ;
#72 = CARTESIAN_POINT ( 'NONE',  ( -0.06250000000000012490, 2.500000000000000000, 0.000000000000000000 ) ) ;
#73 = ORIENTED_EDGE ( 'NONE', *, *, #292, .F. ) ;
#74 = CARTESIAN_POINT ( 'NONE',  ( -7.582401355855259480E-33, 0.7499999999999998890, 0.000000000000000000 ) ) ;
#75 = DIRECTION ( 'NONE',  ( -1.000000000000000000, 0.000000000000000000, 0.000000000000000000 ) ) ;
#76 =( GEOMETRIC_REPRESENTATION_CONTEXT ( 3 ) GLOBAL_UNCERTAINTY_ASSIGNED_CONTEXT ( ( #182 ) ) GLOBAL_UNIT_ASSIGNED_CONTEXT ( ( #12, #101, #159 ) ) REPRESENTATION_CONTEXT ( 'NONE', 'WORKASPACE' ) );
#77 =( LENGTH_UNIT ( ) NAMED_UNIT ( * ) SI_UNIT ( $, .METRE. ) );
#78 = AXIS2_PLACEMENT_3D ( 'NONE', #20, #184, #181 ) ;
#79 = CARTESIAN_POINT ( 'NONE',  ( 0.06250000000000000000, 2.500000000000000000, 7.654042494670963708E-18 ) ) ;
#80 = ADVANCED_FACE ( 'NONE', ( #174 ), #123, .T. ) ;
#81 = FACE_OUTER_BOUND ( 'NONE', #100, .T. ) ;
#82 = ORIENTED_EDGE ( 'NONE', *, *, #141, .T. ) ;
#83 = PRODUCT ( '00062', '00062', '', ( #244 ) ) ;
#84 = SURFACE_STYLE_FILL_AREA ( #309 ) ;
#85 = UNCERTAINTY_MEASURE_WITH_UNIT (LENGTH_MEASURE( 1.000000000000000082E-05 ), #243, 'distance_accuracy_value', 'NONE');
#86 = CYLINDRICAL_SURFACE ( 'NONE', #190, 0.06250000000000002776 ) ;
#87 = APPLICATION_CONTEXT ( 'automotive_design' ) ;
#88 = MANIFOLD_SOLID_BREP ( 'Revolve - Cutting Edge', #169 ) ;
#89 = UNCERTAINTY_MEASURE_WITH_UNIT (LENGTH_MEASURE( 1.000000000000000082E-05 ), #298, 'distance_accuracy_value', 'NONE');
#90 = STYLED_ITEM ( 'NONE', ( #164 ), #119 ) ;
#91 = MANIFOLD_SOLID_BREP ( 'Revolve - Tool Body (Straight Shanked)', #25 ) ;
#92 =( NAMED_UNIT ( * ) PLANE_ANGLE_UNIT ( ) SI_UNIT ( $, .RADIAN. ) );
#93 = VERTEX_POINT ( 'NONE', #143 ) ;
#94 = VECTOR ( 'NONE', #206, 39.37007874015748143 ) ;
#95 = AXIS2_PLACEMENT_3D ( 'NONE', #40, #109, #257 ) ;
#96 =( LENGTH_UNIT ( ) NAMED_UNIT ( * ) SI_UNIT ( $, .METRE. ) );
#97 = FILL_AREA_STYLE ('',( #8 ) ) ;
#98 = ORIENTED_EDGE ( 'NONE', *, *, #64, .F. ) ;
#99 =( NAMED_UNIT ( * ) PLANE_ANGLE_UNIT ( ) SI_UNIT ( $, .RADIAN. ) );
#100 = EDGE_LOOP ( 'NONE', ( #15, #38, #221, #9 ) ) ;
#101 =( NAMED_UNIT ( * ) PLANE_ANGLE_UNIT ( ) SI_UNIT ( $, .RADIAN. ) );
#102 = CARTESIAN_POINT ( 'NONE',  ( -7.582401355855259480E-33, 0.7499999999999998890, 0.000000000000000000 ) ) ;
#103 = LENGTH_MEASURE_WITH_UNIT ( LENGTH_MEASURE( 0.02539999999999999897 ), #77 );
#104 = CARTESIAN_POINT ( 'NONE',  ( 7.654042494670957545E-18, 0.000000000000000000, 0.06250000000000000000 ) ) ;
#105 =( NAMED_UNIT ( * ) SI_UNIT ( $, .STERADIAN. ) SOLID_ANGLE_UNIT ( ) );
#106 = COLOUR_RGB ( '',1.000000000000000000, 0.000000000000000000, 0.000000000000000000 ) ;
#107 =( CONVERSION_BASED_UNIT ( 'INCH', #126 ) LENGTH_UNIT ( ) NAMED_UNIT ( #236 ) );
#108 = LINE ( 'NONE', #209, #47 ) ;
#109 = DIRECTION ( 'NONE',  ( -3.498990854706722745E-17, 1.000000000000000000, -0.000000000000000000 ) ) ;
#110 = CYLINDRICAL_SURFACE ( 'NONE', #287, 0.06250000000000000000 ) ;
#111 = LINE ( 'NONE', #104, #94 ) ;
#112 = UNCERTAINTY_MEASURE_WITH_UNIT (LENGTH_MEASURE( 1.000000000000000082E-05 ), #107, 'distance_accuracy_value', 'NONE');
#113 =( NAMED_UNIT ( * ) SI_UNIT ( $, .STERADIAN. ) SOLID_ANGLE_UNIT ( ) );
#114 = ADVANCED_FACE ( 'NONE', ( #145 ), #3, .F. ) ;
#115 =( GEOMETRIC_REPRESENTATION_CONTEXT ( 3 ) GLOBAL_UNCERTAINTY_ASSIGNED_CONTEXT ( ( #112 ) ) GLOBAL_UNIT_ASSIGNED_CONTEXT ( ( #107, #99, #258 ) ) REPRESENTATION_CONTEXT ( 'NONE', 'WORKASPACE' ) );
#116 = FILL_AREA_STYLE ('',( #239 ) ) ;
#117 = SURFACE_STYLE_FILL_AREA ( #120 ) ;
#118 =( LENGTH_UNIT ( ) NAMED_UNIT ( * ) SI_UNIT ( $, .METRE. ) );
#119 = ADVANCED_FACE ( 'NONE', ( #147 ), #220, .T. ) ;
#120 = FILL_AREA_STYLE ('',( #24 ) ) ;
#121 = ORIENTED_EDGE ( 'NONE', *, *, #162, .T. ) ;
#122 = ORIENTED_EDGE ( 'NONE', *, *, #68, .F. ) ;
#123 = PLANE ( 'NONE',  #16 ) ;
#124 = ORIENTED_EDGE ( 'NONE', *, *, #280, .F. ) ;
#125 = CIRCLE ( 'NONE', #139, 0.06250000000000000000 ) ;
#126 = LENGTH_MEASURE_WITH_UNIT ( LENGTH_MEASURE( 0.02539999999999999897 ), #208 );
#127 = DIRECTION ( 'NONE',  ( -3.498990854706722745E-17, 1.000000000000000000, -0.000000000000000000 ) ) ;
#128 = VERTEX_POINT ( 'NONE', #58 ) ;
#129 = SURFACE_SIDE_STYLE ('',( #36 ) ) ;
#130 = DIRECTION ( 'NONE',  ( -3.498990854706722745E-17, 1.000000000000000000, -0.000000000000000000 ) ) ;
#131 =( CONVERSION_BASED_UNIT ( 'INCH', #192 ) LENGTH_UNIT ( ) NAMED_UNIT ( #188 ) );
#132 = MECHANICAL_DESIGN_GEOMETRIC_PRESENTATION_REPRESENTATION (  '', ( #235 ), #294 ) ;
#133 = DIRECTION ( 'NONE',  ( 0.000000000000000000, -0.000000000000000000, 1.000000000000000000 ) ) ;
#134 = AXIS2_PLACEMENT_3D ( 'NONE', #148, #191, #213 ) ;
#135 = ORIENTED_EDGE ( 'NONE', *, *, #68, .T. ) ;
#136 = DIRECTION ( 'NONE',  ( -1.000000000000000000, 0.000000000000000000, 0.000000000000000000 ) ) ;
#137 = PRESENTATION_STYLE_ASSIGNMENT (( #286 ) ) ;
#138 =( NAMED_UNIT ( * ) PLANE_ANGLE_UNIT ( ) SI_UNIT ( $, .RADIAN. ) );
#139 = AXIS2_PLACEMENT_3D ( 'NONE', #205, #302, #18 ) ;
#140 = CIRCLE ( 'NONE', #153, 0.06250000000000000000 ) ;
#141 = EDGE_CURVE ( 'NONE', #200, #93, #252, .T. ) ;
#142 = SURFACE_STYLE_USAGE ( .BOTH. , #43 ) ;
#143 = CARTESIAN_POINT ( 'NONE',  ( 0.000000000000000000, 0.000000000000000000, -0.06250000000000000000 ) ) ;
#144 = MECHANICAL_DESIGN_GEOMETRIC_PRESENTATION_REPRESENTATION (  '', ( #33 ), #67 ) ;
#145 = FACE_OUTER_BOUND ( 'NONE', #34, .T. ) ;
#146 = STYLED_ITEM ( 'NONE', ( #137 ), #241 ) ;
#147 = FACE_OUTER_BOUND ( 'NONE', #225, .T. ) ;
#148 = CARTESIAN_POINT ( 'NONE',  ( 0.000000000000000000, 0.000000000000000000, 0.000000000000000000 ) ) ;
#149 = SURFACE_STYLE_USAGE ( .BOTH. , #129 ) ;
#150 = VERTEX_POINT ( 'NONE', #72 ) ;
#151 = COLOUR_RGB ( '',1.000000000000000000, 0.000000000000000000, 0.000000000000000000 ) ;
#152 =( CONVERSION_BASED_UNIT ( 'INCH', #53 ) LENGTH_UNIT ( ) NAMED_UNIT ( #29 ) );
#153 = AXIS2_PLACEMENT_3D ( 'NONE', #187, #214, #237 ) ;
#154 =( GEOMETRIC_REPRESENTATION_CONTEXT ( 3 ) GLOBAL_UNCERTAINTY_ASSIGNED_CONTEXT ( ( #161 ) ) GLOBAL_UNIT_ASSIGNED_CONTEXT ( ( #131, #138, #1 ) ) REPRESENTATION_CONTEXT ( 'NONE', 'WORKASPACE' ) );
#155 = DIRECTION ( 'NONE',  ( 0.000000000000000000, 1.000000000000000000, 0.000000000000000000 ) ) ;
#156 = DIRECTION ( 'NONE',  ( 0.000000000000000000, 0.000000000000000000, -1.000000000000000000 ) ) ;
#157 =( NAMED_UNIT ( * ) PLANE_ANGLE_UNIT ( ) SI_UNIT ( $, .RADIAN. ) );
#158 = CARTESIAN_POINT ( 'NONE',  ( -6.123233995736766036E-17, 2.500000000000000000, 0.000000000000000000 ) ) ;
#159 =( NAMED_UNIT ( * ) SI_UNIT ( $, .STERADIAN. ) SOLID_ANGLE_UNIT ( ) );
#160 = DIRECTION ( 'NONE',  ( 1.000000000000000000, 3.498990854706722745E-17, 0.000000000000000000 ) ) ;
#161 = UNCERTAINTY_MEASURE_WITH_UNIT (LENGTH_MEASURE( 1.000000000000000082E-05 ), #131, 'distance_accuracy_value', 'NONE');
#162 = EDGE_CURVE ( 'NONE', #246, #128, #10, .T. ) ;
#163 = ADVANCED_BREP_SHAPE_REPRESENTATION ( '00062', ( #88, #91, #48 ), #154 ) ;
#164 = PRESENTATION_STYLE_ASSIGNMENT (( #274 ) ) ;
#165 = LENGTH_MEASURE_WITH_UNIT ( LENGTH_MEASURE( 0.02539999999999999897 ), #63 );
#166 = SURFACE_STYLE_USAGE ( .BOTH. , #49 ) ;
#167 = DIRECTION ( 'NONE',  ( 0.000000000000000000, 0.000000000000000000, 1.000000000000000000 ) ) ;
#168 =( NAMED_UNIT ( * ) SI_UNIT ( $, .STERADIAN. ) SOLID_ANGLE_UNIT ( ) );
#169 = CLOSED_SHELL ( 'NONE', ( #241, #119, #234, #80 ) ) ;
#170 = AXIS2_PLACEMENT_3D ( 'NONE', #282, #56, #156 ) ;
#171 = DIRECTION ( 'NONE',  ( -1.000000000000000000, -3.498990854706722745E-17, 0.000000000000000000 ) ) ;
#172 = DIMENSIONAL_EXPONENTS ( 1.000000000000000000, 0.000000000000000000, 0.000000000000000000, 0.000000000000000000, 0.000000000000000000, 0.000000000000000000, 0.000000000000000000 ) ;
#173 = LENGTH_MEASURE_WITH_UNIT ( LENGTH_MEASURE( 0.02539999999999999897 ), #96 );
#174 = FACE_OUTER_BOUND ( 'NONE', #28, .T. ) ;
#175 = STYLED_ITEM ( 'NONE', ( #30 ), #91 ) ;
#176 = SURFACE_SIDE_STYLE ('',( #70 ) ) ;
#177 =( LENGTH_UNIT ( ) NAMED_UNIT ( * ) SI_UNIT ( $, .METRE. ) );
#178 = DIRECTION ( 'NONE',  ( -1.000000000000000000, 0.000000000000000000, 0.000000000000000000 ) ) ;
#179 = DIRECTION ( 'NONE',  ( 0.000000000000000000, 0.000000000000000000, -1.000000000000000000 ) ) ;
#180 = LINE ( 'NONE', #13, #32 ) ;
#181 = DIRECTION ( 'NONE',  ( -1.000000000000000000, 0.000000000000000000, 0.000000000000000000 ) ) ;
#182 = UNCERTAINTY_MEASURE_WITH_UNIT (LENGTH_MEASURE( 1.000000000000000082E-05 ), #12, 'distance_accuracy_value', 'NONE');
#183 = ORIENTED_EDGE ( 'NONE', *, *, #292, .T. ) ;
#184 = DIRECTION ( 'NONE',  ( -3.498990854706722745E-17, 1.000000000000000000, -0.000000000000000000 ) ) ;
#185 = CYLINDRICAL_SURFACE ( 'NONE', #134, 0.06250000000000000000 ) ;
#186 = CARTESIAN_POINT ( 'NONE',  ( 0.06250000000000000000, 0.7499999999999998890, 7.654042494670963708E-18 ) ) ;
#187 = CARTESIAN_POINT ( 'NONE',  ( 0.000000000000000000, 0.000000000000000000, 0.000000000000000000 ) ) ;
#188 = DIMENSIONAL_EXPONENTS ( 1.000000000000000000, 0.000000000000000000, 0.000000000000000000, 0.000000000000000000, 0.000000000000000000, 0.000000000000000000, 0.000000000000000000 ) ;
#189 = AXIS2_PLACEMENT_3D ( 'NONE', #227, #130, #17 ) ;
#190 = AXIS2_PLACEMENT_3D ( 'NONE', #158, #264, #136 ) ;
#191 = DIRECTION ( 'NONE',  ( -0.000000000000000000, -1.000000000000000000, -0.000000000000000000 ) ) ;
#192 = LENGTH_MEASURE_WITH_UNIT ( LENGTH_MEASURE( 0.02539999999999999897 ), #285 );
#193 = DIRECTION ( 'NONE',  ( 0.000000000000000000, -1.000000000000000000, -0.000000000000000000 ) ) ;
#194 = COLOUR_RGB ( '',1.000000000000000000, 0.000000000000000000, 0.000000000000000000 ) ;
#195 = SHAPE_DEFINITION_REPRESENTATION ( #259, #163 ) ;
#196 = SURFACE_SIDE_STYLE ('',( #247 ) ) ;
#197 = DIMENSIONAL_EXPONENTS ( 1.000000000000000000, 0.000000000000000000, 0.000000000000000000, 0.000000000000000000, 0.000000000000000000, 0.000000000000000000, 0.000000000000000000 ) ;
#198 =( GEOMETRIC_REPRESENTATION_CONTEXT ( 3 ) GLOBAL_UNCERTAINTY_ASSIGNED_CONTEXT ( ( #89 ) ) GLOBAL_UNIT_ASSIGNED_CONTEXT ( ( #298, #289, #113 ) ) REPRESENTATION_CONTEXT ( 'NONE', 'WORKASPACE' ) );
#199 = CARTESIAN_POINT ( 'NONE',  ( 7.654042494670957545E-18, 0.7500000000000001110, 0.06250000000000000000 ) ) ;
#200 = VERTEX_POINT ( 'NONE', #35 ) ;
#201 = ORIENTED_EDGE ( 'NONE', *, *, #162, .F. ) ;
#202 = CIRCLE ( 'NONE', #170, 0.06250000000000000000 ) ;
#203 = VERTEX_POINT ( 'NONE', #224 ) ;
#204 = DIRECTION ( 'NONE',  ( -3.498990854706722745E-17, 1.000000000000000000, -0.000000000000000000 ) ) ;
#205 = CARTESIAN_POINT ( 'NONE',  ( 0.000000000000000000, 0.000000000000000000, 0.000000000000000000 ) ) ;
#206 = DIRECTION ( 'NONE',  ( -0.000000000000000000, -1.000000000000000000, -0.000000000000000000 ) ) ;
#207 = AXIS2_PLACEMENT_3D ( 'NONE', #276, #155, #133 ) ;
#208 =( LENGTH_UNIT ( ) NAMED_UNIT ( * ) SI_UNIT ( $, .METRE. ) );
#209 = CARTESIAN_POINT ( 'NONE',  ( 0.06249999999999997224, 2.500000000000000000, 7.654042494670960626E-18 ) ) ;
#210 = CARTESIAN_POINT ( 'NONE',  ( 0.000000000000000000, 0.000000000000000000, 0.000000000000000000 ) ) ;
#211 = FILL_AREA_STYLE_COLOUR ( '', #106 ) ;
#212 = PRESENTATION_LAYER_ASSIGNMENT (  '', '', ( #235 ) ) ;
#213 = DIRECTION ( 'NONE',  ( 0.000000000000000000, 0.000000000000000000, -1.000000000000000000 ) ) ;
#214 = DIRECTION ( 'NONE',  ( -0.000000000000000000, -1.000000000000000000, -0.000000000000000000 ) ) ;
#215 = FILL_AREA_STYLE ('',( #44 ) ) ;
#216 = APPLICATION_PROTOCOL_DEFINITION ( 'draft international standard', 'automotive_design', 1998, #238 ) ;
#217 = ORIENTED_EDGE ( 'NONE', *, *, #22, .F. ) ;
#218 = AXIS2_PLACEMENT_3D ( 'NONE', #62, #291, #171 ) ;
#219 = EDGE_CURVE ( 'NONE', #71, #200, #279, .T. ) ;
#220 = PLANE ( 'NONE',  #207 ) ;
#221 = ORIENTED_EDGE ( 'NONE', *, *, #228, .F. ) ;
#222 = ORIENTED_EDGE ( 'NONE', *, *, #6, .F. ) ;
#223 = COLOUR_RGB ( '',0.7921568627450980005, 0.8196078431372548767, 0.9333333333333333481 ) ;
#224 = CARTESIAN_POINT ( 'NONE',  ( 7.654042494670957545E-18, 0.000000000000000000, 0.06250000000000000000 ) ) ;
#225 = EDGE_LOOP ( 'NONE', ( #55, #256 ) ) ;
#226 = PRESENTATION_STYLE_ASSIGNMENT (( #149 ) ) ;
#227 = CARTESIAN_POINT ( 'NONE',  ( -6.123233995736766036E-17, 2.500000000000000000, 0.000000000000000000 ) ) ;
#228 = EDGE_CURVE ( 'NONE', #93, #203, #125, .T. ) ;
#229 = APPLICATION_PROTOCOL_DEFINITION ( 'draft international standard', 'automotive_design', 1998, #87 ) ;
#230 = DIRECTION ( 'NONE',  ( -0.000000000000000000, -1.000000000000000000, -0.000000000000000000 ) ) ;
#231 = EDGE_LOOP ( 'NONE', ( #270, #19 ) ) ;
#232 = SURFACE_SIDE_STYLE ('',( #84 ) ) ;
#233 = CARTESIAN_POINT ( 'NONE',  ( 0.06250000000000000000, 2.500000000000000000, 0.000000000000000000 ) ) ;
#234 = ADVANCED_FACE ( 'NONE', ( #51 ), #110, .T. ) ;
#235 = STYLED_ITEM ( 'NONE', ( #290 ), #80 ) ;
#236 = DIMENSIONAL_EXPONENTS ( 1.000000000000000000, 0.000000000000000000, 0.000000000000000000, 0.000000000000000000, 0.000000000000000000, 0.000000000000000000, 0.000000000000000000 ) ;
#237 = DIRECTION ( 'NONE',  ( 0.000000000000000000, 0.000000000000000000, -1.000000000000000000 ) ) ;
#238 = APPLICATION_CONTEXT ( 'automotive_design' ) ;
#239 = FILL_AREA_STYLE_COLOUR ( '', #223 ) ;
#240 = LENGTH_MEASURE_WITH_UNIT ( LENGTH_MEASURE( 0.02539999999999999897 ), #118 );
#241 = ADVANCED_FACE ( 'NONE', ( #81 ), #185, .T. ) ;
#242 = CIRCLE ( 'NONE', #189, 0.06250000000000005551 ) ;
#243 =( CONVERSION_BASED_UNIT ( 'INCH', #240 ) LENGTH_UNIT ( ) NAMED_UNIT ( #172 ) );
#244 = PRODUCT_CONTEXT ( 'NONE', #87, 'mechanical' ) ;
#245 = STYLED_ITEM ( 'NONE', ( #226 ), #234 ) ;
#246 = VERTEX_POINT ( 'NONE', #186 ) ;
#247 = SURFACE_STYLE_FILL_AREA ( #116 ) ;
#248 = AXIS2_PLACEMENT_3D ( 'NONE', #102, #204, #75 ) ;
#249 = CIRCLE ( 'NONE', #248, 0.06250000000000000000 ) ;
#250 = COLOUR_RGB ( '',1.000000000000000000, 0.000000000000000000, 0.000000000000000000 ) ;
#251 = PRODUCT_DEFINITION_FORMATION_WITH_SPECIFIED_SOURCE ( 'ANY', '', #83, .NOT_KNOWN. ) ;
#252 = LINE ( 'NONE', #278, #293 ) ;
#253 = EDGE_LOOP ( 'NONE', ( #11, #135, #124, #52 ) ) ;
#254 = FILL_AREA_STYLE ('',( #281 ) ) ;
#255 = ADVANCED_FACE ( 'NONE', ( #60 ), #284, .F. ) ;
#256 = ORIENTED_EDGE ( 'NONE', *, *, #219, .F. ) ;
#257 = DIRECTION ( 'NONE',  ( -1.000000000000000000, 0.000000000000000000, 0.000000000000000000 ) ) ;
#258 =( NAMED_UNIT ( * ) SI_UNIT ( $, .STERADIAN. ) SOLID_ANGLE_UNIT ( ) );
#259 = PRODUCT_DEFINITION_SHAPE ( 'NONE', 'NONE',  #275 ) ;
#260 = DIRECTION ( 'NONE',  ( -3.498990854706722745E-17, 1.000000000000000000, -0.000000000000000000 ) ) ;
#261 = PRESENTATION_LAYER_ASSIGNMENT (  '', '', ( #90 ) ) ;
#262 = CYLINDRICAL_SURFACE ( 'NONE', #78, 0.06250000000000002776 ) ;
#263 = DIRECTION ( 'NONE',  ( 3.498990854706722745E-17, -1.000000000000000000, 0.000000000000000000 ) ) ;
#264 = DIRECTION ( 'NONE',  ( -3.498990854706722745E-17, 1.000000000000000000, -0.000000000000000000 ) ) ;
#265 = FACE_OUTER_BOUND ( 'NONE', #253, .T. ) ;
#266 = AXIS2_PLACEMENT_3D ( 'NONE', #74, #127, #178 ) ;
#267 = CARTESIAN_POINT ( 'NONE',  ( 0.000000000000000000, 0.000000000000000000, 0.000000000000000000 ) ) ;
#268 = ADVANCED_FACE ( 'NONE', ( #265 ), #86, .T. ) ;
#269 = AXIS2_PLACEMENT_3D ( 'NONE', #233, #263, #160 ) ;
#270 = ORIENTED_EDGE ( 'NONE', *, *, #280, .T. ) ;
#271 = DIMENSIONAL_EXPONENTS ( 1.000000000000000000, 0.000000000000000000, 0.000000000000000000, 0.000000000000000000, 0.000000000000000000, 0.000000000000000000, 0.000000000000000000 ) ;
#272 =( CONVERSION_BASED_UNIT ( 'INCH', #173 ) LENGTH_UNIT ( ) NAMED_UNIT ( #271 ) );
#273 = PRESENTATION_LAYER_ASSIGNMENT (  '', '', ( #33 ) ) ;
#274 = SURFACE_STYLE_USAGE ( .BOTH. , #176 ) ;
#275 = PRODUCT_DEFINITION ( 'UNKNOWN', '', #251, #41 ) ;
#276 = CARTESIAN_POINT ( 'NONE',  ( 0.000000000000000000, 0.7500000000000001110, 0.000000000000000000 ) ) ;
#277 = ORIENTED_EDGE ( 'NONE', *, *, #228, .T. ) ;
#278 = CARTESIAN_POINT ( 'NONE',  ( 0.000000000000000000, 0.000000000000000000, -0.06250000000000000000 ) ) ;
#279 = CIRCLE ( 'NONE', #303, 0.06250000000000000000 ) ;
#280 = EDGE_CURVE ( 'NONE', #150, #37, #39, .T. ) ;
#281 = FILL_AREA_STYLE_COLOUR ( '', #151 ) ;
#282 = CARTESIAN_POINT ( 'NONE',  ( 0.000000000000000000, 0.7500000000000001110, 0.000000000000000000 ) ) ;
#283 = ORIENTED_EDGE ( 'NONE', *, *, #219, .T. ) ;
#284 = PLANE ( 'NONE',  #269 ) ;
#285 =( LENGTH_UNIT ( ) NAMED_UNIT ( * ) SI_UNIT ( $, .METRE. ) );
#286 = SURFACE_STYLE_USAGE ( .BOTH. , #232 ) ;
#287 = AXIS2_PLACEMENT_3D ( 'NONE', #210, #306, #179 ) ;
#288 = CARTESIAN_POINT ( 'NONE',  ( 0.000000000000000000, 0.000000000000000000, 0.000000000000000000 ) ) ;
#289 =( NAMED_UNIT ( * ) PLANE_ANGLE_UNIT ( ) SI_UNIT ( $, .RADIAN. ) );
#290 = PRESENTATION_STYLE_ASSIGNMENT (( #166 ) ) ;
#291 = DIRECTION ( 'NONE',  ( -3.498990854706722745E-17, 1.000000000000000000, 0.000000000000000000 ) ) ;
#292 = EDGE_CURVE ( 'NONE', #203, #93, #140, .T. ) ;
#293 = VECTOR ( 'NONE', #300, 39.37007874015748143 ) ;
#294 =( GEOMETRIC_REPRESENTATION_CONTEXT ( 3 ) GLOBAL_UNCERTAINTY_ASSIGNED_CONTEXT ( ( #304 ) ) GLOBAL_UNIT_ASSIGNED_CONTEXT ( ( #272, #297, #168 ) ) REPRESENTATION_CONTEXT ( 'NONE', 'WORKASPACE' ) );
#295 =( GEOMETRIC_REPRESENTATION_CONTEXT ( 3 ) GLOBAL_UNCERTAINTY_ASSIGNED_CONTEXT ( ( #308 ) ) GLOBAL_UNIT_ASSIGNED_CONTEXT ( ( #152, #157, #105 ) ) REPRESENTATION_CONTEXT ( 'NONE', 'WORKASPACE' ) );
#296 = DIMENSIONAL_EXPONENTS ( 1.000000000000000000, 0.000000000000000000, 0.000000000000000000, 0.000000000000000000, 0.000000000000000000, 0.000000000000000000, 0.000000000000000000 ) ;
#297 =( NAMED_UNIT ( * ) PLANE_ANGLE_UNIT ( ) SI_UNIT ( $, .RADIAN. ) );
#298 =( CONVERSION_BASED_UNIT ( 'INCH', #165 ) LENGTH_UNIT ( ) NAMED_UNIT ( #296 ) );
#299 = MECHANICAL_DESIGN_GEOMETRIC_PRESENTATION_REPRESENTATION (  '', ( #146 ), #295 ) ;
#300 = DIRECTION ( 'NONE',  ( -0.000000000000000000, -1.000000000000000000, -0.000000000000000000 ) ) ;
#301 = ADVANCED_FACE ( 'NONE', ( #21 ), #262, .T. ) ;
#302 = DIRECTION ( 'NONE',  ( -0.000000000000000000, -1.000000000000000000, -0.000000000000000000 ) ) ;
#303 = AXIS2_PLACEMENT_3D ( 'NONE', #14, #230, #57 ) ;
#304 = UNCERTAINTY_MEASURE_WITH_UNIT (LENGTH_MEASURE( 1.000000000000000082E-05 ), #272, 'distance_accuracy_value', 'NONE');
#305 = DIRECTION ( 'NONE',  ( -3.498990854706722745E-17, 1.000000000000000000, -0.000000000000000000 ) ) ;
#306 = DIRECTION ( 'NONE',  ( -0.000000000000000000, -1.000000000000000000, -0.000000000000000000 ) ) ;
#307 = ORIENTED_EDGE ( 'NONE', *, *, #2, .T. ) ;
#308 = UNCERTAINTY_MEASURE_WITH_UNIT (LENGTH_MEASURE( 1.000000000000000082E-05 ), #152, 'distance_accuracy_value', 'NONE');
#309 = FILL_AREA_STYLE ('',( #211 ) ) ;
ENDSEC;
END-ISO-10303-21;
