ISO-10303-21;
HEADER;
FILE_DESCRIPTION (( 'STEP AP214' ),
    '1' );
FILE_NAME ('Micro_BMRM-018-2X.STEP',
    '2021-09-03T14:32:57',
    ( '' ),
    ( '' ),
    'SwSTEP 2.0',
    'SolidWorks 2020',
    '' );
FILE_SCHEMA (( 'AUTOMOTIVE_DESIGN' ));
ENDSEC;

DATA;
#1 = EDGE_CURVE ( 'NONE', #164, #306, #223, .T. ) ;
#2 = EDGE_LOOP ( 'NONE', ( #137, #325, #49, #196 ) ) ;
#3 = CARTESIAN_POINT ( 'NONE',  ( 0.0000000000000000000, 0.0000000000000000000, 0.0000000000000000000 ) ) ;
#4 = DIRECTION ( 'NONE',  ( 0.0000000000000000000, 1.000000000000000000, 0.0000000000000000000 ) ) ;
#5 = CIRCLE ( 'NONE', #191, 0.07874000000000000443 ) ;
#6 = ORIENTED_EDGE ( 'NONE', *, *, #173, .F. ) ;
#7 = CARTESIAN_POINT ( 'NONE',  ( 0.0000000000000000000, 0.0000000000000000000, 1.968503999999999809 ) ) ;
#8 = PRODUCT_DEFINITION ( 'UNKNOWN', '', #246, #128 ) ;
#9 = DIRECTION ( 'NONE',  ( 0.1736481776669313859, 0.0000000000000000000, 0.9848077530122077983 ) ) ;
#10 = APPLICATION_PROTOCOL_DEFINITION ( 'draft international standard', 'automotive_design', 1998, #299 ) ;
#11 = SPHERICAL_SURFACE ( 'NONE', #161, 0.03539756699999999784 ) ;
#12 = EDGE_LOOP ( 'NONE', ( #6, #24, #174, #286 ) ) ;
#13 = DIRECTION ( 'NONE',  ( 1.000000000000000000, 0.0000000000000000000, 0.0000000000000000000 ) ) ;
#14 =( NAMED_UNIT ( * ) PLANE_ANGLE_UNIT ( ) SI_UNIT ( $, .RADIAN. ) );
#15 = ORIENTED_EDGE ( 'NONE', *, *, #163, .F. ) ;
#16 = CARTESIAN_POINT ( 'NONE',  ( 0.03539756700000002559, 0.0000000000000000000, 0.2086610000000000131 ) ) ;
#17 = CARTESIAN_POINT ( 'NONE',  ( 0.0000000000000000000, 0.0000000000000000000, 1.968503999999999809 ) ) ;
#18 = PRESENTATION_LAYER_ASSIGNMENT (  '', '', ( #146 ) ) ;
#19 = AXIS2_PLACEMENT_3D ( 'NONE', #22, #305, #154 ) ;
#20 = AXIS2_PLACEMENT_3D ( 'NONE', #79, #4, #53 ) ;
#21 = ADVANCED_BREP_SHAPE_REPRESENTATION ( 'Micro_BMRM-018-2X', ( #143, #121 ), #165 ) ;
#22 = CARTESIAN_POINT ( 'NONE',  ( 0.0000000000000000000, 0.0000000000000000000, 1.968503999999999809 ) ) ;
#23 = CARTESIAN_POINT ( 'NONE',  ( 0.06374000000000018540, 8.724383797125754882E-18, 1.968503999999999809 ) ) ;
#24 = ORIENTED_EDGE ( 'NONE', *, *, #168, .T. ) ;
#25 = EDGE_CURVE ( 'NONE', #199, #195, #261, .T. ) ;
#26 = VERTEX_POINT ( 'NONE', #272 ) ;
#27 = FACE_OUTER_BOUND ( 'NONE', #12, .T. ) ;
#28 = DIRECTION ( 'NONE',  ( -1.000000000000000000, 0.0000000000000000000, 1.205877367249678918E-16 ) ) ;
#29 = CARTESIAN_POINT ( 'NONE',  ( 4.334951712415397505E-18, 0.0000000000000000000, 0.03539756699999999784 ) ) ;
#30 =( NAMED_UNIT ( * ) PLANE_ANGLE_UNIT ( ) SI_UNIT ( $, .RADIAN. ) );
#31 = DIRECTION ( 'NONE',  ( -1.224646799147353207E-16, -0.0000000000000000000, -1.000000000000000000 ) ) ;
#32 = VECTOR ( 'NONE', #270, 39.37007874015748143 ) ;
#33 = CARTESIAN_POINT ( 'NONE',  ( -0.06374000000000018540, 0.0000000000000000000, 1.968503999999999809 ) ) ;
#34 = AXIS2_PLACEMENT_3D ( 'NONE', #224, #45, #278 ) ;
#35 = ADVANCED_FACE ( 'NONE', ( #222 ), #175, .T. ) ;
#36 = ORIENTED_EDGE ( 'NONE', *, *, #219, .T. ) ;
#37 = CARTESIAN_POINT ( 'NONE',  ( 5.565629680174592259E-17, 0.0000000000000000000, 0.4544681522908972648 ) ) ;
#38 = DIRECTION ( 'NONE',  ( -1.000000000000000000, 0.0000000000000000000, 0.0000000000000000000 ) ) ;
#39 = AXIS2_PLACEMENT_3D ( 'NONE', #172, #109, #271 ) ;
#40 = AXIS2_PLACEMENT_3D ( 'NONE', #126, #156, #234 ) ;
#41 = APPLICATION_PROTOCOL_DEFINITION ( 'draft international standard', 'automotive_design', 1998, #200 ) ;
#42 = FACE_OUTER_BOUND ( 'NONE', #184, .T. ) ;
#43 = FACE_OUTER_BOUND ( 'NONE', #71, .T. ) ;
#44 = LENGTH_MEASURE_WITH_UNIT ( LENGTH_MEASURE( 0.02539999999999999897 ), #324 );
#45 = DIRECTION ( 'NONE',  ( -1.224646799147353207E-16, -0.0000000000000000000, -1.000000000000000000 ) ) ;
#46 = ORIENTED_EDGE ( 'NONE', *, *, #114, .F. ) ;
#47 = ORIENTED_EDGE ( 'NONE', *, *, #313, .F. ) ;
#48 = CARTESIAN_POINT ( 'NONE',  ( 5.565629680174592259E-17, 0.0000000000000000000, 0.4544681522908972648 ) ) ;
#49 = ORIENTED_EDGE ( 'NONE', *, *, #133, .F. ) ;
#50 = CIRCLE ( 'NONE', #103, 0.07874000000000000443 ) ;
#51 = CONICAL_SURFACE ( 'NONE', #81, 0.03539756699999999784, 0.1745329251994338915 ) ;
#52 = ORIENTED_EDGE ( 'NONE', *, *, #25, .T. ) ;
#53 = DIRECTION ( 'NONE',  ( 1.000000000000000000, 0.0000000000000000000, 0.0000000000000000000 ) ) ;
#54 = CARTESIAN_POINT ( 'NONE',  ( 0.03539756700000002559, 0.0000000000000000000, 0.2086610000000000131 ) ) ;
#55 = CLOSED_SHELL ( 'NONE', ( #301, #100, #258, #230, #193, #130, #150, #135, #35, #179, #218 ) ) ;
#56 =( CONVERSION_BASED_UNIT ( 'INCH', #189 ) LENGTH_UNIT ( ) NAMED_UNIT ( #96 ) );
#57 = LINE ( 'NONE', #54, #250 ) ;
#58 = ORIENTED_EDGE ( 'NONE', *, *, #216, .F. ) ;
#59 =( NAMED_UNIT ( * ) SI_UNIT ( $, .STERADIAN. ) SOLID_ANGLE_UNIT ( ) );
#60 = CARTESIAN_POINT ( 'NONE',  ( 0.0000000000000000000, 0.0000000000000000000, 0.0000000000000000000 ) ) ;
#61 = VERTEX_POINT ( 'NONE', #16 ) ;
#62 = DIRECTION ( 'NONE',  ( -1.000000000000000000, 1.224646799147353207E-16, 0.0000000000000000000 ) ) ;
#63 = DIRECTION ( 'NONE',  ( 0.0000000000000000000, 0.0000000000000000000, 1.000000000000000000 ) ) ;
#64 = CONICAL_SURFACE ( 'NONE', #298, 0.06374000000000018540, 0.7853981633974522758 ) ;
#65 = CIRCLE ( 'NONE', #310, 0.03539756699999999784 ) ;
#66 = VERTEX_POINT ( 'NONE', #68 ) ;
#67 = CARTESIAN_POINT ( 'NONE',  ( -0.07874000000000000443, 0.0000000000000000000, 1.953504000000000129 ) ) ;
#68 = CARTESIAN_POINT ( 'NONE',  ( -0.06374000000000018540, 0.0000000000000000000, 1.968503999999999809 ) ) ;
#69 = DIRECTION ( 'NONE',  ( 1.000000000000000000, 0.0000000000000000000, 0.0000000000000000000 ) ) ;
#70 = DIMENSIONAL_EXPONENTS ( 1.000000000000000000, 0.0000000000000000000, 0.0000000000000000000, 0.0000000000000000000, 0.0000000000000000000, 0.0000000000000000000, 0.0000000000000000000 ) ;
#71 = EDGE_LOOP ( 'NONE', ( #124, #302, #259, #83 ) ) ;
#72 = CONICAL_SURFACE ( 'NONE', #277, 0.06374000000000018540, 0.7853981633974522758 ) ;
#73 = FILL_AREA_STYLE ('',( #148 ) ) ;
#74 = DIRECTION ( 'NONE',  ( 0.0000000000000000000, 0.0000000000000000000, -1.000000000000000000 ) ) ;
#75 = EDGE_LOOP ( 'NONE', ( #94, #58, #144, #289 ) ) ;
#76 = EDGE_CURVE ( 'NONE', #61, #320, #194, .T. ) ;
#77 = DIRECTION ( 'NONE',  ( -1.224646799147353207E-16, -0.0000000000000000000, -1.000000000000000000 ) ) ;
#78 = PRESENTATION_STYLE_ASSIGNMENT (( #233 ) ) ;
#79 = CARTESIAN_POINT ( 'NONE',  ( 4.334951712415397505E-18, 0.0000000000000000000, 0.03539756699999999784 ) ) ;
#80 = AXIS2_PLACEMENT_3D ( 'NONE', #3, #95, #211 ) ;
#81 = AXIS2_PLACEMENT_3D ( 'NONE', #253, #215, #315 ) ;
#82 = FACE_OUTER_BOUND ( 'NONE', #311, .T. ) ;
#83 = ORIENTED_EDGE ( 'NONE', *, *, #209, .F. ) ;
#84 = CARTESIAN_POINT ( 'NONE',  ( 0.0000000000000000000, 0.0000000000000000000, 1.953504000000000129 ) ) ;
#85 = DIRECTION ( 'NONE',  ( -1.000000000000000000, 0.0000000000000000000, 1.224646799147353207E-16 ) ) ;
#86 = EDGE_CURVE ( 'NONE', #205, #26, #167, .T. ) ;
#87 = ORIENTED_EDGE ( 'NONE', *, *, #274, .F. ) ;
#88 = ORIENTED_EDGE ( 'NONE', *, *, #264, .T. ) ;
#89 = ORIENTED_EDGE ( 'NONE', *, *, #76, .F. ) ;
#90 = VECTOR ( 'NONE', #31, 39.37007874015748143 ) ;
#91 = CARTESIAN_POINT ( 'NONE',  ( 0.0000000000000000000, 0.0000000000000000000, 1.968503999999999809 ) ) ;
#92 = DIRECTION ( 'NONE',  ( 1.000000000000000000, 0.0000000000000000000, 0.0000000000000000000 ) ) ;
#93 =( CONVERSION_BASED_UNIT ( 'INCH', #44 ) LENGTH_UNIT ( ) NAMED_UNIT ( #206 ) );
#94 = ORIENTED_EDGE ( 'NONE', *, *, #238, .F. ) ;
#95 = DIRECTION ( 'NONE',  ( -1.224646799147353207E-16, -0.0000000000000000000, -1.000000000000000000 ) ) ;
#96 = DIMENSIONAL_EXPONENTS ( 1.000000000000000000, 0.0000000000000000000, 0.0000000000000000000, 0.0000000000000000000, 0.0000000000000000000, 0.0000000000000000000, 0.0000000000000000000 ) ;
#97 = AXIS2_PLACEMENT_3D ( 'NONE', #84, #190, #288 ) ;
#98 = DIRECTION ( 'NONE',  ( 1.224646799147353207E-16, 0.0000000000000000000, 1.000000000000000000 ) ) ;
#99 = DIRECTION ( 'NONE',  ( 1.000000000000000000, 0.0000000000000000000, 0.0000000000000000000 ) ) ;
#100 = ADVANCED_FACE ( 'NONE', ( #43 ), #170, .T. ) ;
#101 = CARTESIAN_POINT ( 'NONE',  ( 0.06374000000000018540, 7.805898697765251255E-18, 1.968503999999999809 ) ) ;
#102 = CARTESIAN_POINT ( 'NONE',  ( 6.502427568623096257E-18, 0.0000000000000000000, 0.0000000000000000000 ) ) ;
#103 = AXIS2_PLACEMENT_3D ( 'NONE', #37, #138, #134 ) ;
#104 = UNCERTAINTY_MEASURE_WITH_UNIT (LENGTH_MEASURE( 1.000000000000000082E-05 ), #56, 'distance_accuracy_value', 'NONE');
#105 = VERTEX_POINT ( 'NONE', #23 ) ;
#106 = DIRECTION ( 'NONE',  ( -1.000000000000000000, 0.0000000000000000000, 0.0000000000000000000 ) ) ;
#107 = AXIS2_PLACEMENT_3D ( 'NONE', #322, #220, #92 ) ;
#108 = PRODUCT_DEFINITION_SHAPE ( 'NONE', 'NONE',  #8 ) ;
#109 = DIRECTION ( 'NONE',  ( -1.224646799147353207E-16, -0.0000000000000000000, -1.000000000000000000 ) ) ;
#110 = VECTOR ( 'NONE', #204, 39.37007874015748143 ) ;
#111 = AXIS2_PLACEMENT_3D ( 'NONE', #7, #260, #13 ) ;
#112 = DIRECTION ( 'NONE',  ( -1.000000000000000000, 0.0000000000000000000, 0.0000000000000000000 ) ) ;
#113 = CARTESIAN_POINT ( 'NONE',  ( 0.03539756700000000478, 4.334951712415397505E-18, 0.03539756699999999784 ) ) ;
#114 = EDGE_CURVE ( 'NONE', #61, #157, #132, .T. ) ;
#115 = CARTESIAN_POINT ( 'NONE',  ( 0.03539756699999999784, 4.334951712415397505E-18, -4.334951712415397505E-18 ) ) ;
#116 = EDGE_LOOP ( 'NONE', ( #46, #300, #284, #210 ) ) ;
#117 = ORIENTED_EDGE ( 'NONE', *, *, #168, .F. ) ;
#118 = FACE_OUTER_BOUND ( 'NONE', #116, .T. ) ;
#119 = SURFACE_SIDE_STYLE ('',( #147 ) ) ;
#120 = ORIENTED_EDGE ( 'NONE', *, *, #244, .T. ) ;
#121 = AXIS2_PLACEMENT_3D ( 'NONE', #198, #63, #231 ) ;
#122 = DIRECTION ( 'NONE',  ( 0.7071067811865502373, 8.659560562354966138E-17, -0.7071067811865446862 ) ) ;
#123 = CYLINDRICAL_SURFACE ( 'NONE', #40, 0.07874000000000000443 ) ;
#124 = ORIENTED_EDGE ( 'NONE', *, *, #173, .T. ) ;
#125 = SURFACE_STYLE_FILL_AREA ( #312 ) ;
#126 = CARTESIAN_POINT ( 'NONE',  ( 0.0000000000000000000, 0.0000000000000000000, 1.968503999999999809 ) ) ;
#127 = VECTOR ( 'NONE', #122, 39.37007874015748854 ) ;
#128 = PRODUCT_DEFINITION_CONTEXT ( 'detailed design', #200, 'design' ) ;
#129 = PLANE ( 'NONE',  #282 ) ;
#130 = ADVANCED_FACE ( 'NONE', ( #42 ), #166, .T. ) ;
#131 = VECTOR ( 'NONE', #145, 39.37007874015747433 ) ;
#132 = LINE ( 'NONE', #115, #110 ) ;
#133 = EDGE_CURVE ( 'NONE', #306, #26, #50, .T. ) ;
#134 = DIRECTION ( 'NONE',  ( 1.000000000000000000, 0.0000000000000000000, 0.0000000000000000000 ) ) ;
#135 = ADVANCED_FACE ( 'NONE', ( #241 ), #64, .T. ) ;
#136 =( GEOMETRIC_REPRESENTATION_CONTEXT ( 3 ) GLOBAL_UNCERTAINTY_ASSIGNED_CONTEXT ( ( #308 ) ) GLOBAL_UNIT_ASSIGNED_CONTEXT ( ( #93, #226, #140 ) ) REPRESENTATION_CONTEXT ( 'NONE', 'WORKASPACE' ) );
#137 = ORIENTED_EDGE ( 'NONE', *, *, #163, .T. ) ;
#138 = DIRECTION ( 'NONE',  ( -1.224646799147353207E-16, -0.0000000000000000000, -1.000000000000000000 ) ) ;
#139 = PRODUCT_RELATED_PRODUCT_CATEGORY ( 'part', '', ( #276 ) ) ;
#140 =( NAMED_UNIT ( * ) SI_UNIT ( $, .STERADIAN. ) SOLID_ANGLE_UNIT ( ) );
#141 = EDGE_CURVE ( 'NONE', #105, #66, #294, .T. ) ;
#142 = DIRECTION ( 'NONE',  ( -1.224646799147353207E-16, -0.0000000000000000000, -1.000000000000000000 ) ) ;
#143 = MANIFOLD_SOLID_BREP ( 'Fillet1', #55 ) ;
#144 = ORIENTED_EDGE ( 'NONE', *, *, #186, .T. ) ;
#145 = DIRECTION ( 'NONE',  ( -0.1736481776669311916, 2.126576849575783316E-17, 0.9848077530122080203 ) ) ;
#146 = STYLED_ITEM ( 'NONE', ( #275 ), #143 ) ;
#147 = SURFACE_STYLE_FILL_AREA ( #73 ) ;
#148 = FILL_AREA_STYLE_COLOUR ( '', #183 ) ;
#149 = ORIENTED_EDGE ( 'NONE', *, *, #313, .T. ) ;
#150 = ADVANCED_FACE ( 'NONE', ( #201 ), #129, .T. ) ;
#151 = DIRECTION ( 'NONE',  ( -1.000000000000000000, 0.0000000000000000000, 1.205877367249678918E-16 ) ) ;
#152 = CIRCLE ( 'NONE', #221, 0.07874000000000000443 ) ;
#153 =( LENGTH_UNIT ( ) NAMED_UNIT ( * ) SI_UNIT ( $, .METRE. ) );
#154 = DIRECTION ( 'NONE',  ( 1.000000000000000000, 0.0000000000000000000, 0.0000000000000000000 ) ) ;
#155 =( LENGTH_UNIT ( ) NAMED_UNIT ( * ) SI_UNIT ( $, .METRE. ) );
#156 = DIRECTION ( 'NONE',  ( -0.0000000000000000000, -0.0000000000000000000, -1.000000000000000000 ) ) ;
#157 = VERTEX_POINT ( 'NONE', #113 ) ;
#158 = CARTESIAN_POINT ( 'NONE',  ( 4.334951712415397505E-18, 0.0000000000000000000, 0.03539756699999999784 ) ) ;
#159 = FACE_OUTER_BOUND ( 'NONE', #176, .T. ) ;
#160 = AXIS2_PLACEMENT_3D ( 'NONE', #269, #267, #38 ) ;
#161 = AXIS2_PLACEMENT_3D ( 'NONE', #29, #214, #99 ) ;
#162 = UNCERTAINTY_MEASURE_WITH_UNIT (LENGTH_MEASURE( 1.000000000000000082E-05 ), #317, 'distance_accuracy_value', 'NONE');
#163 = EDGE_CURVE ( 'NONE', #164, #205, #5, .T. ) ;
#164 = VERTEX_POINT ( 'NONE', #67 ) ;
#165 =( GEOMETRIC_REPRESENTATION_CONTEXT ( 3 ) GLOBAL_UNCERTAINTY_ASSIGNED_CONTEXT ( ( #162 ) ) GLOBAL_UNIT_ASSIGNED_CONTEXT ( ( #317, #30, #316 ) ) REPRESENTATION_CONTEXT ( 'NONE', 'WORKASPACE' ) );
#166 = CYLINDRICAL_SURFACE ( 'NONE', #160, 0.07874000000000000443 ) ;
#167 = LINE ( 'NONE', #249, #32 ) ;
#168 = EDGE_CURVE ( 'NONE', #320, #306, #177, .T. ) ;
#169 = DIRECTION ( 'NONE',  ( 1.000000000000000000, 0.0000000000000000000, -0.0000000000000000000 ) ) ;
#170 = CYLINDRICAL_SURFACE ( 'NONE', #217, 0.03539756699999999784 ) ;
#171 = PRODUCT_CONTEXT ( 'NONE', #299, 'mechanical' ) ;
#172 = CARTESIAN_POINT ( 'NONE',  ( 2.555360257568858967E-17, 0.0000000000000000000, 0.2086610000000000131 ) ) ;
#173 = EDGE_CURVE ( 'NONE', #320, #61, #323, .T. ) ;
#174 = ORIENTED_EDGE ( 'NONE', *, *, #133, .T. ) ;
#175 = CONICAL_SURFACE ( 'NONE', #107, 0.03539756699999999784, 0.1745329251994338915 ) ;
#176 = EDGE_LOOP ( 'NONE', ( #47, #52, #87 ) ) ;
#177 = LINE ( 'NONE', #273, #131 ) ;
#178 = LINE ( 'NONE', #33, #225 ) ;
#179 = ADVANCED_FACE ( 'NONE', ( #118 ), #252, .T. ) ;
#180 = ORIENTED_EDGE ( 'NONE', *, *, #1, .T. ) ;
#181 = SHAPE_DEFINITION_REPRESENTATION ( #108, #21 ) ;
#182 = DIRECTION ( 'NONE',  ( -0.7071067811865502373, 0.0000000000000000000, -0.7071067811865446862 ) ) ;
#183 = COLOUR_RGB ( '',0.7921568627450980005, 0.8196078431372548767, 0.9333333333333333481 ) ;
#184 = EDGE_LOOP ( 'NONE', ( #295, #120, #180, #314 ) ) ;
#185 = FACE_OUTER_BOUND ( 'NONE', #321, .T. ) ;
#186 = EDGE_CURVE ( 'NONE', #66, #164, #178, .T. ) ;
#187 = DIRECTION ( 'NONE',  ( 0.0000000000000000000, 0.0000000000000000000, -1.000000000000000000 ) ) ;
#188 = EDGE_CURVE ( 'NONE', #195, #157, #265, .T. ) ;
#189 = LENGTH_MEASURE_WITH_UNIT ( LENGTH_MEASURE( 0.02539999999999999897 ), #155 );
#190 = DIRECTION ( 'NONE',  ( 0.0000000000000000000, 0.0000000000000000000, -1.000000000000000000 ) ) ;
#191 = AXIS2_PLACEMENT_3D ( 'NONE', #203, #227, #69 ) ;
#192 = COLOUR_RGB ( '',0.7921568627450980005, 0.8196078431372548767, 0.9333333333333333481 ) ;
#193 = ADVANCED_FACE ( 'NONE', ( #307 ), #123, .T. ) ;
#194 = CIRCLE ( 'NONE', #39, 0.03539756699999999784 ) ;
#195 = VERTEX_POINT ( 'NONE', #213 ) ;
#196 = ORIENTED_EDGE ( 'NONE', *, *, #1, .F. ) ;
#197 = SURFACE_STYLE_USAGE ( .BOTH. , #119 ) ;
#198 = CARTESIAN_POINT ( 'NONE',  ( 0.0000000000000000000, 0.0000000000000000000, 0.0000000000000000000 ) ) ;
#199 = VERTEX_POINT ( 'NONE', #102 ) ;
#200 = APPLICATION_CONTEXT ( 'automotive_design' ) ;
#201 = FACE_OUTER_BOUND ( 'NONE', #268, .T. ) ;
#202 = ORIENTED_EDGE ( 'NONE', *, *, #25, .F. ) ;
#203 = CARTESIAN_POINT ( 'NONE',  ( 0.0000000000000000000, 0.0000000000000000000, 1.953504000000000129 ) ) ;
#204 = DIRECTION ( 'NONE',  ( -1.224646799147353207E-16, -0.0000000000000000000, -1.000000000000000000 ) ) ;
#205 = VERTEX_POINT ( 'NONE', #256 ) ;
#206 = DIMENSIONAL_EXPONENTS ( 1.000000000000000000, 0.0000000000000000000, 0.0000000000000000000, 0.0000000000000000000, 0.0000000000000000000, 0.0000000000000000000, 0.0000000000000000000 ) ;
#207 = CIRCLE ( 'NONE', #97, 0.07874000000000000443 ) ;
#208 = DIRECTION ( 'NONE',  ( 1.000000000000000000, 0.0000000000000000000, 0.0000000000000000000 ) ) ;
#209 = EDGE_CURVE ( 'NONE', #320, #195, #237, .T. ) ;
#210 = ORIENTED_EDGE ( 'NONE', *, *, #188, .T. ) ;
#211 = DIRECTION ( 'NONE',  ( -1.000000000000000000, 0.0000000000000000000, 1.224646799147353207E-16 ) ) ;
#212 = SURFACE_SIDE_STYLE ('',( #125 ) ) ;
#213 = CARTESIAN_POINT ( 'NONE',  ( -0.03539756699999999784, 0.0000000000000000000, 0.03539756700000000478 ) ) ;
#214 = DIRECTION ( 'NONE',  ( 0.0000000000000000000, 1.000000000000000000, 0.0000000000000000000 ) ) ;
#215 = DIRECTION ( 'NONE',  ( 1.224646799147353207E-16, 0.0000000000000000000, 1.000000000000000000 ) ) ;
#216 = EDGE_CURVE ( 'NONE', #66, #105, #283, .T. ) ;
#217 = AXIS2_PLACEMENT_3D ( 'NONE', #60, #142, #85 ) ;
#218 = ADVANCED_FACE ( 'NONE', ( #185 ), #11, .T. ) ;
#219 = EDGE_CURVE ( 'NONE', #26, #306, #152, .T. ) ;
#220 = DIRECTION ( 'NONE',  ( 1.224646799147353207E-16, 0.0000000000000000000, 1.000000000000000000 ) ) ;
#221 = AXIS2_PLACEMENT_3D ( 'NONE', #48, #77, #208 ) ;
#222 = FACE_OUTER_BOUND ( 'NONE', #236, .T. ) ;
#223 = LINE ( 'NONE', #319, #242 ) ;
#224 = CARTESIAN_POINT ( 'NONE',  ( 2.555360257568858967E-17, 0.0000000000000000000, 0.2086610000000000131 ) ) ;
#225 = VECTOR ( 'NONE', #182, 39.37007874015748854 ) ;
#226 =( NAMED_UNIT ( * ) PLANE_ANGLE_UNIT ( ) SI_UNIT ( $, .RADIAN. ) );
#227 = DIRECTION ( 'NONE',  ( 0.0000000000000000000, 0.0000000000000000000, -1.000000000000000000 ) ) ;
#228 = ORIENTED_EDGE ( 'NONE', *, *, #188, .F. ) ;
#229 = CARTESIAN_POINT ( 'NONE',  ( -0.03539756699999999784, 0.0000000000000000000, 4.334951712415397505E-18 ) ) ;
#230 = ADVANCED_FACE ( 'NONE', ( #82 ), #72, .T. ) ;
#231 = DIRECTION ( 'NONE',  ( 1.000000000000000000, 0.0000000000000000000, 0.0000000000000000000 ) ) ;
#232 = SPHERICAL_SURFACE ( 'NONE', #20, 0.03539756699999999784 ) ;
#233 = SURFACE_STYLE_USAGE ( .BOTH. , #212 ) ;
#234 = DIRECTION ( 'NONE',  ( -1.000000000000000000, 0.0000000000000000000, 0.0000000000000000000 ) ) ;
#235 = LINE ( 'NONE', #101, #127 ) ;
#236 = EDGE_LOOP ( 'NONE', ( #117, #89, #88, #36 ) ) ;
#237 = LINE ( 'NONE', #229, #90 ) ;
#238 = EDGE_CURVE ( 'NONE', #105, #205, #235, .T. ) ;
#239 = MECHANICAL_DESIGN_GEOMETRIC_PRESENTATION_REPRESENTATION (  '', ( #146 ), #136 ) ;
#240 = MECHANICAL_DESIGN_GEOMETRIC_PRESENTATION_REPRESENTATION (  '', ( #262 ), #303 ) ;
#241 = FACE_OUTER_BOUND ( 'NONE', #75, .T. ) ;
#242 = VECTOR ( 'NONE', #243, 39.37007874015748143 ) ;
#243 = DIRECTION ( 'NONE',  ( -0.0000000000000000000, -0.0000000000000000000, -1.000000000000000000 ) ) ;
#244 = EDGE_CURVE ( 'NONE', #205, #164, #207, .T. ) ;
#245 = PRESENTATION_LAYER_ASSIGNMENT (  '', '', ( #262 ) ) ;
#246 = PRODUCT_DEFINITION_FORMATION_WITH_SPECIFIED_SOURCE ( 'ANY', '', #276, .NOT_KNOWN. ) ;
#247 = ORIENTED_EDGE ( 'NONE', *, *, #141, .F. ) ;
#248 = DIRECTION ( 'NONE',  ( 0.0000000000000000000, 0.0000000000000000000, -1.000000000000000000 ) ) ;
#249 = CARTESIAN_POINT ( 'NONE',  ( 0.07874000000000000443, 9.642868896486258509E-18, 1.968503999999999809 ) ) ;
#250 = VECTOR ( 'NONE', #9, 39.37007874015748143 ) ;
#251 = DIRECTION ( 'NONE',  ( 0.0000000000000000000, 0.0000000000000000000, 1.000000000000000000 ) ) ;
#252 = CYLINDRICAL_SURFACE ( 'NONE', #80, 0.03539756699999999784 ) ;
#253 = CARTESIAN_POINT ( 'NONE',  ( 2.555360257568858967E-17, 0.0000000000000000000, 0.2086610000000000131 ) ) ;
#254 = AXIS2_PLACEMENT_3D ( 'NONE', #297, #296, #62 ) ;
#255 = ORIENTED_EDGE ( 'NONE', *, *, #141, .T. ) ;
#256 = CARTESIAN_POINT ( 'NONE',  ( 0.07874000000000000443, 9.642868896486258509E-18, 1.953504000000000129 ) ) ;
#257 = CARTESIAN_POINT ( 'NONE',  ( -0.07873999999999994892, 0.0000000000000000000, 0.4544681522908972648 ) ) ;
#258 = ADVANCED_FACE ( 'NONE', ( #27 ), #51, .T. ) ;
#259 = ORIENTED_EDGE ( 'NONE', *, *, #274, .T. ) ;
#260 = DIRECTION ( 'NONE',  ( 0.0000000000000000000, 0.0000000000000000000, 1.000000000000000000 ) ) ;
#261 = CIRCLE ( 'NONE', #254, 0.03539756699999999784 ) ;
#262 = STYLED_ITEM ( 'NONE', ( #78 ), #21 ) ;
#263 = CARTESIAN_POINT ( 'NONE',  ( 0.0000000000000000000, 0.0000000000000000000, 1.968503999999999809 ) ) ;
#264 = EDGE_CURVE ( 'NONE', #61, #26, #57, .T. ) ;
#265 = CIRCLE ( 'NONE', #309, 0.03539756699999999784 ) ;
#266 = AXIS2_PLACEMENT_3D ( 'NONE', #158, #281, #151 ) ;
#267 = DIRECTION ( 'NONE',  ( -0.0000000000000000000, -0.0000000000000000000, -1.000000000000000000 ) ) ;
#268 = EDGE_LOOP ( 'NONE', ( #292, #255 ) ) ;
#269 = CARTESIAN_POINT ( 'NONE',  ( 0.0000000000000000000, 0.0000000000000000000, 1.968503999999999809 ) ) ;
#270 = DIRECTION ( 'NONE',  ( -0.0000000000000000000, -0.0000000000000000000, -1.000000000000000000 ) ) ;
#271 = DIRECTION ( 'NONE',  ( -1.000000000000000000, 0.0000000000000000000, 0.0000000000000000000 ) ) ;
#272 = CARTESIAN_POINT ( 'NONE',  ( 0.07874000000000004607, 9.642868896486264672E-18, 0.4544681522908972648 ) ) ;
#273 = CARTESIAN_POINT ( 'NONE',  ( -0.03539756699999997702, 4.334951712415397505E-18, 0.2086610000000000131 ) ) ;
#274 = EDGE_CURVE ( 'NONE', #157, #195, #291, .T. ) ;
#275 = PRESENTATION_STYLE_ASSIGNMENT (( #197 ) ) ;
#276 = PRODUCT ( 'Micro_BMRM-018-2X', 'Micro_BMRM-018-2X', '', ( #171 ) ) ;
#277 = AXIS2_PLACEMENT_3D ( 'NONE', #263, #187, #106 ) ;
#278 = DIRECTION ( 'NONE',  ( -1.000000000000000000, 0.0000000000000000000, 0.0000000000000000000 ) ) ;
#279 = ORIENTED_EDGE ( 'NONE', *, *, #186, .F. ) ;
#280 = CARTESIAN_POINT ( 'NONE',  ( -0.03539756699999997702, 6.988910304450828007E-18, 0.2086610000000000131 ) ) ;
#281 = DIRECTION ( 'NONE',  ( 1.224646799147353207E-16, 0.0000000000000000000, 1.000000000000000000 ) ) ;
#282 = AXIS2_PLACEMENT_3D ( 'NONE', #91, #251, #169 ) ;
#283 = CIRCLE ( 'NONE', #111, 0.06374000000000018540 ) ;
#284 = ORIENTED_EDGE ( 'NONE', *, *, #209, .T. ) ;
#285 = CARTESIAN_POINT ( 'NONE',  ( 4.334951712415397505E-18, 0.0000000000000000000, 0.03539756699999999784 ) ) ;
#286 = ORIENTED_EDGE ( 'NONE', *, *, #264, .F. ) ;
#287 = FILL_AREA_STYLE_COLOUR ( '', #192 ) ;
#288 = DIRECTION ( 'NONE',  ( 1.000000000000000000, 0.0000000000000000000, 0.0000000000000000000 ) ) ;
#289 = ORIENTED_EDGE ( 'NONE', *, *, #244, .F. ) ;
#290 = CARTESIAN_POINT ( 'NONE',  ( 4.334951712415397505E-18, 0.0000000000000000000, 0.03539756699999999784 ) ) ;
#291 = CIRCLE ( 'NONE', #266, 0.03539756699999999784 ) ;
#292 = ORIENTED_EDGE ( 'NONE', *, *, #216, .T. ) ;
#293 = ORIENTED_EDGE ( 'NONE', *, *, #238, .T. ) ;
#294 = CIRCLE ( 'NONE', #19, 0.06374000000000018540 ) ;
#295 = ORIENTED_EDGE ( 'NONE', *, *, #86, .F. ) ;
#296 = DIRECTION ( 'NONE',  ( 1.224646799147353207E-16, 1.000000000000000000, -0.0000000000000000000 ) ) ;
#297 = CARTESIAN_POINT ( 'NONE',  ( 4.334951712415397505E-18, 0.0000000000000000000, 0.03539756699999999784 ) ) ;
#298 = AXIS2_PLACEMENT_3D ( 'NONE', #17, #248, #112 ) ;
#299 = APPLICATION_CONTEXT ( 'automotive_design' ) ;
#300 = ORIENTED_EDGE ( 'NONE', *, *, #76, .T. ) ;
#301 = ADVANCED_FACE ( 'NONE', ( #159 ), #232, .T. ) ;
#302 = ORIENTED_EDGE ( 'NONE', *, *, #114, .T. ) ;
#303 =( GEOMETRIC_REPRESENTATION_CONTEXT ( 3 ) GLOBAL_UNCERTAINTY_ASSIGNED_CONTEXT ( ( #104 ) ) GLOBAL_UNIT_ASSIGNED_CONTEXT ( ( #56, #14, #59 ) ) REPRESENTATION_CONTEXT ( 'NONE', 'WORKASPACE' ) );
#304 = DIRECTION ( 'NONE',  ( 0.0000000000000000000, -1.000000000000000000, 0.0000000000000000000 ) ) ;
#305 = DIRECTION ( 'NONE',  ( 0.0000000000000000000, 0.0000000000000000000, 1.000000000000000000 ) ) ;
#306 = VERTEX_POINT ( 'NONE', #257 ) ;
#307 = FACE_OUTER_BOUND ( 'NONE', #2, .T. ) ;
#308 = UNCERTAINTY_MEASURE_WITH_UNIT (LENGTH_MEASURE( 1.000000000000000082E-05 ), #93, 'distance_accuracy_value', 'NONE');
#309 = AXIS2_PLACEMENT_3D ( 'NONE', #290, #98, #28 ) ;
#310 = AXIS2_PLACEMENT_3D ( 'NONE', #285, #304, #74 ) ;
#311 = EDGE_LOOP ( 'NONE', ( #247, #293, #15, #279 ) ) ;
#312 = FILL_AREA_STYLE ('',( #287 ) ) ;
#313 = EDGE_CURVE ( 'NONE', #199, #157, #65, .T. ) ;
#314 = ORIENTED_EDGE ( 'NONE', *, *, #219, .F. ) ;
#315 = DIRECTION ( 'NONE',  ( 1.000000000000000000, 0.0000000000000000000, 0.0000000000000000000 ) ) ;
#316 =( NAMED_UNIT ( * ) SI_UNIT ( $, .STERADIAN. ) SOLID_ANGLE_UNIT ( ) );
#317 =( CONVERSION_BASED_UNIT ( 'INCH', #318 ) LENGTH_UNIT ( ) NAMED_UNIT ( #70 ) );
#318 = LENGTH_MEASURE_WITH_UNIT ( LENGTH_MEASURE( 0.02539999999999999897 ), #153 );
#319 = CARTESIAN_POINT ( 'NONE',  ( -0.07874000000000000443, 0.0000000000000000000, 1.968503999999999809 ) ) ;
#320 = VERTEX_POINT ( 'NONE', #280 ) ;
#321 = EDGE_LOOP ( 'NONE', ( #202, #149, #228 ) ) ;
#322 = CARTESIAN_POINT ( 'NONE',  ( 2.555360257568858967E-17, 0.0000000000000000000, 0.2086610000000000131 ) ) ;
#323 = CIRCLE ( 'NONE', #34, 0.03539756699999999784 ) ;
#324 =( LENGTH_UNIT ( ) NAMED_UNIT ( * ) SI_UNIT ( $, .METRE. ) );
#325 = ORIENTED_EDGE ( 'NONE', *, *, #86, .T. ) ;
ENDSEC;
END-ISO-10303-21;
