ISO-10303-21;
HEADER;
FILE_DESCRIPTION (( 'STEP AP214' ),
    '1' );
FILE_NAME ('Micro_GEM-750-4.STEP',
    '2021-09-01T21:05:04',
    ( '' ),
    ( '' ),
    'SwSTEP 2.0',
    'SolidWorks 2020',
    '' );
FILE_SCHEMA (( 'AUTOMOTIVE_DESIGN' ));
ENDSEC;

DATA;
#1 = EDGE_LOOP ( 'NONE', ( #141, #2, #55, #124 ) ) ;
#2 = ORIENTED_EDGE ( 'NONE', *, *, #146, .T. ) ;
#3 = EDGE_CURVE ( 'NONE', #33, #119, #229, .T. ) ;
#4 = CARTESIAN_POINT ( 'NONE',  ( -0.3746249999999998193, 4.587833071305771808E-17, 1.500000000000000222 ) ) ;
#5 = EDGE_CURVE ( 'NONE', #267, #144, #220, .T. ) ;
#6 = ORIENTED_EDGE ( 'NONE', *, *, #146, .F. ) ;
#7 = CIRCLE ( 'NONE', #117, 0.3750000000000000555 ) ;
#8 = CIRCLE ( 'NONE', #189, 0.3599999999999994316 ) ;
#9 =( CONVERSION_BASED_UNIT ( 'INCH', #77 ) LENGTH_UNIT ( ) NAMED_UNIT ( #52 ) );
#10 = APPLICATION_CONTEXT ( 'automotive_design' ) ;
#11 = ADVANCED_FACE ( 'NONE', ( #176 ), #271, .T. ) ;
#12 = ORIENTED_EDGE ( 'NONE', *, *, #248, .T. ) ;
#13 = CARTESIAN_POINT ( 'NONE',  ( -0.3746249999999999858, 0.0000000000000000000, 4.587833071305771192E-17 ) ) ;
#14 = ORIENTED_EDGE ( 'NONE', *, *, #26, .T. ) ;
#15 = LINE ( 'NONE', #13, #62 ) ;
#16 = AXIS2_PLACEMENT_3D ( 'NONE', #86, #87, #134 ) ;
#17 = COLOUR_RGB ( '',0.7921568627450980005, 0.8196078431372548767, 0.9333333333333333481 ) ;
#18 = DIRECTION ( 'NONE',  ( -1.224646799147353207E-16, -0.0000000000000000000, -1.000000000000000000 ) ) ;
#19 = EDGE_CURVE ( 'NONE', #33, #116, #98, .T. ) ;
#20 = FACE_OUTER_BOUND ( 'NONE', #118, .T. ) ;
#21 = DIRECTION ( 'NONE',  ( -1.000000000000000000, 0.0000000000000000000, 1.224646799147352961E-16 ) ) ;
#22 =( NAMED_UNIT ( * ) SI_UNIT ( $, .STERADIAN. ) SOLID_ANGLE_UNIT ( ) );
#23 = PRESENTATION_LAYER_ASSIGNMENT (  '', '', ( #276 ) ) ;
#24 =( GEOMETRIC_REPRESENTATION_CONTEXT ( 3 ) GLOBAL_UNCERTAINTY_ASSIGNED_CONTEXT ( ( #297 ) ) GLOBAL_UNIT_ASSIGNED_CONTEXT ( ( #9, #201, #221 ) ) REPRESENTATION_CONTEXT ( 'NONE', 'WORKASPACE' ) );
#25 = FACE_OUTER_BOUND ( 'NONE', #197, .T. ) ;
#26 = EDGE_CURVE ( 'NONE', #299, #116, #36, .T. ) ;
#27 = CARTESIAN_POINT ( 'NONE',  ( 0.3746250000000002633, 0.0000000000000000000, 1.500000000000000222 ) ) ;
#28 = VECTOR ( 'NONE', #254, 39.37007874015748143 ) ;
#29 = CLOSED_SHELL ( 'NONE', ( #71, #191, #65, #259, #266, #11, #161, #128, #102, #185 ) ) ;
#30 = ORIENTED_EDGE ( 'NONE', *, *, #32, .T. ) ;
#31 = ORIENTED_EDGE ( 'NONE', *, *, #75, .T. ) ;
#32 = EDGE_CURVE ( 'NONE', #147, #200, #123, .T. ) ;
#33 = VERTEX_POINT ( 'NONE', #108 ) ;
#34 = CARTESIAN_POINT ( 'NONE',  ( 0.0000000000000000000, 0.0000000000000000000, 4.000000000000000000 ) ) ;
#35 = EDGE_LOOP ( 'NONE', ( #14, #57, #222, #234 ) ) ;
#36 = CIRCLE ( 'NONE', #237, 0.3750000000000000555 ) ;
#37 = FACE_OUTER_BOUND ( 'NONE', #35, .T. ) ;
#38 = DIRECTION ( 'NONE',  ( 1.000000000000000000, 0.0000000000000000000, -0.0000000000000000000 ) ) ;
#39 = CARTESIAN_POINT ( 'NONE',  ( 1.836970198721030181E-16, 0.0000000000000000000, 1.500000000000000222 ) ) ;
#40 = CARTESIAN_POINT ( 'NONE',  ( 0.3750000000000000555, 4.592425496802575451E-17, 4.000000000000000000 ) ) ;
#41 = CARTESIAN_POINT ( 'NONE',  ( -0.3749999999999998335, 0.0000000000000000000, 1.502126730682356914 ) ) ;
#42 = SURFACE_STYLE_USAGE ( .BOTH. , #295 ) ;
#43 = CARTESIAN_POINT ( 'NONE',  ( 1.836970198721030181E-16, 0.0000000000000000000, 1.500000000000000222 ) ) ;
#44 = CYLINDRICAL_SURFACE ( 'NONE', #213, 0.3746249999999999858 ) ;
#45 = AXIS2_PLACEMENT_3D ( 'NONE', #258, #162, #46 ) ;
#46 = DIRECTION ( 'NONE',  ( -1.000000000000000000, 0.0000000000000000000, 0.0000000000000000000 ) ) ;
#47 = ADVANCED_BREP_SHAPE_REPRESENTATION ( 'Micro_GEM-750-4', ( #132, #188 ), #24 ) ;
#48 = PRODUCT_CONTEXT ( 'NONE', #10, 'mechanical' ) ;
#49 =( LENGTH_UNIT ( ) NAMED_UNIT ( * ) SI_UNIT ( $, .METRE. ) );
#50 = AXIS2_PLACEMENT_3D ( 'NONE', #34, #247, #105 ) ;
#51 = ORIENTED_EDGE ( 'NONE', *, *, #250, .T. ) ;
#52 = DIMENSIONAL_EXPONENTS ( 1.000000000000000000, 0.0000000000000000000, 0.0000000000000000000, 0.0000000000000000000, 0.0000000000000000000, 0.0000000000000000000, 0.0000000000000000000 ) ;
#53 = DIRECTION ( 'NONE',  ( 1.000000000000000000, 0.0000000000000000000, 0.0000000000000000000 ) ) ;
#54 = AXIS2_PLACEMENT_3D ( 'NONE', #133, #184, #157 ) ;
#55 = ORIENTED_EDGE ( 'NONE', *, *, #193, .T. ) ;
#56 = DIRECTION ( 'NONE',  ( 1.000000000000000000, 0.0000000000000000000, 0.0000000000000000000 ) ) ;
#57 = ORIENTED_EDGE ( 'NONE', *, *, #121, .T. ) ;
#58 = CARTESIAN_POINT ( 'NONE',  ( -0.3750000000000000555, 0.0000000000000000000, 4.000000000000000000 ) ) ;
#59 = EDGE_LOOP ( 'NONE', ( #30, #287 ) ) ;
#60 = CYLINDRICAL_SURFACE ( 'NONE', #50, 0.3750000000000000555 ) ;
#61 = ORIENTED_EDGE ( 'NONE', *, *, #228, .T. ) ;
#62 = VECTOR ( 'NONE', #127, 39.37007874015748143 ) ;
#63 = SURFACE_STYLE_FILL_AREA ( #272 ) ;
#64 = ORIENTED_EDGE ( 'NONE', *, *, #32, .F. ) ;
#65 = ADVANCED_FACE ( 'NONE', ( #206 ), #73, .T. ) ;
#66 = DIRECTION ( 'NONE',  ( -1.000000000000000000, 0.0000000000000000000, 0.0000000000000000000 ) ) ;
#67 = MECHANICAL_DESIGN_GEOMETRIC_PRESENTATION_REPRESENTATION (  '', ( #276 ), #139 ) ;
#68 = CYLINDRICAL_SURFACE ( 'NONE', #54, 0.3746249999999999858 ) ;
#69 = LENGTH_MEASURE_WITH_UNIT ( LENGTH_MEASURE( 0.02539999999999999897 ), #183 );
#70 = CARTESIAN_POINT ( 'NONE',  ( 1.836970198721030181E-16, 0.0000000000000000000, 1.500000000000000222 ) ) ;
#71 = ADVANCED_FACE ( 'NONE', ( #20 ), #68, .T. ) ;
#72 = ORIENTED_EDGE ( 'NONE', *, *, #5, .T. ) ;
#73 = CONICAL_SURFACE ( 'NONE', #16, 0.3599999999999994316, 0.7853981633974415066 ) ;
#74 = DIMENSIONAL_EXPONENTS ( 1.000000000000000000, 0.0000000000000000000, 0.0000000000000000000, 0.0000000000000000000, 0.0000000000000000000, 0.0000000000000000000, 0.0000000000000000000 ) ;
#75 = EDGE_CURVE ( 'NONE', #174, #120, #155, .T. ) ;
#76 = CARTESIAN_POINT ( 'NONE',  ( 0.3599999999999994316, 4.408728476930464865E-17, 4.000000000000000000 ) ) ;
#77 = LENGTH_MEASURE_WITH_UNIT ( LENGTH_MEASURE( 0.02539999999999999897 ), #122 );
#78 = DIRECTION ( 'NONE',  ( -1.224646799147353207E-16, -0.0000000000000000000, -1.000000000000000000 ) ) ;
#79 = CARTESIAN_POINT ( 'NONE',  ( 0.0000000000000000000, 0.0000000000000000000, 4.000000000000000000 ) ) ;
#80 = ORIENTED_EDGE ( 'NONE', *, *, #198, .F. ) ;
#81 = CARTESIAN_POINT ( 'NONE',  ( 0.3746249999999999858, 4.587833071305771192E-17, -4.587833071305771192E-17 ) ) ;
#82 = ORIENTED_EDGE ( 'NONE', *, *, #204, .F. ) ;
#83 = ORIENTED_EDGE ( 'NONE', *, *, #209, .F. ) ;
#84 = VECTOR ( 'NONE', #173, 39.37007874015748143 ) ;
#85 = EDGE_CURVE ( 'NONE', #200, #147, #225, .T. ) ;
#86 = CARTESIAN_POINT ( 'NONE',  ( 0.0000000000000000000, 0.0000000000000000000, 4.000000000000000000 ) ) ;
#87 = DIRECTION ( 'NONE',  ( 0.0000000000000000000, 0.0000000000000000000, -1.000000000000000000 ) ) ;
#88 = AXIS2_PLACEMENT_3D ( 'NONE', #288, #241, #273 ) ;
#89 = DIRECTION ( 'NONE',  ( 1.000000000000000000, 0.0000000000000000000, 0.0000000000000000000 ) ) ;
#90 = PRESENTATION_STYLE_ASSIGNMENT (( #42 ) ) ;
#91 = UNCERTAINTY_MEASURE_WITH_UNIT (LENGTH_MEASURE( 1.000000000000000082E-05 ), #256, 'distance_accuracy_value', 'NONE');
#92 = DIRECTION ( 'NONE',  ( 0.0000000000000000000, 0.0000000000000000000, 1.000000000000000000 ) ) ;
#93 = EDGE_CURVE ( 'NONE', #174, #267, #298, .T. ) ;
#94 = AXIS2_PLACEMENT_3D ( 'NONE', #226, #107, #205 ) ;
#95 = CIRCLE ( 'NONE', #171, 0.3750000000000000555 ) ;
#96 = APPLICATION_CONTEXT ( 'automotive_design' ) ;
#97 = ORIENTED_EDGE ( 'NONE', *, *, #3, .F. ) ;
#98 = LINE ( 'NONE', #76, #202 ) ;
#99 = LINE ( 'NONE', #81, #232 ) ;
#100 = DIRECTION ( 'NONE',  ( 0.0000000000000000000, 0.0000000000000000000, -1.000000000000000000 ) ) ;
#101 = SURFACE_STYLE_USAGE ( .BOTH. , #217 ) ;
#102 = ADVANCED_FACE ( 'NONE', ( #25 ), #44, .T. ) ;
#103 = DIRECTION ( 'NONE',  ( -0.1736481776669312194, 2.126576849575783625E-17, 0.9848077530122080203 ) ) ;
#104 = ORIENTED_EDGE ( 'NONE', *, *, #75, .F. ) ;
#105 = DIRECTION ( 'NONE',  ( -1.000000000000000000, 0.0000000000000000000, 0.0000000000000000000 ) ) ;
#106 = EDGE_LOOP ( 'NONE', ( #214, #83, #61, #6 ) ) ;
#107 = DIRECTION ( 'NONE',  ( -1.224646799147353207E-16, -0.0000000000000000000, -1.000000000000000000 ) ) ;
#108 = CARTESIAN_POINT ( 'NONE',  ( 0.3599999999999994316, 4.500576986866520466E-17, 4.000000000000000000 ) ) ;
#109 = DIRECTION ( 'NONE',  ( -1.224646799147353207E-16, -0.0000000000000000000, -1.000000000000000000 ) ) ;
#110 = AXIS2_PLACEMENT_3D ( 'NONE', #275, #18, #249 ) ;
#111 = DIRECTION ( 'NONE',  ( 0.0000000000000000000, 0.0000000000000000000, 1.000000000000000000 ) ) ;
#112 = FILL_AREA_STYLE_COLOUR ( '', #196 ) ;
#113 = FACE_OUTER_BOUND ( 'NONE', #59, .T. ) ;
#114 = APPLICATION_PROTOCOL_DEFINITION ( 'draft international standard', 'automotive_design', 1998, #96 ) ;
#115 = MECHANICAL_DESIGN_GEOMETRIC_PRESENTATION_REPRESENTATION (  '', ( #163 ), #136 ) ;
#116 = VERTEX_POINT ( 'NONE', #290 ) ;
#117 = AXIS2_PLACEMENT_3D ( 'NONE', #277, #180, #274 ) ;
#118 = EDGE_LOOP ( 'NONE', ( #149, #280, #64, #168 ) ) ;
#119 = VERTEX_POINT ( 'NONE', #181 ) ;
#120 = VERTEX_POINT ( 'NONE', #131 ) ;
#121 = EDGE_CURVE ( 'NONE', #116, #120, #160, .T. ) ;
#122 =( LENGTH_UNIT ( ) NAMED_UNIT ( * ) SI_UNIT ( $, .METRE. ) );
#123 = CIRCLE ( 'NONE', #293, 0.3746249999999999858 ) ;
#124 = ORIENTED_EDGE ( 'NONE', *, *, #151, .F. ) ;
#125 = CARTESIAN_POINT ( 'NONE',  ( 1.839574692643826673E-16, 0.0000000000000000000, 1.502126730682356914 ) ) ;
#126 = ORIENTED_EDGE ( 'NONE', *, *, #19, .T. ) ;
#127 = DIRECTION ( 'NONE',  ( -1.224646799147353207E-16, -0.0000000000000000000, -1.000000000000000000 ) ) ;
#128 = ADVANCED_FACE ( 'NONE', ( #182 ), #252, .T. ) ;
#129 = PRODUCT_DEFINITION_CONTEXT ( 'detailed design', #96, 'design' ) ;
#130 = VECTOR ( 'NONE', #103, 39.37007874015747433 ) ;
#131 = CARTESIAN_POINT ( 'NONE',  ( 0.3750000000000001665, 4.592425496802577300E-17, 1.502126730682356914 ) ) ;
#132 = MANIFOLD_SOLID_BREP ( 'Cut-Revolve1', #29 ) ;
#133 = CARTESIAN_POINT ( 'NONE',  ( 0.0000000000000000000, 0.0000000000000000000, 0.0000000000000000000 ) ) ;
#134 = DIRECTION ( 'NONE',  ( -1.000000000000000000, 0.0000000000000000000, 0.0000000000000000000 ) ) ;
#135 = AXIS2_PLACEMENT_3D ( 'NONE', #296, #92, #137 ) ;
#136 =( GEOMETRIC_REPRESENTATION_CONTEXT ( 3 ) GLOBAL_UNCERTAINTY_ASSIGNED_CONTEXT ( ( #165 ) ) GLOBAL_UNIT_ASSIGNED_CONTEXT ( ( #245, #164, #22 ) ) REPRESENTATION_CONTEXT ( 'NONE', 'WORKASPACE' ) );
#137 = DIRECTION ( 'NONE',  ( 1.000000000000000000, 0.0000000000000000000, -0.0000000000000000000 ) ) ;
#138 = DIRECTION ( 'NONE',  ( 1.000000000000000000, 0.0000000000000000000, 0.0000000000000000000 ) ) ;
#139 =( GEOMETRIC_REPRESENTATION_CONTEXT ( 3 ) GLOBAL_UNCERTAINTY_ASSIGNED_CONTEXT ( ( #91 ) ) GLOBAL_UNIT_ASSIGNED_CONTEXT ( ( #256, #210, #224 ) ) REPRESENTATION_CONTEXT ( 'NONE', 'WORKASPACE' ) );
#140 = EDGE_LOOP ( 'NONE', ( #166, #269, #31, #179 ) ) ;
#141 = ORIENTED_EDGE ( 'NONE', *, *, #121, .F. ) ;
#142 = PRODUCT_DEFINITION_SHAPE ( 'NONE', 'NONE',  #154 ) ;
#143 = FACE_OUTER_BOUND ( 'NONE', #1, .T. ) ;
#144 = VERTEX_POINT ( 'NONE', #41 ) ;
#145 = DIRECTION ( 'NONE',  ( -0.0000000000000000000, -0.0000000000000000000, -1.000000000000000000 ) ) ;
#146 = EDGE_CURVE ( 'NONE', #116, #299, #7, .T. ) ;
#147 = VERTEX_POINT ( 'NONE', #156 ) ;
#148 = CARTESIAN_POINT ( 'NONE',  ( -0.3750000000000000555, 0.0000000000000000000, 3.984999999999998987 ) ) ;
#149 = ORIENTED_EDGE ( 'NONE', *, *, #204, .T. ) ;
#150 = DIRECTION ( 'NONE',  ( -1.000000000000000000, 0.0000000000000000000, 0.0000000000000000000 ) ) ;
#151 = EDGE_CURVE ( 'NONE', #120, #144, #231, .T. ) ;
#152 = PRODUCT_DEFINITION_FORMATION_WITH_SPECIFIED_SOURCE ( 'ANY', '', #260, .NOT_KNOWN. ) ;
#153 = CARTESIAN_POINT ( 'NONE',  ( 0.0000000000000000000, 0.0000000000000000000, 4.000000000000000000 ) ) ;
#154 = PRODUCT_DEFINITION ( 'UNKNOWN', '', #152, #129 ) ;
#155 = LINE ( 'NONE', #203, #283 ) ;
#156 = CARTESIAN_POINT ( 'NONE',  ( -0.3746249999999999858, 0.0000000000000000000, 9.175666142611542384E-17 ) ) ;
#157 = DIRECTION ( 'NONE',  ( -1.000000000000000000, 0.0000000000000000000, 1.224646799147352961E-16 ) ) ;
#158 = VECTOR ( 'NONE', #215, 39.37007874015748143 ) ;
#159 = LENGTH_MEASURE_WITH_UNIT ( LENGTH_MEASURE( 0.02539999999999999897 ), #49 );
#160 = LINE ( 'NONE', #40, #28 ) ;
#161 = ADVANCED_FACE ( 'NONE', ( #233 ), #178, .T. ) ;
#162 = DIRECTION ( 'NONE',  ( 0.0000000000000000000, 0.0000000000000000000, -1.000000000000000000 ) ) ;
#163 = STYLED_ITEM ( 'NONE', ( #195 ), #47 ) ;
#164 =( NAMED_UNIT ( * ) PLANE_ANGLE_UNIT ( ) SI_UNIT ( $, .RADIAN. ) );
#165 = UNCERTAINTY_MEASURE_WITH_UNIT (LENGTH_MEASURE( 1.000000000000000082E-05 ), #245, 'distance_accuracy_value', 'NONE');
#166 = ORIENTED_EDGE ( 'NONE', *, *, #5, .F. ) ;
#167 = AXIS2_PLACEMENT_3D ( 'NONE', #153, #246, #38 ) ;
#168 = ORIENTED_EDGE ( 'NONE', *, *, #248, .F. ) ;
#169 = DIRECTION ( 'NONE',  ( 0.7071067811865426878, 8.659560562354873694E-17, -0.7071067811865523467 ) ) ;
#170 = AXIS2_PLACEMENT_3D ( 'NONE', #230, #109, #66 ) ;
#171 = AXIS2_PLACEMENT_3D ( 'NONE', #125, #244, #223 ) ;
#172 = DIRECTION ( 'NONE',  ( -1.000000000000000000, 0.0000000000000000000, 1.224646799147352961E-16 ) ) ;
#173 = DIRECTION ( 'NONE',  ( -0.0000000000000000000, -0.0000000000000000000, -1.000000000000000000 ) ) ;
#174 = VERTEX_POINT ( 'NONE', #27 ) ;
#175 = DIRECTION ( 'NONE',  ( -1.224646799147353207E-16, -0.0000000000000000000, -1.000000000000000000 ) ) ;
#176 = FACE_OUTER_BOUND ( 'NONE', #190, .T. ) ;
#177 = FILL_AREA_STYLE_COLOUR ( '', #17 ) ;
#178 = CONICAL_SURFACE ( 'NONE', #45, 0.3599999999999994316, 0.7853981633974415066 ) ;
#179 = ORIENTED_EDGE ( 'NONE', *, *, #151, .T. ) ;
#180 = DIRECTION ( 'NONE',  ( 0.0000000000000000000, 0.0000000000000000000, -1.000000000000000000 ) ) ;
#181 = CARTESIAN_POINT ( 'NONE',  ( -0.3599999999999994316, 0.0000000000000000000, 4.000000000000000000 ) ) ;
#182 = FACE_OUTER_BOUND ( 'NONE', #140, .T. ) ;
#183 =( LENGTH_UNIT ( ) NAMED_UNIT ( * ) SI_UNIT ( $, .METRE. ) );
#184 = DIRECTION ( 'NONE',  ( -1.224646799147353207E-16, -0.0000000000000000000, -1.000000000000000000 ) ) ;
#185 = ADVANCED_FACE ( 'NONE', ( #113 ), #211, .F. ) ;
#186 = FACE_OUTER_BOUND ( 'NONE', #285, .T. ) ;
#187 = AXIS2_PLACEMENT_3D ( 'NONE', #192, #145, #289 ) ;
#188 = AXIS2_PLACEMENT_3D ( 'NONE', #278, #111, #138 ) ;
#189 = AXIS2_PLACEMENT_3D ( 'NONE', #79, #238, #56 ) ;
#190 = EDGE_LOOP ( 'NONE', ( #235, #218 ) ) ;
#191 = ADVANCED_FACE ( 'NONE', ( #186 ), #257, .T. ) ;
#192 = CARTESIAN_POINT ( 'NONE',  ( 0.0000000000000000000, 0.0000000000000000000, 4.000000000000000000 ) ) ;
#193 = EDGE_CURVE ( 'NONE', #299, #144, #265, .T. ) ;
#194 = DIRECTION ( 'NONE',  ( 1.000000000000000000, 0.0000000000000000000, 0.0000000000000000000 ) ) ;
#195 = PRESENTATION_STYLE_ASSIGNMENT (( #101 ) ) ;
#196 = COLOUR_RGB ( '',0.7921568627450980005, 0.8196078431372548767, 0.9333333333333333481 ) ;
#197 = EDGE_LOOP ( 'NONE', ( #80, #236, #12, #243 ) ) ;
#198 = EDGE_CURVE ( 'NONE', #174, #200, #99, .T. ) ;
#199 = ORIENTED_EDGE ( 'NONE', *, *, #26, .F. ) ;
#200 = VERTEX_POINT ( 'NONE', #286 ) ;
#201 =( NAMED_UNIT ( * ) PLANE_ANGLE_UNIT ( ) SI_UNIT ( $, .RADIAN. ) );
#202 = VECTOR ( 'NONE', #169, 39.37007874015748143 ) ;
#203 = CARTESIAN_POINT ( 'NONE',  ( 0.3746250000000002633, 0.0000000000000000000, 1.500000000000000222 ) ) ;
#204 = EDGE_CURVE ( 'NONE', #267, #174, #284, .T. ) ;
#205 = DIRECTION ( 'NONE',  ( 1.000000000000000000, 0.0000000000000000000, 0.0000000000000000000 ) ) ;
#206 = FACE_OUTER_BOUND ( 'NONE', #239, .T. ) ;
#207 = AXIS2_PLACEMENT_3D ( 'NONE', #43, #255, #89 ) ;
#208 = CARTESIAN_POINT ( 'NONE',  ( 0.0000000000000000000, 0.0000000000000000000, 0.0000000000000000000 ) ) ;
#209 = EDGE_CURVE ( 'NONE', #119, #33, #8, .T. ) ;
#210 =( NAMED_UNIT ( * ) PLANE_ANGLE_UNIT ( ) SI_UNIT ( $, .RADIAN. ) );
#211 = PLANE ( 'NONE',  #135 ) ;
#212 = SHAPE_DEFINITION_REPRESENTATION ( #142, #47 ) ;
#213 = AXIS2_PLACEMENT_3D ( 'NONE', #208, #292, #21 ) ;
#214 = ORIENTED_EDGE ( 'NONE', *, *, #19, .F. ) ;
#215 = DIRECTION ( 'NONE',  ( -0.7071067811865426878, 0.0000000000000000000, -0.7071067811865523467 ) ) ;
#216 = ORIENTED_EDGE ( 'NONE', *, *, #228, .F. ) ;
#217 = SURFACE_SIDE_STYLE ('',( #63 ) ) ;
#218 = ORIENTED_EDGE ( 'NONE', *, *, #3, .T. ) ;
#219 = CARTESIAN_POINT ( 'NONE',  ( -0.3746249999999998193, 4.590129284054174246E-17, 1.500000000000000222 ) ) ;
#220 = LINE ( 'NONE', #4, #130 ) ;
#221 =( NAMED_UNIT ( * ) SI_UNIT ( $, .STERADIAN. ) SOLID_ANGLE_UNIT ( ) );
#222 = ORIENTED_EDGE ( 'NONE', *, *, #250, .F. ) ;
#223 = DIRECTION ( 'NONE',  ( 1.000000000000000000, 0.0000000000000000000, 0.0000000000000000000 ) ) ;
#224 =( NAMED_UNIT ( * ) SI_UNIT ( $, .STERADIAN. ) SOLID_ANGLE_UNIT ( ) );
#225 = CIRCLE ( 'NONE', #110, 0.3746249999999999858 ) ;
#226 = CARTESIAN_POINT ( 'NONE',  ( 1.839574692643826673E-16, 0.0000000000000000000, 1.502126730682356914 ) ) ;
#227 = SURFACE_STYLE_FILL_AREA ( #251 ) ;
#228 = EDGE_CURVE ( 'NONE', #119, #299, #242, .T. ) ;
#229 = CIRCLE ( 'NONE', #88, 0.3599999999999994316 ) ;
#230 = CARTESIAN_POINT ( 'NONE',  ( 1.836970198721030181E-16, 0.0000000000000000000, 1.500000000000000222 ) ) ;
#231 = CIRCLE ( 'NONE', #94, 0.3750000000000000555 ) ;
#232 = VECTOR ( 'NONE', #268, 39.37007874015748143 ) ;
#233 = FACE_OUTER_BOUND ( 'NONE', #106, .T. ) ;
#234 = ORIENTED_EDGE ( 'NONE', *, *, #193, .F. ) ;
#235 = ORIENTED_EDGE ( 'NONE', *, *, #209, .T. ) ;
#236 = ORIENTED_EDGE ( 'NONE', *, *, #93, .T. ) ;
#237 = AXIS2_PLACEMENT_3D ( 'NONE', #264, #100, #194 ) ;
#238 = DIRECTION ( 'NONE',  ( 0.0000000000000000000, 0.0000000000000000000, 1.000000000000000000 ) ) ;
#239 = EDGE_LOOP ( 'NONE', ( #97, #126, #199, #216 ) ) ;
#240 = CYLINDRICAL_SURFACE ( 'NONE', #187, 0.3750000000000000555 ) ;
#241 = DIRECTION ( 'NONE',  ( 0.0000000000000000000, 0.0000000000000000000, 1.000000000000000000 ) ) ;
#242 = LINE ( 'NONE', #270, #158 ) ;
#243 = ORIENTED_EDGE ( 'NONE', *, *, #85, .F. ) ;
#244 = DIRECTION ( 'NONE',  ( -1.224646799147353207E-16, -0.0000000000000000000, -1.000000000000000000 ) ) ;
#245 =( CONVERSION_BASED_UNIT ( 'INCH', #159 ) LENGTH_UNIT ( ) NAMED_UNIT ( #74 ) );
#246 = DIRECTION ( 'NONE',  ( 0.0000000000000000000, 0.0000000000000000000, 1.000000000000000000 ) ) ;
#247 = DIRECTION ( 'NONE',  ( -0.0000000000000000000, -0.0000000000000000000, -1.000000000000000000 ) ) ;
#248 = EDGE_CURVE ( 'NONE', #267, #147, #15, .T. ) ;
#249 = DIRECTION ( 'NONE',  ( -1.000000000000000000, 0.0000000000000000000, 1.224646799147352961E-16 ) ) ;
#250 = EDGE_CURVE ( 'NONE', #144, #120, #95, .T. ) ;
#251 = FILL_AREA_STYLE ('',( #112 ) ) ;
#252 = CONICAL_SURFACE ( 'NONE', #207, 0.3746250000000000413, 0.1745329251994339192 ) ;
#253 = PRESENTATION_LAYER_ASSIGNMENT (  '', '', ( #163 ) ) ;
#254 = DIRECTION ( 'NONE',  ( -0.0000000000000000000, -0.0000000000000000000, -1.000000000000000000 ) ) ;
#255 = DIRECTION ( 'NONE',  ( 1.224646799147353207E-16, 0.0000000000000000000, 1.000000000000000000 ) ) ;
#256 =( CONVERSION_BASED_UNIT ( 'INCH', #69 ) LENGTH_UNIT ( ) NAMED_UNIT ( #279 ) );
#257 = CONICAL_SURFACE ( 'NONE', #263, 0.3746250000000000413, 0.1745329251994339192 ) ;
#258 = CARTESIAN_POINT ( 'NONE',  ( 0.0000000000000000000, 0.0000000000000000000, 4.000000000000000000 ) ) ;
#259 = ADVANCED_FACE ( 'NONE', ( #37 ), #240, .T. ) ;
#260 = PRODUCT ( 'Micro_GEM-750-4', 'Micro_GEM-750-4', '', ( #48 ) ) ;
#261 = APPLICATION_PROTOCOL_DEFINITION ( 'draft international standard', 'automotive_design', 1998, #10 ) ;
#262 = PRODUCT_RELATED_PRODUCT_CATEGORY ( 'part', '', ( #260 ) ) ;
#263 = AXIS2_PLACEMENT_3D ( 'NONE', #70, #281, #53 ) ;
#264 = CARTESIAN_POINT ( 'NONE',  ( 0.0000000000000000000, 0.0000000000000000000, 3.984999999999998987 ) ) ;
#265 = LINE ( 'NONE', #58, #84 ) ;
#266 = ADVANCED_FACE ( 'NONE', ( #143 ), #60, .T. ) ;
#267 = VERTEX_POINT ( 'NONE', #219 ) ;
#268 = DIRECTION ( 'NONE',  ( -1.224646799147353207E-16, -0.0000000000000000000, -1.000000000000000000 ) ) ;
#269 = ORIENTED_EDGE ( 'NONE', *, *, #93, .F. ) ;
#270 = CARTESIAN_POINT ( 'NONE',  ( -0.3599999999999994316, 0.0000000000000000000, 4.000000000000000000 ) ) ;
#271 = PLANE ( 'NONE',  #167 ) ;
#272 = FILL_AREA_STYLE ('',( #177 ) ) ;
#273 = DIRECTION ( 'NONE',  ( 1.000000000000000000, 0.0000000000000000000, 0.0000000000000000000 ) ) ;
#274 = DIRECTION ( 'NONE',  ( 1.000000000000000000, 0.0000000000000000000, 0.0000000000000000000 ) ) ;
#275 = CARTESIAN_POINT ( 'NONE',  ( 5.618475085796983064E-33, 0.0000000000000000000, 4.587833071305771192E-17 ) ) ;
#276 = STYLED_ITEM ( 'NONE', ( #90 ), #132 ) ;
#277 = CARTESIAN_POINT ( 'NONE',  ( 0.0000000000000000000, 0.0000000000000000000, 3.984999999999998987 ) ) ;
#278 = CARTESIAN_POINT ( 'NONE',  ( 0.0000000000000000000, 0.0000000000000000000, 0.0000000000000000000 ) ) ;
#279 = DIMENSIONAL_EXPONENTS ( 1.000000000000000000, 0.0000000000000000000, 0.0000000000000000000, 0.0000000000000000000, 0.0000000000000000000, 0.0000000000000000000, 0.0000000000000000000 ) ;
#280 = ORIENTED_EDGE ( 'NONE', *, *, #198, .T. ) ;
#281 = DIRECTION ( 'NONE',  ( 1.224646799147353207E-16, 0.0000000000000000000, 1.000000000000000000 ) ) ;
#282 = CARTESIAN_POINT ( 'NONE',  ( 5.618475085796983064E-33, 0.0000000000000000000, 4.587833071305771192E-17 ) ) ;
#283 = VECTOR ( 'NONE', #291, 39.37007874015748143 ) ;
#284 = CIRCLE ( 'NONE', #294, 0.3746250000000000413 ) ;
#285 = EDGE_LOOP ( 'NONE', ( #82, #72, #51, #104 ) ) ;
#286 = CARTESIAN_POINT ( 'NONE',  ( 0.3746249999999999858, 4.587833071305771192E-17, 0.0000000000000000000 ) ) ;
#287 = ORIENTED_EDGE ( 'NONE', *, *, #85, .T. ) ;
#288 = CARTESIAN_POINT ( 'NONE',  ( 0.0000000000000000000, 0.0000000000000000000, 4.000000000000000000 ) ) ;
#289 = DIRECTION ( 'NONE',  ( -1.000000000000000000, 0.0000000000000000000, 0.0000000000000000000 ) ) ;
#290 = CARTESIAN_POINT ( 'NONE',  ( 0.3750000000000000555, 4.592425496802575451E-17, 3.984999999999998987 ) ) ;
#291 = DIRECTION ( 'NONE',  ( 0.1736481776669314137, 0.0000000000000000000, 0.9848077530122077983 ) ) ;
#292 = DIRECTION ( 'NONE',  ( -1.224646799147353207E-16, -0.0000000000000000000, -1.000000000000000000 ) ) ;
#293 = AXIS2_PLACEMENT_3D ( 'NONE', #282, #78, #172 ) ;
#294 = AXIS2_PLACEMENT_3D ( 'NONE', #39, #175, #150 ) ;
#295 = SURFACE_SIDE_STYLE ('',( #227 ) ) ;
#296 = CARTESIAN_POINT ( 'NONE',  ( 0.0000000000000000000, 0.0000000000000000000, 0.0000000000000000000 ) ) ;
#297 = UNCERTAINTY_MEASURE_WITH_UNIT (LENGTH_MEASURE( 1.000000000000000082E-05 ), #9, 'distance_accuracy_value', 'NONE');
#298 = CIRCLE ( 'NONE', #170, 0.3746250000000000413 ) ;
#299 = VERTEX_POINT ( 'NONE', #148 ) ;
ENDSEC;
END-ISO-10303-21;
