ISO-10303-21;
HEADER;
FILE_DESCRIPTION (( 'STEP AP214' ),
    '1' );
FILE_NAME ('86065.STEP',
    '2023-06-23T16:12:43',
    ( '' ),
    ( '' ),
    'SwSTEP 2.0',
    'SolidWorks 2023',
    '' );
FILE_SCHEMA (( 'AUTOMOTIVE_DESIGN' ));
ENDSEC;

DATA;
#1 = CYLINDRICAL_SURFACE ( 'NONE', #283, 0.1250000000000000000 ) ;
#2 =( CONVERSION_BASED_UNIT ( 'INCH', #152 ) LENGTH_UNIT ( ) NAMED_UNIT ( #67 ) );
#3 = AXIS2_PLACEMENT_3D ( 'NONE', #56, #53, #263 ) ;
#4 = CARTESIAN_POINT ( 'NONE',  ( 0.1250000000000000000, 4.000000000000000000, 1.530808498934191201E-17 ) ) ;
#5 = FILL_AREA_STYLE_COLOUR ( '', #209 ) ;
#6 = DIRECTION ( 'NONE',  ( 0.000000000000000000, 0.000000000000000000, -1.000000000000000000 ) ) ;
#7 =( CONVERSION_BASED_UNIT ( 'INCH', #173 ) LENGTH_UNIT ( ) NAMED_UNIT ( #230 ) );
#8 = FACE_OUTER_BOUND ( 'NONE', #36, .T. ) ;
#9 = ORIENTED_EDGE ( 'NONE', *, *, #24, .F. ) ;
#10 = PRESENTATION_LAYER_ASSIGNMENT (  '', '', ( #279 ) ) ;
#11 = CIRCLE ( 'NONE', #141, 0.1250000000000000000 ) ;
#12 = CARTESIAN_POINT ( 'NONE',  ( 0.1250000000000000000, 4.000000000000000000, 0.000000000000000000 ) ) ;
#13 = EDGE_LOOP ( 'NONE', ( #201, #299, #134, #177 ) ) ;
#14 = ORIENTED_EDGE ( 'NONE', *, *, #146, .F. ) ;
#15 = PRODUCT_DEFINITION_SHAPE ( 'NONE', 'NONE',  #82 ) ;
#16 =( LENGTH_UNIT ( ) NAMED_UNIT ( * ) SI_UNIT ( $, .METRE. ) );
#17 =( GEOMETRIC_REPRESENTATION_CONTEXT ( 3 ) GLOBAL_UNCERTAINTY_ASSIGNED_CONTEXT ( ( #205 ) ) GLOBAL_UNIT_ASSIGNED_CONTEXT ( ( #95, #251, #254 ) ) REPRESENTATION_CONTEXT ( 'NONE', 'WORKASPACE' ) );
#18 = SHAPE_DEFINITION_REPRESENTATION ( #15, #220 ) ;
#19 = FILL_AREA_STYLE ('',( #163 ) ) ;
#20 = PRODUCT_RELATED_PRODUCT_CATEGORY ( 'part', '', ( #119 ) ) ;
#21 = DIRECTION ( 'NONE',  ( -1.000000000000000000, 0.000000000000000000, 0.000000000000000000 ) ) ;
#22 = STYLED_ITEM ( 'NONE', ( #66 ), #289 ) ;
#23 =( NAMED_UNIT ( * ) PLANE_ANGLE_UNIT ( ) SI_UNIT ( $, .RADIAN. ) );
#24 = EDGE_CURVE ( 'NONE', #157, #68, #99, .T. ) ;
#25 =( LENGTH_UNIT ( ) NAMED_UNIT ( * ) SI_UNIT ( $, .METRE. ) );
#26 = CIRCLE ( 'NONE', #302, 0.1249999999999998751 ) ;
#27 = CARTESIAN_POINT ( 'NONE',  ( 1.530808498934191509E-17, 0.000000000000000000, 0.1250000000000000000 ) ) ;
#28 = MECHANICAL_DESIGN_GEOMETRIC_PRESENTATION_REPRESENTATION (  '', ( #22 ), #79 ) ;
#29 = SURFACE_STYLE_FILL_AREA ( #286 ) ;
#30 = SURFACE_SIDE_STYLE ('',( #60 ) ) ;
#31 = CIRCLE ( 'NONE', #260, 0.1250000000000000000 ) ;
#32 = SURFACE_SIDE_STYLE ('',( #128 ) ) ;
#33 = EDGE_LOOP ( 'NONE', ( #41, #248, #271, #180 ) ) ;
#34 = SURFACE_STYLE_USAGE ( .BOTH. , #90 ) ;
#35 = EDGE_CURVE ( 'NONE', #144, #153, #215, .T. ) ;
#36 = EDGE_LOOP ( 'NONE', ( #39, #295 ) ) ;
#37 = UNCERTAINTY_MEASURE_WITH_UNIT (LENGTH_MEASURE( 1.000000000000000082E-05 ), #7, 'distance_accuracy_value', 'NONE');
#38 = DIRECTION ( 'NONE',  ( 6.123233995736766036E-17, 1.000000000000000000, -0.000000000000000000 ) ) ;
#39 = ORIENTED_EDGE ( 'NONE', *, *, #146, .T. ) ;
#40 = AXIS2_PLACEMENT_3D ( 'NONE', #73, #97, #208 ) ;
#41 = ORIENTED_EDGE ( 'NONE', *, *, #270, .T. ) ;
#42 = ADVANCED_FACE ( 'NONE', ( #164 ), #143, .T. ) ;
#43 = DIMENSIONAL_EXPONENTS ( 1.000000000000000000, 0.000000000000000000, 0.000000000000000000, 0.000000000000000000, 0.000000000000000000, 0.000000000000000000, 0.000000000000000000 ) ;
#44 = AXIS2_PLACEMENT_3D ( 'NONE', #86, #170, #240 ) ;
#45 =( GEOMETRIC_REPRESENTATION_CONTEXT ( 3 ) GLOBAL_UNCERTAINTY_ASSIGNED_CONTEXT ( ( #37 ) ) GLOBAL_UNIT_ASSIGNED_CONTEXT ( ( #7, #309, #294 ) ) REPRESENTATION_CONTEXT ( 'NONE', 'WORKASPACE' ) );
#46 = DIRECTION ( 'NONE',  ( -1.000000000000000000, 0.000000000000000000, 0.000000000000000000 ) ) ;
#47 = SURFACE_SIDE_STYLE ('',( #104 ) ) ;
#48 = DIRECTION ( 'NONE',  ( 1.000000000000000000, 0.000000000000000000, 0.000000000000000000 ) ) ;
#49 = STYLED_ITEM ( 'NONE', ( #113 ), #204 ) ;
#50 = PRESENTATION_STYLE_ASSIGNMENT (( #237 ) ) ;
#51 = AXIS2_PLACEMENT_3D ( 'NONE', #211, #300, #166 ) ;
#52 = ADVANCED_FACE ( 'NONE', ( #206 ), #105, .T. ) ;
#53 = DIRECTION ( 'NONE',  ( 6.123233995736766036E-17, 1.000000000000000000, -0.000000000000000000 ) ) ;
#54 = PLANE ( 'NONE',  #210 ) ;
#55 = PRESENTATION_LAYER_ASSIGNMENT (  '', '', ( #49 ) ) ;
#56 = CARTESIAN_POINT ( 'NONE',  ( 0.000000000000000000, 2.000000000000000000, 0.000000000000000000 ) ) ;
#57 = DIRECTION ( 'NONE',  ( 0.000000000000000000, 0.000000000000000000, -1.000000000000000000 ) ) ;
#58 = DIRECTION ( 'NONE',  ( 6.123233995736766036E-17, 1.000000000000000000, -0.000000000000000000 ) ) ;
#59 = DIRECTION ( 'NONE',  ( 6.123233995736766036E-17, 1.000000000000000000, -0.000000000000000000 ) ) ;
#60 = SURFACE_STYLE_FILL_AREA ( #61 ) ;
#61 = FILL_AREA_STYLE ('',( #5 ) ) ;
#62 = VERTEX_POINT ( 'NONE', #186 ) ;
#63 = DIRECTION ( 'NONE',  ( 0.000000000000000000, -1.000000000000000000, -0.000000000000000000 ) ) ;
#64 = ORIENTED_EDGE ( 'NONE', *, *, #270, .F. ) ;
#65 = MECHANICAL_DESIGN_GEOMETRIC_PRESENTATION_REPRESENTATION (  '', ( #253 ), #264 ) ;
#66 = PRESENTATION_STYLE_ASSIGNMENT (( #34 ) ) ;
#67 = DIMENSIONAL_EXPONENTS ( 1.000000000000000000, 0.000000000000000000, 0.000000000000000000, 0.000000000000000000, 0.000000000000000000, 0.000000000000000000, 0.000000000000000000 ) ;
#68 = VERTEX_POINT ( 'NONE', #212 ) ;
#69 = MECHANICAL_DESIGN_GEOMETRIC_PRESENTATION_REPRESENTATION (  '', ( #149 ), #45 ) ;
#70 = CYLINDRICAL_SURFACE ( 'NONE', #112, 0.1249999999999999306 ) ;
#71 = DIRECTION ( 'NONE',  ( -0.000000000000000000, -1.000000000000000000, -0.000000000000000000 ) ) ;
#72 = SURFACE_STYLE_FILL_AREA ( #167 ) ;
#73 = CARTESIAN_POINT ( 'NONE',  ( 0.000000000000000000, 0.000000000000000000, 0.000000000000000000 ) ) ;
#74 = MECHANICAL_DESIGN_GEOMETRIC_PRESENTATION_REPRESENTATION (  '', ( #49 ), #175 ) ;
#75 = EDGE_CURVE ( 'NONE', #117, #157, #31, .T. ) ;
#76 =( LENGTH_UNIT ( ) NAMED_UNIT ( * ) SI_UNIT ( $, .METRE. ) );
#77 = DIMENSIONAL_EXPONENTS ( 1.000000000000000000, 0.000000000000000000, 0.000000000000000000, 0.000000000000000000, 0.000000000000000000, 0.000000000000000000, 0.000000000000000000 ) ;
#78 = DIRECTION ( 'NONE',  ( 6.123233995736766036E-17, 1.000000000000000000, -0.000000000000000000 ) ) ;
#79 =( GEOMETRIC_REPRESENTATION_CONTEXT ( 3 ) GLOBAL_UNCERTAINTY_ASSIGNED_CONTEXT ( ( #277 ) ) GLOBAL_UNIT_ASSIGNED_CONTEXT ( ( #176, #233, #120 ) ) REPRESENTATION_CONTEXT ( 'NONE', 'WORKASPACE' ) );
#80 = AXIS2_PLACEMENT_3D ( 'NONE', #185, #122, #48 ) ;
#81 = LINE ( 'NONE', #147, #118 ) ;
#82 = PRODUCT_DEFINITION ( 'UNKNOWN', '', #150, #221 ) ;
#83 = SURFACE_SIDE_STYLE ('',( #29 ) ) ;
#84 = DIRECTION ( 'NONE',  ( -0.000000000000000000, -1.000000000000000000, -0.000000000000000000 ) ) ;
#85 = AXIS2_PLACEMENT_3D ( 'NONE', #303, #125, #235 ) ;
#86 = CARTESIAN_POINT ( 'NONE',  ( 2.343374660409152512E-34, 2.000000000000000000, 0.000000000000000000 ) ) ;
#87 = LINE ( 'NONE', #27, #88 ) ;
#88 = VECTOR ( 'NONE', #111, 39.37007874015748143 ) ;
#89 = EDGE_LOOP ( 'NONE', ( #226, #276 ) ) ;
#90 = SURFACE_SIDE_STYLE ('',( #198 ) ) ;
#91 = ORIENTED_EDGE ( 'NONE', *, *, #197, .T. ) ;
#92 = FACE_OUTER_BOUND ( 'NONE', #274, .T. ) ;
#93 = ORIENTED_EDGE ( 'NONE', *, *, #24, .T. ) ;
#94 = PRESENTATION_LAYER_ASSIGNMENT (  '', '', ( #22 ) ) ;
#95 =( CONVERSION_BASED_UNIT ( 'INCH', #261 ) LENGTH_UNIT ( ) NAMED_UNIT ( #77 ) );
#96 = UNCERTAINTY_MEASURE_WITH_UNIT (LENGTH_MEASURE( 1.000000000000000082E-05 ), #281, 'distance_accuracy_value', 'NONE');
#97 = DIRECTION ( 'NONE',  ( -0.000000000000000000, -1.000000000000000000, -0.000000000000000000 ) ) ;
#98 = DIMENSIONAL_EXPONENTS ( 1.000000000000000000, 0.000000000000000000, 0.000000000000000000, 0.000000000000000000, 0.000000000000000000, 0.000000000000000000, 0.000000000000000000 ) ;
#99 = LINE ( 'NONE', #306, #145 ) ;
#100 = APPLICATION_PROTOCOL_DEFINITION ( 'draft international standard', 'automotive_design', 1998, #200 ) ;
#101 = PRESENTATION_STYLE_ASSIGNMENT (( #162 ) ) ;
#102 = AXIS2_PLACEMENT_3D ( 'NONE', #181, #179, #156 ) ;
#103 = LENGTH_MEASURE_WITH_UNIT ( LENGTH_MEASURE( 0.02539999999999999897 ), #124 );
#104 = SURFACE_STYLE_FILL_AREA ( #19 ) ;
#105 = CYLINDRICAL_SURFACE ( 'NONE', #110, 0.1249999999999999306 ) ;
#106 =( NAMED_UNIT ( * ) PLANE_ANGLE_UNIT ( ) SI_UNIT ( $, .RADIAN. ) );
#107 = CARTESIAN_POINT ( 'NONE',  ( 0.1250000000000000000, 2.000000000000000000, 1.530808498934191201E-17 ) ) ;
#108 = FACE_OUTER_BOUND ( 'NONE', #297, .T. ) ;
#109 =( LENGTH_UNIT ( ) NAMED_UNIT ( * ) SI_UNIT ( $, .METRE. ) );
#110 = AXIS2_PLACEMENT_3D ( 'NONE', #140, #257, #21 ) ;
#111 = DIRECTION ( 'NONE',  ( -0.000000000000000000, -1.000000000000000000, -0.000000000000000000 ) ) ;
#112 = AXIS2_PLACEMENT_3D ( 'NONE', #298, #38, #246 ) ;
#113 = PRESENTATION_STYLE_ASSIGNMENT (( #238 ) ) ;
#114 = MANIFOLD_SOLID_BREP ( 'Revolve - Tool Body (Straight Shanked)', #139 ) ;
#115 = ORIENTED_EDGE ( 'NONE', *, *, #197, .F. ) ;
#116 = COLOUR_RGB ( '',1.000000000000000000, 0.000000000000000000, 0.000000000000000000 ) ;
#117 = VERTEX_POINT ( 'NONE', #107 ) ;
#118 = VECTOR ( 'NONE', #59, 39.37007874015748143 ) ;
#119 = PRODUCT ( '86065', '86065', '', ( #165 ) ) ;
#120 =( NAMED_UNIT ( * ) SI_UNIT ( $, .STERADIAN. ) SOLID_ANGLE_UNIT ( ) );
#121 = SURFACE_SIDE_STYLE ('',( #72 ) ) ;
#122 = DIRECTION ( 'NONE',  ( 0.000000000000000000, 0.000000000000000000, 1.000000000000000000 ) ) ;
#123 = COLOUR_RGB ( '',0.7921568627450980005, 0.8196078431372548767, 0.9333333333333333481 ) ;
#124 =( LENGTH_UNIT ( ) NAMED_UNIT ( * ) SI_UNIT ( $, .METRE. ) );
#125 = DIRECTION ( 'NONE',  ( -0.000000000000000000, -1.000000000000000000, -0.000000000000000000 ) ) ;
#126 = PLANE ( 'NONE',  #44 ) ;
#127 = CARTESIAN_POINT ( 'NONE',  ( 1.530808498934191509E-17, 2.000000000000000000, 0.1250000000000000000 ) ) ;
#128 = SURFACE_STYLE_FILL_AREA ( #216 ) ;
#129 = CARTESIAN_POINT ( 'NONE',  ( 0.000000000000000000, 0.000000000000000000, 0.000000000000000000 ) ) ;
#130 = UNCERTAINTY_MEASURE_WITH_UNIT (LENGTH_MEASURE( 1.000000000000000082E-05 ), #148, 'distance_accuracy_value', 'NONE');
#131 = LENGTH_MEASURE_WITH_UNIT ( LENGTH_MEASURE( 0.02539999999999999897 ), #305 );
#132 = CARTESIAN_POINT ( 'NONE',  ( 0.000000000000000000, 0.000000000000000000, 0.000000000000000000 ) ) ;
#133 = ORIENTED_EDGE ( 'NONE', *, *, #75, .F. ) ;
#134 = ORIENTED_EDGE ( 'NONE', *, *, #135, .T. ) ;
#135 = EDGE_CURVE ( 'NONE', #62, #144, #236, .T. ) ;
#136 = DIRECTION ( 'NONE',  ( 1.000000000000000000, -6.123233995736766036E-17, 0.000000000000000000 ) ) ;
#137 = FILL_AREA_STYLE ('',( #224 ) ) ;
#138 = UNCERTAINTY_MEASURE_WITH_UNIT (LENGTH_MEASURE( 1.000000000000000082E-05 ), #184, 'distance_accuracy_value', 'NONE');
#139 = CLOSED_SHELL ( 'NONE', ( #52, #213, #259, #280 ) ) ;
#140 = CARTESIAN_POINT ( 'NONE',  ( 1.224646799147353207E-16, 4.000000000000000000, 0.000000000000000000 ) ) ;
#141 = AXIS2_PLACEMENT_3D ( 'NONE', #291, #71, #269 ) ;
#142 = CIRCLE ( 'NONE', #3, 0.1250000000000000000 ) ;
#143 = PLANE ( 'NONE',  #193 ) ;
#144 = VERTEX_POINT ( 'NONE', #265 ) ;
#145 = VECTOR ( 'NONE', #262, 39.37007874015748143 ) ;
#146 = EDGE_CURVE ( 'NONE', #68, #161, #26, .T. ) ;
#147 = CARTESIAN_POINT ( 'NONE',  ( 0.1250000000000000555, 4.000000000000000000, 1.530808498934190893E-17 ) ) ;
#148 =( CONVERSION_BASED_UNIT ( 'INCH', #131 ) LENGTH_UNIT ( ) NAMED_UNIT ( #98 ) );
#149 = STYLED_ITEM ( 'NONE', ( #195 ), #249 ) ;
#150 = PRODUCT_DEFINITION_FORMATION_WITH_SPECIFIED_SOURCE ( 'ANY', '', #119, .NOT_KNOWN. ) ;
#151 = CARTESIAN_POINT ( 'NONE',  ( 1.530808498934191509E-17, 0.000000000000000000, 0.1250000000000000000 ) ) ;
#152 = LENGTH_MEASURE_WITH_UNIT ( LENGTH_MEASURE( 0.02539999999999999897 ), #25 );
#153 = VERTEX_POINT ( 'NONE', #151 ) ;
#154 = FACE_OUTER_BOUND ( 'NONE', #13, .T. ) ;
#155 = EDGE_LOOP ( 'NONE', ( #273, #91, #14, #9 ) ) ;
#156 = DIRECTION ( 'NONE',  ( 0.000000000000000000, 0.000000000000000000, -1.000000000000000000 ) ) ;
#157 = VERTEX_POINT ( 'NONE', #242 ) ;
#158 = AXIS2_PLACEMENT_3D ( 'NONE', #12, #250, #136 ) ;
#159 = DIMENSIONAL_EXPONENTS ( 1.000000000000000000, 0.000000000000000000, 0.000000000000000000, 0.000000000000000000, 0.000000000000000000, 0.000000000000000000, 0.000000000000000000 ) ;
#160 =( LENGTH_UNIT ( ) NAMED_UNIT ( * ) SI_UNIT ( $, .METRE. ) );
#161 = VERTEX_POINT ( 'NONE', #4 ) ;
#162 = SURFACE_STYLE_USAGE ( .BOTH. , #121 ) ;
#163 = FILL_AREA_STYLE_COLOUR ( '', #296 ) ;
#164 = FACE_OUTER_BOUND ( 'NONE', #196, .T. ) ;
#165 = PRODUCT_CONTEXT ( 'NONE', #200, 'mechanical' ) ;
#166 = DIRECTION ( 'NONE',  ( -1.000000000000000000, 0.000000000000000000, 0.000000000000000000 ) ) ;
#167 = FILL_AREA_STYLE ('',( #234 ) ) ;
#168 = CIRCLE ( 'NONE', #51, 0.1249999999999998751 ) ;
#169 = DIRECTION ( 'NONE',  ( -1.000000000000000000, 0.000000000000000000, 0.000000000000000000 ) ) ;
#170 = DIRECTION ( 'NONE',  ( 6.123233995736766036E-17, 1.000000000000000000, -0.000000000000000000 ) ) ;
#171 = MECHANICAL_DESIGN_GEOMETRIC_PRESENTATION_REPRESENTATION (  '', ( #202 ), #290 ) ;
#172 = CARTESIAN_POINT ( 'NONE',  ( 0.000000000000000000, 0.000000000000000000, 0.000000000000000000 ) ) ;
#173 = LENGTH_MEASURE_WITH_UNIT ( LENGTH_MEASURE( 0.02539999999999999897 ), #109 );
#174 = UNCERTAINTY_MEASURE_WITH_UNIT (LENGTH_MEASURE( 1.000000000000000082E-05 ), #2, 'distance_accuracy_value', 'NONE');
#175 =( GEOMETRIC_REPRESENTATION_CONTEXT ( 3 ) GLOBAL_UNCERTAINTY_ASSIGNED_CONTEXT ( ( #174 ) ) GLOBAL_UNIT_ASSIGNED_CONTEXT ( ( #2, #106, #284 ) ) REPRESENTATION_CONTEXT ( 'NONE', 'WORKASPACE' ) );
#176 =( CONVERSION_BASED_UNIT ( 'INCH', #203 ) LENGTH_UNIT ( ) NAMED_UNIT ( #159 ) );
#177 = ORIENTED_EDGE ( 'NONE', *, *, #183, .F. ) ;
#178 = COLOUR_RGB ( '',0.7921568627450980005, 0.8196078431372548767, 0.9333333333333333481 ) ;
#179 = DIRECTION ( 'NONE',  ( -0.000000000000000000, -1.000000000000000000, -0.000000000000000000 ) ) ;
#180 = ORIENTED_EDGE ( 'NONE', *, *, #135, .F. ) ;
#181 = CARTESIAN_POINT ( 'NONE',  ( 0.000000000000000000, 2.000000000000000000, 0.000000000000000000 ) ) ;
#182 = APPLICATION_PROTOCOL_DEFINITION ( 'draft international standard', 'automotive_design', 1998, #190 ) ;
#183 = EDGE_CURVE ( 'NONE', #153, #144, #239, .T. ) ;
#184 =( CONVERSION_BASED_UNIT ( 'INCH', #214 ) LENGTH_UNIT ( ) NAMED_UNIT ( #43 ) );
#185 = CARTESIAN_POINT ( 'NONE',  ( 0.000000000000000000, 0.000000000000000000, 0.000000000000000000 ) ) ;
#186 = CARTESIAN_POINT ( 'NONE',  ( 0.000000000000000000, 2.000000000000000000, -0.1250000000000000000 ) ) ;
#187 = PRESENTATION_LAYER_ASSIGNMENT (  '', '', ( #202 ) ) ;
#188 = CARTESIAN_POINT ( 'NONE',  ( 0.000000000000000000, 2.000000000000000000, 0.000000000000000000 ) ) ;
#189 = PRESENTATION_LAYER_ASSIGNMENT (  '', '', ( #149 ) ) ;
#190 = APPLICATION_CONTEXT ( 'automotive_design' ) ;
#191 = FILL_AREA_STYLE_COLOUR ( '', #116 ) ;
#192 = EDGE_CURVE ( 'NONE', #157, #117, #142, .T. ) ;
#193 = AXIS2_PLACEMENT_3D ( 'NONE', #307, #278, #252 ) ;
#194 = SURFACE_STYLE_USAGE ( .BOTH. , #83 ) ;
#195 = PRESENTATION_STYLE_ASSIGNMENT (( #219 ) ) ;
#196 = EDGE_LOOP ( 'NONE', ( #64, #228 ) ) ;
#197 = EDGE_CURVE ( 'NONE', #117, #161, #81, .T. ) ;
#198 = SURFACE_STYLE_FILL_AREA ( #137 ) ;
#199 = ORIENTED_EDGE ( 'NONE', *, *, #292, .F. ) ;
#200 = APPLICATION_CONTEXT ( 'automotive_design' ) ;
#201 = ORIENTED_EDGE ( 'NONE', *, *, #225, .F. ) ;
#202 = STYLED_ITEM ( 'NONE', ( #101 ), #114 ) ;
#203 = LENGTH_MEASURE_WITH_UNIT ( LENGTH_MEASURE( 0.02539999999999999897 ), #160 );
#204 = MANIFOLD_SOLID_BREP ( 'Revolve - Cutting Edge', #244 ) ;
#205 = UNCERTAINTY_MEASURE_WITH_UNIT (LENGTH_MEASURE( 1.000000000000000082E-05 ), #95, 'distance_accuracy_value', 'NONE');
#206 = FACE_OUTER_BOUND ( 'NONE', #155, .T. ) ;
#207 = DIMENSIONAL_EXPONENTS ( 1.000000000000000000, 0.000000000000000000, 0.000000000000000000, 0.000000000000000000, 0.000000000000000000, 0.000000000000000000, 0.000000000000000000 ) ;
#208 = DIRECTION ( 'NONE',  ( 0.000000000000000000, 0.000000000000000000, -1.000000000000000000 ) ) ;
#209 = COLOUR_RGB ( '',1.000000000000000000, 0.000000000000000000, 0.000000000000000000 ) ;
#210 = AXIS2_PLACEMENT_3D ( 'NONE', #132, #63, #275 ) ;
#211 = CARTESIAN_POINT ( 'NONE',  ( 1.224646799147353207E-16, 4.000000000000000000, 0.000000000000000000 ) ) ;
#212 = CARTESIAN_POINT ( 'NONE',  ( -0.1249999999999997641, 4.000000000000000000, 0.000000000000000000 ) ) ;
#213 = ADVANCED_FACE ( 'NONE', ( #108 ), #126, .F. ) ;
#214 = LENGTH_MEASURE_WITH_UNIT ( LENGTH_MEASURE( 0.02539999999999999897 ), #76 );
#215 = CIRCLE ( 'NONE', #85, 0.1250000000000000000 ) ;
#216 = FILL_AREA_STYLE ('',( #308 ) ) ;
#217 = FACE_OUTER_BOUND ( 'NONE', #33, .T. ) ;
#218 = CARTESIAN_POINT ( 'NONE',  ( 0.000000000000000000, 0.000000000000000000, -0.1250000000000000000 ) ) ;
#219 = SURFACE_STYLE_USAGE ( .BOTH. , #30 ) ;
#220 = ADVANCED_BREP_SHAPE_REPRESENTATION ( '86065', ( #204, #114, #80 ), #17 ) ;
#221 = PRODUCT_DEFINITION_CONTEXT ( 'detailed design', #190, 'design' ) ;
#222 = DIRECTION ( 'NONE',  ( -0.000000000000000000, -1.000000000000000000, -0.000000000000000000 ) ) ;
#223 =( NAMED_UNIT ( * ) SI_UNIT ( $, .STERADIAN. ) SOLID_ANGLE_UNIT ( ) );
#224 = FILL_AREA_STYLE_COLOUR ( '', #256 ) ;
#225 = EDGE_CURVE ( 'NONE', #232, #153, #87, .T. ) ;
#226 = ORIENTED_EDGE ( 'NONE', *, *, #35, .T. ) ;
#227 = MECHANICAL_DESIGN_GEOMETRIC_PRESENTATION_REPRESENTATION (  '', ( #279 ), #304 ) ;
#228 = ORIENTED_EDGE ( 'NONE', *, *, #285, .F. ) ;
#229 = PLANE ( 'NONE',  #158 ) ;
#230 = DIMENSIONAL_EXPONENTS ( 1.000000000000000000, 0.000000000000000000, 0.000000000000000000, 0.000000000000000000, 0.000000000000000000, 0.000000000000000000, 0.000000000000000000 ) ;
#231 = CYLINDRICAL_SURFACE ( 'NONE', #40, 0.1250000000000000000 ) ;
#232 = VERTEX_POINT ( 'NONE', #127 ) ;
#233 =( NAMED_UNIT ( * ) PLANE_ANGLE_UNIT ( ) SI_UNIT ( $, .RADIAN. ) );
#234 = FILL_AREA_STYLE_COLOUR ( '', #123 ) ;
#235 = DIRECTION ( 'NONE',  ( 0.000000000000000000, 0.000000000000000000, -1.000000000000000000 ) ) ;
#236 = LINE ( 'NONE', #218, #247 ) ;
#237 = SURFACE_STYLE_USAGE ( .BOTH. , #47 ) ;
#238 = SURFACE_STYLE_USAGE ( .BOTH. , #32 ) ;
#239 = CIRCLE ( 'NONE', #272, 0.1250000000000000000 ) ;
#240 = DIRECTION ( 'NONE',  ( -1.000000000000000000, 6.123233995736766036E-17, 0.000000000000000000 ) ) ;
#241 = DIRECTION ( 'NONE',  ( -0.000000000000000000, -1.000000000000000000, -0.000000000000000000 ) ) ;
#242 = CARTESIAN_POINT ( 'NONE',  ( -0.1250000000000000000, 2.000000000000000000, 0.000000000000000000 ) ) ;
#243 = ADVANCED_FACE ( 'NONE', ( #217 ), #1, .T. ) ;
#244 = CLOSED_SHELL ( 'NONE', ( #243, #42, #289, #249 ) ) ;
#245 = ORIENTED_EDGE ( 'NONE', *, *, #192, .F. ) ;
#246 = DIRECTION ( 'NONE',  ( -1.000000000000000000, 0.000000000000000000, 0.000000000000000000 ) ) ;
#247 = VECTOR ( 'NONE', #222, 39.37007874015748143 ) ;
#248 = ORIENTED_EDGE ( 'NONE', *, *, #225, .T. ) ;
#249 = ADVANCED_FACE ( 'NONE', ( #268 ), #54, .T. ) ;
#250 = DIRECTION ( 'NONE',  ( -6.123233995736766036E-17, -1.000000000000000000, 0.000000000000000000 ) ) ;
#251 =( NAMED_UNIT ( * ) PLANE_ANGLE_UNIT ( ) SI_UNIT ( $, .RADIAN. ) );
#252 = DIRECTION ( 'NONE',  ( 0.000000000000000000, -0.000000000000000000, 1.000000000000000000 ) ) ;
#253 = STYLED_ITEM ( 'NONE', ( #50 ), #42 ) ;
#254 =( NAMED_UNIT ( * ) SI_UNIT ( $, .STERADIAN. ) SOLID_ANGLE_UNIT ( ) );
#255 =( NAMED_UNIT ( * ) SI_UNIT ( $, .STERADIAN. ) SOLID_ANGLE_UNIT ( ) );
#256 = COLOUR_RGB ( '',1.000000000000000000, 0.000000000000000000, 0.000000000000000000 ) ;
#257 = DIRECTION ( 'NONE',  ( 6.123233995736766036E-17, 1.000000000000000000, -0.000000000000000000 ) ) ;
#258 =( NAMED_UNIT ( * ) PLANE_ANGLE_UNIT ( ) SI_UNIT ( $, .RADIAN. ) );
#259 = ADVANCED_FACE ( 'NONE', ( #92 ), #70, .T. ) ;
#260 = AXIS2_PLACEMENT_3D ( 'NONE', #188, #78, #46 ) ;
#261 = LENGTH_MEASURE_WITH_UNIT ( LENGTH_MEASURE( 0.02539999999999999897 ), #16 );
#262 = DIRECTION ( 'NONE',  ( 6.123233995736766036E-17, 1.000000000000000000, -0.000000000000000000 ) ) ;
#263 = DIRECTION ( 'NONE',  ( -1.000000000000000000, 0.000000000000000000, 0.000000000000000000 ) ) ;
#264 =( GEOMETRIC_REPRESENTATION_CONTEXT ( 3 ) GLOBAL_UNCERTAINTY_ASSIGNED_CONTEXT ( ( #138 ) ) GLOBAL_UNIT_ASSIGNED_CONTEXT ( ( #184, #23, #255 ) ) REPRESENTATION_CONTEXT ( 'NONE', 'WORKASPACE' ) );
#265 = CARTESIAN_POINT ( 'NONE',  ( 0.000000000000000000, 0.000000000000000000, -0.1250000000000000000 ) ) ;
#266 = PRESENTATION_STYLE_ASSIGNMENT (( #194 ) ) ;
#267 = CARTESIAN_POINT ( 'NONE',  ( 1.224646799147353207E-16, 4.000000000000000000, 0.000000000000000000 ) ) ;
#268 = FACE_OUTER_BOUND ( 'NONE', #89, .T. ) ;
#269 = DIRECTION ( 'NONE',  ( 0.000000000000000000, 0.000000000000000000, -1.000000000000000000 ) ) ;
#270 = EDGE_CURVE ( 'NONE', #62, #232, #293, .T. ) ;
#271 = ORIENTED_EDGE ( 'NONE', *, *, #35, .F. ) ;
#272 = AXIS2_PLACEMENT_3D ( 'NONE', #172, #241, #6 ) ;
#273 = ORIENTED_EDGE ( 'NONE', *, *, #192, .T. ) ;
#274 = EDGE_LOOP ( 'NONE', ( #115, #301, #93, #199 ) ) ;
#275 = DIRECTION ( 'NONE',  ( 0.000000000000000000, 0.000000000000000000, -1.000000000000000000 ) ) ;
#276 = ORIENTED_EDGE ( 'NONE', *, *, #183, .T. ) ;
#277 = UNCERTAINTY_MEASURE_WITH_UNIT (LENGTH_MEASURE( 1.000000000000000082E-05 ), #176, 'distance_accuracy_value', 'NONE');
#278 = DIRECTION ( 'NONE',  ( 0.000000000000000000, 1.000000000000000000, 0.000000000000000000 ) ) ;
#279 = STYLED_ITEM ( 'NONE', ( #266 ), #243 ) ;
#280 = ADVANCED_FACE ( 'NONE', ( #8 ), #229, .F. ) ;
#281 =( CONVERSION_BASED_UNIT ( 'INCH', #103 ) LENGTH_UNIT ( ) NAMED_UNIT ( #207 ) );
#282 = PRESENTATION_LAYER_ASSIGNMENT (  '', '', ( #253 ) ) ;
#283 = AXIS2_PLACEMENT_3D ( 'NONE', #129, #84, #57 ) ;
#284 =( NAMED_UNIT ( * ) SI_UNIT ( $, .STERADIAN. ) SOLID_ANGLE_UNIT ( ) );
#285 = EDGE_CURVE ( 'NONE', #232, #62, #11, .T. ) ;
#286 = FILL_AREA_STYLE ('',( #191 ) ) ;
#287 =( NAMED_UNIT ( * ) PLANE_ANGLE_UNIT ( ) SI_UNIT ( $, .RADIAN. ) );
#288 =( NAMED_UNIT ( * ) SI_UNIT ( $, .STERADIAN. ) SOLID_ANGLE_UNIT ( ) );
#289 = ADVANCED_FACE ( 'NONE', ( #154 ), #231, .T. ) ;
#290 =( GEOMETRIC_REPRESENTATION_CONTEXT ( 3 ) GLOBAL_UNCERTAINTY_ASSIGNED_CONTEXT ( ( #96 ) ) GLOBAL_UNIT_ASSIGNED_CONTEXT ( ( #281, #258, #288 ) ) REPRESENTATION_CONTEXT ( 'NONE', 'WORKASPACE' ) );
#291 = CARTESIAN_POINT ( 'NONE',  ( 0.000000000000000000, 2.000000000000000000, 0.000000000000000000 ) ) ;
#292 = EDGE_CURVE ( 'NONE', #161, #68, #168, .T. ) ;
#293 = CIRCLE ( 'NONE', #102, 0.1250000000000000000 ) ;
#294 =( NAMED_UNIT ( * ) SI_UNIT ( $, .STERADIAN. ) SOLID_ANGLE_UNIT ( ) );
#295 = ORIENTED_EDGE ( 'NONE', *, *, #292, .T. ) ;
#296 = COLOUR_RGB ( '',1.000000000000000000, 0.000000000000000000, 0.000000000000000000 ) ;
#297 = EDGE_LOOP ( 'NONE', ( #245, #133 ) ) ;
#298 = CARTESIAN_POINT ( 'NONE',  ( 1.224646799147353207E-16, 4.000000000000000000, 0.000000000000000000 ) ) ;
#299 = ORIENTED_EDGE ( 'NONE', *, *, #285, .T. ) ;
#300 = DIRECTION ( 'NONE',  ( 6.123233995736766036E-17, 1.000000000000000000, -0.000000000000000000 ) ) ;
#301 = ORIENTED_EDGE ( 'NONE', *, *, #75, .T. ) ;
#302 = AXIS2_PLACEMENT_3D ( 'NONE', #267, #58, #169 ) ;
#303 = CARTESIAN_POINT ( 'NONE',  ( 0.000000000000000000, 0.000000000000000000, 0.000000000000000000 ) ) ;
#304 =( GEOMETRIC_REPRESENTATION_CONTEXT ( 3 ) GLOBAL_UNCERTAINTY_ASSIGNED_CONTEXT ( ( #130 ) ) GLOBAL_UNIT_ASSIGNED_CONTEXT ( ( #148, #287, #223 ) ) REPRESENTATION_CONTEXT ( 'NONE', 'WORKASPACE' ) );
#305 =( LENGTH_UNIT ( ) NAMED_UNIT ( * ) SI_UNIT ( $, .METRE. ) );
#306 = CARTESIAN_POINT ( 'NONE',  ( -0.1249999999999998057, 4.000000000000000000, 0.000000000000000000 ) ) ;
#307 = CARTESIAN_POINT ( 'NONE',  ( 0.000000000000000000, 2.000000000000000000, 0.000000000000000000 ) ) ;
#308 = FILL_AREA_STYLE_COLOUR ( '', #178 ) ;
#309 =( NAMED_UNIT ( * ) PLANE_ANGLE_UNIT ( ) SI_UNIT ( $, .RADIAN. ) );
ENDSEC;
END-ISO-10303-21;
