ISO-10303-21;
HEADER;
FILE_DESCRIPTION (( 'STEP AP214' ),
    '1' );
FILE_NAME ('59690.STEP',
    '2023-07-24T15:53:19',
    ( '' ),
    ( '' ),
    'SwSTEP 2.0',
    'SolidWorks 2023',
    '' );
FILE_SCHEMA (( 'AUTOMOTIVE_DESIGN' ));
ENDSEC;

DATA;
#1 = DIRECTION ( 'NONE',  ( 2.721437331438562546E-17, 1.000000000000000000, -0.000000000000000000 ) ) ;
#2 = ORIENTED_EDGE ( 'NONE', *, *, #219, .F. ) ;
#3 = CARTESIAN_POINT ( 'NONE',  ( 0.000000000000000000, 0.000000000000000000, -3.000000000000000000 ) ) ;
#4 = VERTEX_POINT ( 'NONE', #170 ) ;
#5 = SURFACE_STYLE_FILL_AREA ( #203 ) ;
#6 =( NAMED_UNIT ( * ) SI_UNIT ( $, .STERADIAN. ) SOLID_ANGLE_UNIT ( ) );
#7 = AXIS2_PLACEMENT_3D ( 'NONE', #196, #1, #201 ) ;
#8 = APPLICATION_PROTOCOL_DEFINITION ( 'draft international standard', 'automotive_design', 1998, #239 ) ;
#9 = ORIENTED_EDGE ( 'NONE', *, *, #44, .F. ) ;
#10 = EDGE_CURVE ( 'NONE', #281, #125, #127, .T. ) ;
#11 = DIRECTION ( 'NONE',  ( 2.721437331438562546E-17, 1.000000000000000000, -0.000000000000000000 ) ) ;
#12 = DIRECTION ( 'NONE',  ( -0.000000000000000000, -1.000000000000000000, -0.000000000000000000 ) ) ;
#13 = ORIENTED_EDGE ( 'NONE', *, *, #147, .F. ) ;
#14 = CIRCLE ( 'NONE', #195, 2.999999999999998668 ) ;
#15 = ADVANCED_FACE ( 'NONE', ( #107 ), #262, .T. ) ;
#16 =( NAMED_UNIT ( * ) SI_UNIT ( $, .STERADIAN. ) SOLID_ANGLE_UNIT ( ) );
#17 = ADVANCED_FACE ( 'NONE', ( #131 ), #61, .T. ) ;
#18 = EDGE_CURVE ( 'NONE', #4, #79, #288, .T. ) ;
#19 = COLOUR_RGB ( '',0.7921568627450980005, 0.8196078431372548767, 0.9333333333333333481 ) ;
#20 = COLOUR_RGB ( '',0.7921568627450980005, 0.8196078431372548767, 0.9333333333333333481 ) ;
#21 = DIRECTION ( 'NONE',  ( -0.000000000000000000, -1.000000000000000000, -0.000000000000000000 ) ) ;
#22 = MECHANICAL_DESIGN_GEOMETRIC_PRESENTATION_REPRESENTATION (  '', ( #177 ), #235 ) ;
#23 = FACE_OUTER_BOUND ( 'NONE', #243, .T. ) ;
#24 = CARTESIAN_POINT ( 'NONE',  ( 3.000000000000000444, 63.00000000000000000, 3.673940397442059868E-16 ) ) ;
#25 = PLANE ( 'NONE',  #134 ) ;
#26 = COLOUR_RGB ( '',1.000000000000000000, 0.000000000000000000, 0.000000000000000000 ) ;
#27 = AXIS2_PLACEMENT_3D ( 'NONE', #188, #160, #282 ) ;
#28 = DIRECTION ( 'NONE',  ( -0.000000000000000000, -1.000000000000000000, -0.000000000000000000 ) ) ;
#29 = DIRECTION ( 'NONE',  ( 2.721437331438562546E-17, 1.000000000000000000, -0.000000000000000000 ) ) ;
#30 = EDGE_CURVE ( 'NONE', #79, #4, #96, .T. ) ;
#31 = LINE ( 'NONE', #3, #208 ) ;
#32 = PRESENTATION_STYLE_ASSIGNMENT (( #158 ) ) ;
#33 =( NAMED_UNIT ( * ) PLANE_ANGLE_UNIT ( ) SI_UNIT ( $, .RADIAN. ) );
#34 = FACE_OUTER_BOUND ( 'NONE', #83, .T. ) ;
#35 = DIRECTION ( 'NONE',  ( -0.000000000000000000, -1.000000000000000000, -0.000000000000000000 ) ) ;
#36 = MECHANICAL_DESIGN_GEOMETRIC_PRESENTATION_REPRESENTATION (  '', ( #128 ), #216 ) ;
#37 = CARTESIAN_POINT ( 'NONE',  ( 0.000000000000000000, 0.000000000000000000, 0.000000000000000000 ) ) ;
#38 =( LENGTH_UNIT ( ) NAMED_UNIT ( * ) SI_UNIT ( .MILLI., .METRE. ) );
#39 = SURFACE_STYLE_FILL_AREA ( #168 ) ;
#40 = DIRECTION ( 'NONE',  ( -0.000000000000000000, -1.000000000000000000, -0.000000000000000000 ) ) ;
#41 = CARTESIAN_POINT ( 'NONE',  ( 0.000000000000000000, 0.000000000000000000, -3.000000000000000000 ) ) ;
#42 = AXIS2_PLACEMENT_3D ( 'NONE', #155, #12, #245 ) ;
#43 = DIRECTION ( 'NONE',  ( -1.000000000000000000, 0.000000000000000000, 0.000000000000000000 ) ) ;
#44 = EDGE_CURVE ( 'NONE', #207, #256, #14, .T. ) ;
#45 = DIRECTION ( 'NONE',  ( -0.000000000000000000, -1.000000000000000000, -0.000000000000000000 ) ) ;
#46 = SURFACE_STYLE_USAGE ( .BOTH. , #157 ) ;
#47 = LINE ( 'NONE', #222, #276 ) ;
#48 = COLOUR_RGB ( '',1.000000000000000000, 0.000000000000000000, 0.000000000000000000 ) ;
#49 = MECHANICAL_DESIGN_GEOMETRIC_PRESENTATION_REPRESENTATION (  '', ( #149 ), #111 ) ;
#50 = DIRECTION ( 'NONE',  ( -0.000000000000000000, -1.000000000000000000, -0.000000000000000000 ) ) ;
#51 =( LENGTH_UNIT ( ) NAMED_UNIT ( * ) SI_UNIT ( .MILLI., .METRE. ) );
#52 = FILL_AREA_STYLE ('',( #254 ) ) ;
#53 = ORIENTED_EDGE ( 'NONE', *, *, #18, .F. ) ;
#54 =( NAMED_UNIT ( * ) SI_UNIT ( $, .STERADIAN. ) SOLID_ANGLE_UNIT ( ) );
#55 = EDGE_LOOP ( 'NONE', ( #166, #91 ) ) ;
#56 =( NAMED_UNIT ( * ) SI_UNIT ( $, .STERADIAN. ) SOLID_ANGLE_UNIT ( ) );
#57 = EDGE_LOOP ( 'NONE', ( #277, #250, #163, #187 ) ) ;
#58 = UNCERTAINTY_MEASURE_WITH_UNIT (LENGTH_MEASURE( 1.000000000000000082E-05 ), #248, 'distance_accuracy_value', 'NONE');
#59 = PRODUCT_CONTEXT ( 'NONE', #252, 'mechanical' ) ;
#60 = AXIS2_PLACEMENT_3D ( 'NONE', #130, #213, #214 ) ;
#61 = CYLINDRICAL_SURFACE ( 'NONE', #60, 2.999999999999999112 ) ;
#62 = DIRECTION ( 'NONE',  ( 0.000000000000000000, 0.000000000000000000, -1.000000000000000000 ) ) ;
#63 = AXIS2_PLACEMENT_3D ( 'NONE', #121, #167, #255 ) ;
#64 = CARTESIAN_POINT ( 'NONE',  ( 0.000000000000000000, 9.000000000000001776, 0.000000000000000000 ) ) ;
#65 = EDGE_CURVE ( 'NONE', #210, #125, #182, .T. ) ;
#66 = STYLED_ITEM ( 'NONE', ( #154 ), #198 ) ;
#67 = DIRECTION ( 'NONE',  ( -1.000000000000000000, 0.000000000000000000, 0.000000000000000000 ) ) ;
#68 = ORIENTED_EDGE ( 'NONE', *, *, #116, .T. ) ;
#69 = SURFACE_STYLE_FILL_AREA ( #270 ) ;
#70 = CARTESIAN_POINT ( 'NONE',  ( 3.000000000000000444, 9.000000000000001776, 3.673940397442059868E-16 ) ) ;
#71 = UNCERTAINTY_MEASURE_WITH_UNIT (LENGTH_MEASURE( 1.000000000000000082E-05 ), #95, 'distance_accuracy_value', 'NONE');
#72 = DIRECTION ( 'NONE',  ( 0.000000000000000000, -1.000000000000000000, -0.000000000000000000 ) ) ;
#73 = SURFACE_SIDE_STYLE ('',( #98 ) ) ;
#74 = MECHANICAL_DESIGN_GEOMETRIC_PRESENTATION_REPRESENTATION (  '', ( #159 ), #115 ) ;
#75 =( NAMED_UNIT ( * ) PLANE_ANGLE_UNIT ( ) SI_UNIT ( $, .RADIAN. ) );
#76 = ORIENTED_EDGE ( 'NONE', *, *, #116, .F. ) ;
#77 = ORIENTED_EDGE ( 'NONE', *, *, #84, .F. ) ;
#78 = MANIFOLD_SOLID_BREP ( 'Revolve - Cutting Edge', #211 ) ;
#79 = VERTEX_POINT ( 'NONE', #70 ) ;
#80 = SURFACE_SIDE_STYLE ('',( #39 ) ) ;
#81 = FACE_OUTER_BOUND ( 'NONE', #175, .T. ) ;
#82 = FILL_AREA_STYLE_COLOUR ( '', #48 ) ;
#83 = EDGE_LOOP ( 'NONE', ( #161, #103, #101, #77 ) ) ;
#84 = EDGE_CURVE ( 'NONE', #125, #210, #139, .T. ) ;
#85 = VECTOR ( 'NONE', #35, 1000.000000000000000 ) ;
#86 = AXIS2_PLACEMENT_3D ( 'NONE', #37, #261, #206 ) ;
#87 =( NAMED_UNIT ( * ) SI_UNIT ( $, .STERADIAN. ) SOLID_ANGLE_UNIT ( ) );
#88 = EDGE_LOOP ( 'NONE', ( #199, #99, #68, #184 ) ) ;
#89 = ADVANCED_FACE ( 'NONE', ( #34 ), #126, .T. ) ;
#90 = FILL_AREA_STYLE_COLOUR ( '', #20 ) ;
#91 = ORIENTED_EDGE ( 'NONE', *, *, #137, .T. ) ;
#92 = VECTOR ( 'NONE', #11, 1000.000000000000000 ) ;
#93 = CARTESIAN_POINT ( 'NONE',  ( 0.000000000000000000, 9.000000000000000000, 0.000000000000000000 ) ) ;
#94 = SURFACE_STYLE_FILL_AREA ( #52 ) ;
#95 =( LENGTH_UNIT ( ) NAMED_UNIT ( * ) SI_UNIT ( .MILLI., .METRE. ) );
#96 = CIRCLE ( 'NONE', #232, 3.000000000000000000 ) ;
#97 = AXIS2_PLACEMENT_3D ( 'NONE', #93, #28, #200 ) ;
#98 = SURFACE_STYLE_FILL_AREA ( #273 ) ;
#99 = ORIENTED_EDGE ( 'NONE', *, *, #30, .T. ) ;
#100 = MECHANICAL_DESIGN_GEOMETRIC_PRESENTATION_REPRESENTATION (  '', ( #151 ), #238 ) ;
#101 = ORIENTED_EDGE ( 'NONE', *, *, #197, .T. ) ;
#102 =( NAMED_UNIT ( * ) PLANE_ANGLE_UNIT ( ) SI_UNIT ( $, .RADIAN. ) );
#103 = ORIENTED_EDGE ( 'NONE', *, *, #219, .T. ) ;
#104 = MECHANICAL_DESIGN_GEOMETRIC_PRESENTATION_REPRESENTATION (  '', ( #66 ), #129 ) ;
#105 = PRODUCT_DEFINITION_SHAPE ( 'NONE', 'NONE',  #108 ) ;
#106 = DIRECTION ( 'NONE',  ( -2.721437331438562546E-17, -1.000000000000000000, 0.000000000000000000 ) ) ;
#107 = FACE_OUTER_BOUND ( 'NONE', #57, .T. ) ;
#108 = PRODUCT_DEFINITION ( 'UNKNOWN', '', #110, #274 ) ;
#109 = CARTESIAN_POINT ( 'NONE',  ( 0.000000000000000000, 9.000000000000001776, 0.000000000000000000 ) ) ;
#110 = PRODUCT_DEFINITION_FORMATION_WITH_SPECIFIED_SOURCE ( 'ANY', '', #192, .NOT_KNOWN. ) ;
#111 =( GEOMETRIC_REPRESENTATION_CONTEXT ( 3 ) GLOBAL_UNCERTAINTY_ASSIGNED_CONTEXT ( ( #246 ) ) GLOBAL_UNIT_ASSIGNED_CONTEXT ( ( #123, #118, #54 ) ) REPRESENTATION_CONTEXT ( 'NONE', 'WORKASPACE' ) );
#112 = ORIENTED_EDGE ( 'NONE', *, *, #278, .T. ) ;
#113 = LINE ( 'NONE', #253, #92 ) ;
#114 = UNCERTAINTY_MEASURE_WITH_UNIT (LENGTH_MEASURE( 1.000000000000000082E-05 ), #142, 'distance_accuracy_value', 'NONE');
#115 =( GEOMETRIC_REPRESENTATION_CONTEXT ( 3 ) GLOBAL_UNCERTAINTY_ASSIGNED_CONTEXT ( ( #58 ) ) GLOBAL_UNIT_ASSIGNED_CONTEXT ( ( #248, #102, #227 ) ) REPRESENTATION_CONTEXT ( 'NONE', 'WORKASPACE' ) );
#116 = EDGE_CURVE ( 'NONE', #4, #207, #47, .T. ) ;
#117 = DIRECTION ( 'NONE',  ( 0.000000000000000000, 0.000000000000000000, -1.000000000000000000 ) ) ;
#118 =( NAMED_UNIT ( * ) PLANE_ANGLE_UNIT ( ) SI_UNIT ( $, .RADIAN. ) );
#119 = FILL_AREA_STYLE_COLOUR ( '', #26 ) ;
#120 = ADVANCED_FACE ( 'NONE', ( #202 ), #25, .T. ) ;
#121 = CARTESIAN_POINT ( 'NONE',  ( 1.110933172342116556E-33, 9.000000000000000000, 0.000000000000000000 ) ) ;
#122 = FACE_OUTER_BOUND ( 'NONE', #55, .T. ) ;
#123 =( LENGTH_UNIT ( ) NAMED_UNIT ( * ) SI_UNIT ( .MILLI., .METRE. ) );
#124 = APPLICATION_PROTOCOL_DEFINITION ( 'draft international standard', 'automotive_design', 1998, #252 ) ;
#125 = VERTEX_POINT ( 'NONE', #180 ) ;
#126 = CYLINDRICAL_SURFACE ( 'NONE', #42, 3.000000000000000000 ) ;
#127 = LINE ( 'NONE', #145, #85 ) ;
#128 = STYLED_ITEM ( 'NONE', ( #263 ), #15 ) ;
#129 =( GEOMETRIC_REPRESENTATION_CONTEXT ( 3 ) GLOBAL_UNCERTAINTY_ASSIGNED_CONTEXT ( ( #132 ) ) GLOBAL_UNIT_ASSIGNED_CONTEXT ( ( #221, #133, #87 ) ) REPRESENTATION_CONTEXT ( 'NONE', 'WORKASPACE' ) );
#130 = CARTESIAN_POINT ( 'NONE',  ( 1.469576158976823750E-15, 63.00000000000000000, 0.000000000000000000 ) ) ;
#131 = FACE_OUTER_BOUND ( 'NONE', #88, .T. ) ;
#132 = UNCERTAINTY_MEASURE_WITH_UNIT (LENGTH_MEASURE( 1.000000000000000082E-05 ), #221, 'distance_accuracy_value', 'NONE');
#133 =( NAMED_UNIT ( * ) PLANE_ANGLE_UNIT ( ) SI_UNIT ( $, .RADIAN. ) );
#134 = AXIS2_PLACEMENT_3D ( 'NONE', #244, #72, #117 ) ;
#135 = CARTESIAN_POINT ( 'NONE',  ( 0.000000000000000000, 9.000000000000000000, 0.000000000000000000 ) ) ;
#136 = PRESENTATION_STYLE_ASSIGNMENT (( #153 ) ) ;
#137 = EDGE_CURVE ( 'NONE', #256, #207, #185, .T. ) ;
#138 = PRESENTATION_STYLE_ASSIGNMENT (( #228 ) ) ;
#139 = CIRCLE ( 'NONE', #27, 3.000000000000000000 ) ;
#140 = CARTESIAN_POINT ( 'NONE',  ( 0.000000000000000000, 9.000000000000000000, 0.000000000000000000 ) ) ;
#141 = AXIS2_PLACEMENT_3D ( 'NONE', #165, #106, #162 ) ;
#142 =( LENGTH_UNIT ( ) NAMED_UNIT ( * ) SI_UNIT ( .MILLI., .METRE. ) );
#143 = EDGE_LOOP ( 'NONE', ( #194, #258 ) ) ;
#144 = SHAPE_DEFINITION_REPRESENTATION ( #105, #189 ) ;
#145 = CARTESIAN_POINT ( 'NONE',  ( 3.673940397442059868E-16, 0.000000000000000000, 3.000000000000000000 ) ) ;
#146 = AXIS2_PLACEMENT_3D ( 'NONE', #233, #40, #62 ) ;
#147 = EDGE_CURVE ( 'NONE', #212, #281, #191, .T. ) ;
#148 = DIRECTION ( 'NONE',  ( -1.000000000000000000, 0.000000000000000000, 0.000000000000000000 ) ) ;
#149 = STYLED_ITEM ( 'NONE', ( #138 ), #89 ) ;
#150 = CARTESIAN_POINT ( 'NONE',  ( 0.000000000000000000, 0.000000000000000000, 0.000000000000000000 ) ) ;
#151 = STYLED_ITEM ( 'NONE', ( #136 ), #271 ) ;
#152 = CARTESIAN_POINT ( 'NONE',  ( 1.469576158976823750E-15, 63.00000000000000000, 0.000000000000000000 ) ) ;
#153 = SURFACE_STYLE_USAGE ( .BOTH. , #272 ) ;
#154 = PRESENTATION_STYLE_ASSIGNMENT (( #46 ) ) ;
#155 = CARTESIAN_POINT ( 'NONE',  ( 0.000000000000000000, 0.000000000000000000, 0.000000000000000000 ) ) ;
#156 = PRESENTATION_LAYER_ASSIGNMENT (  '', '', ( #128 ) ) ;
#157 = SURFACE_SIDE_STYLE ('',( #5 ) ) ;
#158 = SURFACE_STYLE_USAGE ( .BOTH. , #73 ) ;
#159 = STYLED_ITEM ( 'NONE', ( #183 ), #78 ) ;
#160 = DIRECTION ( 'NONE',  ( -0.000000000000000000, -1.000000000000000000, -0.000000000000000000 ) ) ;
#161 = ORIENTED_EDGE ( 'NONE', *, *, #10, .F. ) ;
#162 = DIRECTION ( 'NONE',  ( 1.000000000000000000, -2.721437331438562546E-17, 0.000000000000000000 ) ) ;
#163 = ORIENTED_EDGE ( 'NONE', *, *, #65, .F. ) ;
#164 = SURFACE_STYLE_FILL_AREA ( #181 ) ;
#165 = CARTESIAN_POINT ( 'NONE',  ( 3.000000000000000000, 63.00000000000000000, 0.000000000000000000 ) ) ;
#166 = ORIENTED_EDGE ( 'NONE', *, *, #44, .T. ) ;
#167 = DIRECTION ( 'NONE',  ( 2.721437331438562546E-17, 1.000000000000000000, -0.000000000000000000 ) ) ;
#168 = FILL_AREA_STYLE ('',( #82 ) ) ;
#169 = SURFACE_STYLE_USAGE ( .BOTH. , #80 ) ;
#170 = CARTESIAN_POINT ( 'NONE',  ( -3.000000000000000000, 9.000000000000001776, 0.000000000000000000 ) ) ;
#171 = DIRECTION ( 'NONE',  ( -1.000000000000000000, 0.000000000000000000, 0.000000000000000000 ) ) ;
#172 = AXIS2_PLACEMENT_3D ( 'NONE', #150, #21, #257 ) ;
#173 = COLOUR_RGB ( '',1.000000000000000000, 0.000000000000000000, 0.000000000000000000 ) ;
#174 = AXIS2_PLACEMENT_3D ( 'NONE', #152, #242, #43 ) ;
#175 = EDGE_LOOP ( 'NONE', ( #53, #283 ) ) ;
#176 = FACE_OUTER_BOUND ( 'NONE', #268, .T. ) ;
#177 = STYLED_ITEM ( 'NONE', ( #32 ), #120 ) ;
#178 = PLANE ( 'NONE',  #226 ) ;
#179 = DIRECTION ( 'NONE',  ( 2.721437331438562546E-17, 1.000000000000000000, -0.000000000000000000 ) ) ;
#180 = CARTESIAN_POINT ( 'NONE',  ( 3.673940397442059868E-16, 0.000000000000000000, 3.000000000000000000 ) ) ;
#181 = FILL_AREA_STYLE ('',( #225 ) ) ;
#182 = CIRCLE ( 'NONE', #172, 3.000000000000000000 ) ;
#183 = PRESENTATION_STYLE_ASSIGNMENT (( #230 ) ) ;
#184 = ORIENTED_EDGE ( 'NONE', *, *, #137, .F. ) ;
#185 = CIRCLE ( 'NONE', #7, 2.999999999999998668 ) ;
#186 = PRESENTATION_LAYER_ASSIGNMENT (  '', '', ( #149 ) ) ;
#187 = ORIENTED_EDGE ( 'NONE', *, *, #197, .F. ) ;
#188 = CARTESIAN_POINT ( 'NONE',  ( 0.000000000000000000, 0.000000000000000000, 0.000000000000000000 ) ) ;
#189 = ADVANCED_BREP_SHAPE_REPRESENTATION ( '59690', ( #78, #271, #86 ), #251 ) ;
#190 = PLANE ( 'NONE',  #141 ) ;
#191 = CIRCLE ( 'NONE', #97, 3.000000000000000000 ) ;
#192 = PRODUCT ( '59690', '59690', '', ( #59 ) ) ;
#193 = PLANE ( 'NONE',  #63 ) ;
#194 = ORIENTED_EDGE ( 'NONE', *, *, #65, .T. ) ;
#195 = AXIS2_PLACEMENT_3D ( 'NONE', #236, #179, #67 ) ;
#196 = CARTESIAN_POINT ( 'NONE',  ( 1.469576158976823750E-15, 63.00000000000000000, 0.000000000000000000 ) ) ;
#197 = EDGE_CURVE ( 'NONE', #212, #210, #31, .T. ) ;
#198 = ADVANCED_FACE ( 'NONE', ( #176 ), #178, .T. ) ;
#199 = ORIENTED_EDGE ( 'NONE', *, *, #278, .F. ) ;
#200 = DIRECTION ( 'NONE',  ( 0.000000000000000000, 0.000000000000000000, -1.000000000000000000 ) ) ;
#201 = DIRECTION ( 'NONE',  ( -1.000000000000000000, 0.000000000000000000, 0.000000000000000000 ) ) ;
#202 = FACE_OUTER_BOUND ( 'NONE', #143, .T. ) ;
#203 = FILL_AREA_STYLE ('',( #247 ) ) ;
#204 =( NAMED_UNIT ( * ) SI_UNIT ( $, .STERADIAN. ) SOLID_ANGLE_UNIT ( ) );
#205 = SURFACE_SIDE_STYLE ('',( #164 ) ) ;
#206 = DIRECTION ( 'NONE',  ( 1.000000000000000000, 0.000000000000000000, 0.000000000000000000 ) ) ;
#207 = VERTEX_POINT ( 'NONE', #241 ) ;
#208 = VECTOR ( 'NONE', #50, 1000.000000000000000 ) ;
#209 = SURFACE_SIDE_STYLE ('',( #94 ) ) ;
#210 = VERTEX_POINT ( 'NONE', #41 ) ;
#211 = CLOSED_SHELL ( 'NONE', ( #15, #198, #89, #120 ) ) ;
#212 = VERTEX_POINT ( 'NONE', #218 ) ;
#213 = DIRECTION ( 'NONE',  ( 2.721437331438562546E-17, 1.000000000000000000, -0.000000000000000000 ) ) ;
#214 = DIRECTION ( 'NONE',  ( -1.000000000000000000, 0.000000000000000000, 0.000000000000000000 ) ) ;
#215 = PRESENTATION_LAYER_ASSIGNMENT (  '', '', ( #151 ) ) ;
#216 =( GEOMETRIC_REPRESENTATION_CONTEXT ( 3 ) GLOBAL_UNCERTAINTY_ASSIGNED_CONTEXT ( ( #229 ) ) GLOBAL_UNIT_ASSIGNED_CONTEXT ( ( #38, #234, #16 ) ) REPRESENTATION_CONTEXT ( 'NONE', 'WORKASPACE' ) );
#217 = ADVANCED_FACE ( 'NONE', ( #23 ), #267, .T. ) ;
#218 = CARTESIAN_POINT ( 'NONE',  ( 0.000000000000000000, 9.000000000000000000, -3.000000000000000000 ) ) ;
#219 = EDGE_CURVE ( 'NONE', #281, #212, #249, .T. ) ;
#220 = DIRECTION ( 'NONE',  ( 0.000000000000000000, 0.000000000000000000, -1.000000000000000000 ) ) ;
#221 =( LENGTH_UNIT ( ) NAMED_UNIT ( * ) SI_UNIT ( .MILLI., .METRE. ) );
#222 = CARTESIAN_POINT ( 'NONE',  ( -2.999999999999997780, 63.00000000000000000, 0.000000000000000000 ) ) ;
#223 = PRESENTATION_LAYER_ASSIGNMENT (  '', '', ( #66 ) ) ;
#224 = DIRECTION ( 'NONE',  ( 0.000000000000000000, 1.000000000000000000, 0.000000000000000000 ) ) ;
#225 = FILL_AREA_STYLE_COLOUR ( '', #19 ) ;
#226 = AXIS2_PLACEMENT_3D ( 'NONE', #140, #224, #266 ) ;
#227 =( NAMED_UNIT ( * ) SI_UNIT ( $, .STERADIAN. ) SOLID_ANGLE_UNIT ( ) );
#228 = SURFACE_STYLE_USAGE ( .BOTH. , #209 ) ;
#229 = UNCERTAINTY_MEASURE_WITH_UNIT (LENGTH_MEASURE( 1.000000000000000082E-05 ), #38, 'distance_accuracy_value', 'NONE');
#230 = SURFACE_STYLE_USAGE ( .BOTH. , #205 ) ;
#231 = CARTESIAN_POINT ( 'NONE',  ( 3.673940397442059868E-16, 9.000000000000000000, 3.000000000000000000 ) ) ;
#232 = AXIS2_PLACEMENT_3D ( 'NONE', #64, #265, #148 ) ;
#233 = CARTESIAN_POINT ( 'NONE',  ( 0.000000000000000000, 0.000000000000000000, 0.000000000000000000 ) ) ;
#234 =( NAMED_UNIT ( * ) PLANE_ANGLE_UNIT ( ) SI_UNIT ( $, .RADIAN. ) );
#235 =( GEOMETRIC_REPRESENTATION_CONTEXT ( 3 ) GLOBAL_UNCERTAINTY_ASSIGNED_CONTEXT ( ( #237 ) ) GLOBAL_UNIT_ASSIGNED_CONTEXT ( ( #51, #75, #6 ) ) REPRESENTATION_CONTEXT ( 'NONE', 'WORKASPACE' ) );
#236 = CARTESIAN_POINT ( 'NONE',  ( 1.469576158976823750E-15, 63.00000000000000000, 0.000000000000000000 ) ) ;
#237 = UNCERTAINTY_MEASURE_WITH_UNIT (LENGTH_MEASURE( 1.000000000000000082E-05 ), #51, 'distance_accuracy_value', 'NONE');
#238 =( GEOMETRIC_REPRESENTATION_CONTEXT ( 3 ) GLOBAL_UNCERTAINTY_ASSIGNED_CONTEXT ( ( #71 ) ) GLOBAL_UNIT_ASSIGNED_CONTEXT ( ( #95, #33, #204 ) ) REPRESENTATION_CONTEXT ( 'NONE', 'WORKASPACE' ) );
#239 = APPLICATION_CONTEXT ( 'automotive_design' ) ;
#240 = PRODUCT_RELATED_PRODUCT_CATEGORY ( 'part', '', ( #192 ) ) ;
#241 = CARTESIAN_POINT ( 'NONE',  ( -2.999999999999997335, 63.00000000000000000, 0.000000000000000000 ) ) ;
#242 = DIRECTION ( 'NONE',  ( 2.721437331438562546E-17, 1.000000000000000000, -0.000000000000000000 ) ) ;
#243 = EDGE_LOOP ( 'NONE', ( #260, #112, #9, #76 ) ) ;
#244 = CARTESIAN_POINT ( 'NONE',  ( 0.000000000000000000, 0.000000000000000000, 0.000000000000000000 ) ) ;
#245 = DIRECTION ( 'NONE',  ( 0.000000000000000000, 0.000000000000000000, -1.000000000000000000 ) ) ;
#246 = UNCERTAINTY_MEASURE_WITH_UNIT (LENGTH_MEASURE( 1.000000000000000082E-05 ), #123, 'distance_accuracy_value', 'NONE');
#247 = FILL_AREA_STYLE_COLOUR ( '', #284 ) ;
#248 =( LENGTH_UNIT ( ) NAMED_UNIT ( * ) SI_UNIT ( .MILLI., .METRE. ) );
#249 = CIRCLE ( 'NONE', #280, 3.000000000000000000 ) ;
#250 = ORIENTED_EDGE ( 'NONE', *, *, #10, .T. ) ;
#251 =( GEOMETRIC_REPRESENTATION_CONTEXT ( 3 ) GLOBAL_UNCERTAINTY_ASSIGNED_CONTEXT ( ( #114 ) ) GLOBAL_UNIT_ASSIGNED_CONTEXT ( ( #142, #259, #56 ) ) REPRESENTATION_CONTEXT ( 'NONE', 'WORKASPACE' ) );
#252 = APPLICATION_CONTEXT ( 'automotive_design' ) ;
#253 = CARTESIAN_POINT ( 'NONE',  ( 3.000000000000000444, 63.00000000000000000, 3.673940397442058882E-16 ) ) ;
#254 = FILL_AREA_STYLE_COLOUR ( '', #173 ) ;
#255 = DIRECTION ( 'NONE',  ( -1.000000000000000000, 2.721437331438562546E-17, 0.000000000000000000 ) ) ;
#256 = VERTEX_POINT ( 'NONE', #24 ) ;
#257 = DIRECTION ( 'NONE',  ( 0.000000000000000000, 0.000000000000000000, -1.000000000000000000 ) ) ;
#258 = ORIENTED_EDGE ( 'NONE', *, *, #84, .T. ) ;
#259 =( NAMED_UNIT ( * ) PLANE_ANGLE_UNIT ( ) SI_UNIT ( $, .RADIAN. ) );
#260 = ORIENTED_EDGE ( 'NONE', *, *, #18, .T. ) ;
#261 = DIRECTION ( 'NONE',  ( 0.000000000000000000, 0.000000000000000000, 1.000000000000000000 ) ) ;
#262 = CYLINDRICAL_SURFACE ( 'NONE', #146, 3.000000000000000000 ) ;
#263 = PRESENTATION_STYLE_ASSIGNMENT (( #169 ) ) ;
#264 = AXIS2_PLACEMENT_3D ( 'NONE', #109, #287, #171 ) ;
#265 = DIRECTION ( 'NONE',  ( 2.721437331438562546E-17, 1.000000000000000000, -0.000000000000000000 ) ) ;
#266 = DIRECTION ( 'NONE',  ( 0.000000000000000000, -0.000000000000000000, 1.000000000000000000 ) ) ;
#267 = CYLINDRICAL_SURFACE ( 'NONE', #174, 2.999999999999999112 ) ;
#268 = EDGE_LOOP ( 'NONE', ( #13, #2 ) ) ;
#269 = PRESENTATION_LAYER_ASSIGNMENT (  '', '', ( #177 ) ) ;
#270 = FILL_AREA_STYLE ('',( #90 ) ) ;
#271 = MANIFOLD_SOLID_BREP ( 'Revolve - Tool Body (Straight Shanked)', #275 ) ;
#272 = SURFACE_SIDE_STYLE ('',( #69 ) ) ;
#273 = FILL_AREA_STYLE ('',( #119 ) ) ;
#274 = PRODUCT_DEFINITION_CONTEXT ( 'detailed design', #239, 'design' ) ;
#275 = CLOSED_SHELL ( 'NONE', ( #217, #285, #17, #279 ) ) ;
#276 = VECTOR ( 'NONE', #29, 1000.000000000000000 ) ;
#277 = ORIENTED_EDGE ( 'NONE', *, *, #147, .T. ) ;
#278 = EDGE_CURVE ( 'NONE', #79, #256, #113, .T. ) ;
#279 = ADVANCED_FACE ( 'NONE', ( #122 ), #190, .F. ) ;
#280 = AXIS2_PLACEMENT_3D ( 'NONE', #135, #45, #220 ) ;
#281 = VERTEX_POINT ( 'NONE', #231 ) ;
#282 = DIRECTION ( 'NONE',  ( 0.000000000000000000, 0.000000000000000000, -1.000000000000000000 ) ) ;
#283 = ORIENTED_EDGE ( 'NONE', *, *, #30, .F. ) ;
#284 = COLOUR_RGB ( '',1.000000000000000000, 0.000000000000000000, 0.000000000000000000 ) ;
#285 = ADVANCED_FACE ( 'NONE', ( #81 ), #193, .F. ) ;
#286 = PRESENTATION_LAYER_ASSIGNMENT (  '', '', ( #159 ) ) ;
#287 = DIRECTION ( 'NONE',  ( 2.721437331438562546E-17, 1.000000000000000000, -0.000000000000000000 ) ) ;
#288 = CIRCLE ( 'NONE', #264, 3.000000000000000000 ) ;
ENDSEC;
END-ISO-10303-21;
