ISO-10303-21;
HEADER;
FILE_DESCRIPTION (( 'STEP AP214' ),
    '1' );
FILE_NAME ('Micro_RTC-125-2X.STEP',
    '2021-09-03T18:04:56',
    ( '' ),
    ( '' ),
    'SwSTEP 2.0',
    'SolidWorks 2020',
    '' );
FILE_SCHEMA (( 'AUTOMOTIVE_DESIGN' ));
ENDSEC;

DATA;
#1 = STYLED_ITEM ( 'NONE', ( #20 ), #67 ) ;
#2 = CARTESIAN_POINT ( 'NONE',  ( 0.0000000000000000000, 0.0000000000000000000, 0.0000000000000000000 ) ) ;
#3 = EDGE_CURVE ( 'NONE', #10, #120, #178, .T. ) ;
#4 = VERTEX_POINT ( 'NONE', #103 ) ;
#5 = SURFACE_SIDE_STYLE ('',( #23 ) ) ;
#6 = EDGE_CURVE ( 'NONE', #248, #31, #17, .T. ) ;
#7 = AXIS2_PLACEMENT_3D ( 'NONE', #163, #55, #53 ) ;
#8 = FACE_OUTER_BOUND ( 'NONE', #159, .T. ) ;
#9 = FACE_OUTER_BOUND ( 'NONE', #153, .T. ) ;
#10 = VERTEX_POINT ( 'NONE', #179 ) ;
#11 = DIMENSIONAL_EXPONENTS ( 1.000000000000000000, 0.0000000000000000000, 0.0000000000000000000, 0.0000000000000000000, 0.0000000000000000000, 0.0000000000000000000, 0.0000000000000000000 ) ;
#12 = VERTEX_POINT ( 'NONE', #99 ) ;
#13 = MECHANICAL_DESIGN_GEOMETRIC_PRESENTATION_REPRESENTATION (  '', ( #1 ), #190 ) ;
#14 = ADVANCED_FACE ( 'NONE', ( #9 ), #34, .T. ) ;
#15 = CARTESIAN_POINT ( 'NONE',  ( 0.0000000000000000000, 0.0000000000000000000, 1.781675027757221530 ) ) ;
#16 = DIRECTION ( 'NONE',  ( 0.0000000000000000000, 0.0000000000000000000, -1.000000000000000000 ) ) ;
#17 = CIRCLE ( 'NONE', #194, 0.003999999999999999216 ) ;
#18 = CARTESIAN_POINT ( 'NONE',  ( -0.003999999999999999216, 4.898587196589411612E-19, 0.0000000000000000000 ) ) ;
#19 = SURFACE_STYLE_USAGE ( .BOTH. , #107 ) ;
#20 = PRESENTATION_STYLE_ASSIGNMENT (( #19 ) ) ;
#21 = VECTOR ( 'NONE', #148, 39.37007874015748854 ) ;
#22 =( GEOMETRIC_REPRESENTATION_CONTEXT ( 3 ) GLOBAL_UNCERTAINTY_ASSIGNED_CONTEXT ( ( #80 ) ) GLOBAL_UNIT_ASSIGNED_CONTEXT ( ( #57, #230, #247 ) ) REPRESENTATION_CONTEXT ( 'NONE', 'WORKASPACE' ) );
#23 = SURFACE_STYLE_FILL_AREA ( #130 ) ;
#24 = CARTESIAN_POINT ( 'NONE',  ( 0.0000000000000000000, 0.0000000000000000000, 0.2183249722427783590 ) ) ;
#25 = CARTESIAN_POINT ( 'NONE',  ( 0.0000000000000000000, 0.0000000000000000000, 2.000000000000000000 ) ) ;
#26 = UNCERTAINTY_MEASURE_WITH_UNIT (LENGTH_MEASURE( 1.000000000000000082E-05 ), #226, 'distance_accuracy_value', 'NONE');
#27 = ORIENTED_EDGE ( 'NONE', *, *, #3, .T. ) ;
#28 = AXIS2_PLACEMENT_3D ( 'NONE', #133, #206, #191 ) ;
#29 = ORIENTED_EDGE ( 'NONE', *, *, #171, .T. ) ;
#30 = PRODUCT_DEFINITION_SHAPE ( 'NONE', 'NONE',  #209 ) ;
#31 = VERTEX_POINT ( 'NONE', #65 ) ;
#32 = ADVANCED_FACE ( 'NONE', ( #238 ), #81, .T. ) ;
#33 = ORIENTED_EDGE ( 'NONE', *, *, #161, .T. ) ;
#34 = CYLINDRICAL_SURFACE ( 'NONE', #220, 0.06249999999999997918 ) ;
#35 = CARTESIAN_POINT ( 'NONE',  ( -0.06249999999999997918, 0.0000000000000000000, 0.2183249722427783590 ) ) ;
#36 = DIRECTION ( 'NONE',  ( 0.0000000000000000000, 0.0000000000000000000, -1.000000000000000000 ) ) ;
#37 =( NAMED_UNIT ( * ) SI_UNIT ( $, .STERADIAN. ) SOLID_ANGLE_UNIT ( ) );
#38 = CONICAL_SURFACE ( 'NONE', #201, 0.003999999999999999216, 0.2617993877991504625 ) ;
#39 = PLANE ( 'NONE',  #86 ) ;
#40 = ADVANCED_BREP_SHAPE_REPRESENTATION ( 'Micro_RTC-125-2X', ( #67, #149 ), #59 ) ;
#41 = AXIS2_PLACEMENT_3D ( 'NONE', #242, #51, #219 ) ;
#42 = CARTESIAN_POINT ( 'NONE',  ( 0.0000000000000000000, 0.0000000000000000000, 0.0000000000000000000 ) ) ;
#43 =( NAMED_UNIT ( * ) SI_UNIT ( $, .STERADIAN. ) SOLID_ANGLE_UNIT ( ) );
#44 = ORIENTED_EDGE ( 'NONE', *, *, #231, .T. ) ;
#45 = DIRECTION ( 'NONE',  ( -0.0000000000000000000, -0.0000000000000000000, -1.000000000000000000 ) ) ;
#46 = EDGE_LOOP ( 'NONE', ( #33, #197 ) ) ;
#47 = ADVANCED_FACE ( 'NONE', ( #8 ), #155, .T. ) ;
#48 = APPLICATION_PROTOCOL_DEFINITION ( 'draft international standard', 'automotive_design', 1998, #222 ) ;
#49 = EDGE_LOOP ( 'NONE', ( #240, #96, #117, #160 ) ) ;
#50 = ORIENTED_EDGE ( 'NONE', *, *, #202, .F. ) ;
#51 = DIRECTION ( 'NONE',  ( 0.0000000000000000000, 0.0000000000000000000, 1.000000000000000000 ) ) ;
#52 = AXIS2_PLACEMENT_3D ( 'NONE', #199, #36, #89 ) ;
#53 = DIRECTION ( 'NONE',  ( -1.000000000000000000, 0.0000000000000000000, 0.0000000000000000000 ) ) ;
#54 = LINE ( 'NONE', #75, #243 ) ;
#55 = DIRECTION ( 'NONE',  ( -0.0000000000000000000, -0.0000000000000000000, -1.000000000000000000 ) ) ;
#56 = PRESENTATION_LAYER_ASSIGNMENT (  '', '', ( #1 ) ) ;
#57 =( CONVERSION_BASED_UNIT ( 'INCH', #95 ) LENGTH_UNIT ( ) NAMED_UNIT ( #11 ) );
#58 = VECTOR ( 'NONE', #45, 39.37007874015748143 ) ;
#59 =( GEOMETRIC_REPRESENTATION_CONTEXT ( 3 ) GLOBAL_UNCERTAINTY_ASSIGNED_CONTEXT ( ( #26 ) ) GLOBAL_UNIT_ASSIGNED_CONTEXT ( ( #226, #208, #43 ) ) REPRESENTATION_CONTEXT ( 'NONE', 'WORKASPACE' ) );
#60 = APPLICATION_PROTOCOL_DEFINITION ( 'draft international standard', 'automotive_design', 1998, #102 ) ;
#61 = LENGTH_MEASURE_WITH_UNIT ( LENGTH_MEASURE( 0.02539999999999999897 ), #150 );
#62 = VECTOR ( 'NONE', #221, 39.37007874015748854 ) ;
#63 = CARTESIAN_POINT ( 'NONE',  ( 0.06249999999999997918, 7.654042494670956004E-18, 2.000000000000000000 ) ) ;
#64 = DIMENSIONAL_EXPONENTS ( 1.000000000000000000, 0.0000000000000000000, 0.0000000000000000000, 0.0000000000000000000, 0.0000000000000000000, 0.0000000000000000000, 0.0000000000000000000 ) ;
#65 = CARTESIAN_POINT ( 'NONE',  ( -0.003999999999999999216, -4.071950607164948101E-18, 2.000000000000000000 ) ) ;
#66 = LINE ( 'NONE', #186, #21 ) ;
#67 = MANIFOLD_SOLID_BREP ( 'Mirror1', #228 ) ;
#68 = ORIENTED_EDGE ( 'NONE', *, *, #6, .F. ) ;
#69 = PRODUCT_CONTEXT ( 'NONE', #102, 'mechanical' ) ;
#70 = DIRECTION ( 'NONE',  ( -0.0000000000000000000, -0.0000000000000000000, -1.000000000000000000 ) ) ;
#71 = CARTESIAN_POINT ( 'NONE',  ( 0.0000000000000000000, 0.0000000000000000000, 0.0000000000000000000 ) ) ;
#72 = FACE_OUTER_BOUND ( 'NONE', #46, .T. ) ;
#73 =( NAMED_UNIT ( * ) PLANE_ANGLE_UNIT ( ) SI_UNIT ( $, .RADIAN. ) );
#74 = DIRECTION ( 'NONE',  ( -1.000000000000000000, 0.0000000000000000000, 0.0000000000000000000 ) ) ;
#75 = CARTESIAN_POINT ( 'NONE',  ( 0.003999999999999999216, 0.0000000000000000000, 2.000000000000000000 ) ) ;
#76 = COLOUR_RGB ( '',0.7921568627450980005, 0.8196078431372548767, 0.9333333333333333481 ) ;
#77 = MECHANICAL_DESIGN_GEOMETRIC_PRESENTATION_REPRESENTATION (  '', ( #174 ), #22 ) ;
#78 = DIRECTION ( 'NONE',  ( -1.000000000000000000, 0.0000000000000000000, 0.0000000000000000000 ) ) ;
#79 = AXIS2_PLACEMENT_3D ( 'NONE', #42, #249, #78 ) ;
#80 = UNCERTAINTY_MEASURE_WITH_UNIT (LENGTH_MEASURE( 1.000000000000000082E-05 ), #57, 'distance_accuracy_value', 'NONE');
#81 = CYLINDRICAL_SURFACE ( 'NONE', #144, 0.06249999999999997918 ) ;
#82 = DIRECTION ( 'NONE',  ( -0.0000000000000000000, -0.0000000000000000000, -1.000000000000000000 ) ) ;
#83 = EDGE_CURVE ( 'NONE', #31, #4, #66, .T. ) ;
#84 = ORIENTED_EDGE ( 'NONE', *, *, #146, .F. ) ;
#85 = DIMENSIONAL_EXPONENTS ( 1.000000000000000000, 0.0000000000000000000, 0.0000000000000000000, 0.0000000000000000000, 0.0000000000000000000, 0.0000000000000000000, 0.0000000000000000000 ) ;
#86 = AXIS2_PLACEMENT_3D ( 'NONE', #71, #162, #129 ) ;
#87 = DIRECTION ( 'NONE',  ( -1.000000000000000000, 0.0000000000000000000, 0.0000000000000000000 ) ) ;
#88 = ORIENTED_EDGE ( 'NONE', *, *, #94, .F. ) ;
#89 = DIRECTION ( 'NONE',  ( 1.000000000000000000, 0.0000000000000000000, 0.0000000000000000000 ) ) ;
#90 = LINE ( 'NONE', #18, #62 ) ;
#91 = VECTOR ( 'NONE', #223, 39.37007874015748143 ) ;
#92 = FILL_AREA_STYLE ('',( #187 ) ) ;
#93 = DIRECTION ( 'NONE',  ( 0.2588190451025217387, 0.0000000000000000000, 0.9659258262890679791 ) ) ;
#94 = EDGE_CURVE ( 'NONE', #12, #141, #90, .T. ) ;
#95 = LENGTH_MEASURE_WITH_UNIT ( LENGTH_MEASURE( 0.02539999999999999897 ), #116 );
#96 = ORIENTED_EDGE ( 'NONE', *, *, #83, .T. ) ;
#97 = FILL_AREA_STYLE_COLOUR ( '', #139 ) ;
#98 = EDGE_CURVE ( 'NONE', #248, #10, #54, .T. ) ;
#99 = CARTESIAN_POINT ( 'NONE',  ( -0.003999999999999999216, 4.071950607164948101E-18, 0.0000000000000000000 ) ) ;
#100 = AXIS2_PLACEMENT_3D ( 'NONE', #15, #166, #245 ) ;
#101 = ORIENTED_EDGE ( 'NONE', *, *, #94, .T. ) ;
#102 = APPLICATION_CONTEXT ( 'automotive_design' ) ;
#103 = CARTESIAN_POINT ( 'NONE',  ( -0.06249999999999997918, 0.0000000000000000000, 1.781675027757221530 ) ) ;
#104 = ORIENTED_EDGE ( 'NONE', *, *, #113, .T. ) ;
#105 = CONICAL_SURFACE ( 'NONE', #52, 0.003999999999999999216, 0.2617993877991504625 ) ;
#106 = ORIENTED_EDGE ( 'NONE', *, *, #171, .F. ) ;
#107 = SURFACE_SIDE_STYLE ('',( #165 ) ) ;
#108 = CONICAL_SURFACE ( 'NONE', #41, 0.003999999999999999216, 0.2617993877991504625 ) ;
#109 = CARTESIAN_POINT ( 'NONE',  ( 0.06249999999999997918, 7.654042494670956004E-18, 0.2183249722427783590 ) ) ;
#110 = ADVANCED_FACE ( 'NONE', ( #72 ), #39, .F. ) ;
#111 =( LENGTH_UNIT ( ) NAMED_UNIT ( * ) SI_UNIT ( $, .METRE. ) );
#112 = LINE ( 'NONE', #145, #91 ) ;
#113 = EDGE_CURVE ( 'NONE', #4, #141, #112, .T. ) ;
#114 = AXIS2_PLACEMENT_3D ( 'NONE', #236, #137, #157 ) ;
#115 = PRODUCT_RELATED_PRODUCT_CATEGORY ( 'part', '', ( #156 ) ) ;
#116 =( LENGTH_UNIT ( ) NAMED_UNIT ( * ) SI_UNIT ( $, .METRE. ) );
#117 = ORIENTED_EDGE ( 'NONE', *, *, #152, .F. ) ;
#118 = EDGE_LOOP ( 'NONE', ( #176, #44, #239, #84 ) ) ;
#119 = CIRCLE ( 'NONE', #151, 0.003999999999999999216 ) ;
#120 = VERTEX_POINT ( 'NONE', #109 ) ;
#121 = ORIENTED_EDGE ( 'NONE', *, *, #3, .F. ) ;
#122 = EDGE_LOOP ( 'NONE', ( #193, #101, #29, #50 ) ) ;
#123 = CIRCLE ( 'NONE', #7, 0.003999999999999999216 ) ;
#124 = FACE_OUTER_BOUND ( 'NONE', #118, .T. ) ;
#125 =( CONVERSION_BASED_UNIT ( 'INCH', #167 ) LENGTH_UNIT ( ) NAMED_UNIT ( #85 ) );
#126 = CIRCLE ( 'NONE', #173, 0.06249999999999997918 ) ;
#127 = CARTESIAN_POINT ( 'NONE',  ( 0.003999999999999999216, 0.0000000000000000000, 0.0000000000000000000 ) ) ;
#128 = ADVANCED_FACE ( 'NONE', ( #143 ), #108, .T. ) ;
#129 = DIRECTION ( 'NONE',  ( 1.000000000000000000, 0.0000000000000000000, -0.0000000000000000000 ) ) ;
#130 = FILL_AREA_STYLE ('',( #97 ) ) ;
#131 = VERTEX_POINT ( 'NONE', #185 ) ;
#132 = CONICAL_SURFACE ( 'NONE', #28, 0.003999999999999999216, 0.2617993877991504625 ) ;
#133 = CARTESIAN_POINT ( 'NONE',  ( 0.0000000000000000000, 0.0000000000000000000, 2.000000000000000000 ) ) ;
#134 = DIRECTION ( 'NONE',  ( -1.000000000000000000, 0.0000000000000000000, 0.0000000000000000000 ) ) ;
#135 = DIRECTION ( 'NONE',  ( 0.0000000000000000000, 0.0000000000000000000, -1.000000000000000000 ) ) ;
#136 = ADVANCED_FACE ( 'NONE', ( #124 ), #105, .T. ) ;
#137 = DIRECTION ( 'NONE',  ( 0.0000000000000000000, 0.0000000000000000000, 1.000000000000000000 ) ) ;
#138 = ORIENTED_EDGE ( 'NONE', *, *, #215, .F. ) ;
#139 = COLOUR_RGB ( '',0.7921568627450980005, 0.8196078431372548767, 0.9333333333333333481 ) ;
#140 = CARTESIAN_POINT ( 'NONE',  ( 0.0000000000000000000, 0.0000000000000000000, 0.0000000000000000000 ) ) ;
#141 = VERTEX_POINT ( 'NONE', #35 ) ;
#142 = DIRECTION ( 'NONE',  ( -1.000000000000000000, 0.0000000000000000000, 0.0000000000000000000 ) ) ;
#143 = FACE_OUTER_BOUND ( 'NONE', #180, .T. ) ;
#144 = AXIS2_PLACEMENT_3D ( 'NONE', #235, #82, #142 ) ;
#145 = CARTESIAN_POINT ( 'NONE',  ( -0.06249999999999997918, 0.0000000000000000000, 2.000000000000000000 ) ) ;
#146 = EDGE_CURVE ( 'NONE', #4, #10, #126, .T. ) ;
#147 = DIRECTION ( 'NONE',  ( -0.0000000000000000000, -0.0000000000000000000, -1.000000000000000000 ) ) ;
#148 = DIRECTION ( 'NONE',  ( -0.2588190451025217387, -3.169619151431776651E-17, -0.9659258262890679791 ) ) ;
#149 = AXIS2_PLACEMENT_3D ( 'NONE', #140, #158, #216 ) ;
#150 =( LENGTH_UNIT ( ) NAMED_UNIT ( * ) SI_UNIT ( $, .METRE. ) );
#151 = AXIS2_PLACEMENT_3D ( 'NONE', #25, #170, #207 ) ;
#152 = EDGE_CURVE ( 'NONE', #10, #4, #188, .T. ) ;
#153 = EDGE_LOOP ( 'NONE', ( #121, #213, #104, #138 ) ) ;
#154 = CARTESIAN_POINT ( 'NONE',  ( 0.003999999999999999216, 0.0000000000000000000, 2.000000000000000000 ) ) ;
#155 = PLANE ( 'NONE',  #114 ) ;
#156 = PRODUCT ( 'Micro_RTC-125-2X', 'Micro_RTC-125-2X', '', ( #69 ) ) ;
#157 = DIRECTION ( 'NONE',  ( 1.000000000000000000, 0.0000000000000000000, -0.0000000000000000000 ) ) ;
#158 = DIRECTION ( 'NONE',  ( 0.0000000000000000000, 0.0000000000000000000, 1.000000000000000000 ) ) ;
#159 = EDGE_LOOP ( 'NONE', ( #68, #175 ) ) ;
#160 = ORIENTED_EDGE ( 'NONE', *, *, #98, .F. ) ;
#161 = EDGE_CURVE ( 'NONE', #131, #12, #123, .T. ) ;
#162 = DIRECTION ( 'NONE',  ( 0.0000000000000000000, 0.0000000000000000000, 1.000000000000000000 ) ) ;
#163 = CARTESIAN_POINT ( 'NONE',  ( 0.0000000000000000000, 0.0000000000000000000, 0.0000000000000000000 ) ) ;
#164 = AXIS2_PLACEMENT_3D ( 'NONE', #24, #169, #134 ) ;
#165 = SURFACE_STYLE_FILL_AREA ( #92 ) ;
#166 = DIRECTION ( 'NONE',  ( 0.0000000000000000000, 0.0000000000000000000, -1.000000000000000000 ) ) ;
#167 = LENGTH_MEASURE_WITH_UNIT ( LENGTH_MEASURE( 0.02539999999999999897 ), #111 );
#168 = FACE_OUTER_BOUND ( 'NONE', #122, .T. ) ;
#169 = DIRECTION ( 'NONE',  ( -0.0000000000000000000, -0.0000000000000000000, -1.000000000000000000 ) ) ;
#170 = DIRECTION ( 'NONE',  ( 0.0000000000000000000, 0.0000000000000000000, -1.000000000000000000 ) ) ;
#171 = EDGE_CURVE ( 'NONE', #141, #120, #233, .T. ) ;
#172 = FACE_OUTER_BOUND ( 'NONE', #49, .T. ) ;
#173 = AXIS2_PLACEMENT_3D ( 'NONE', #200, #16, #183 ) ;
#174 = STYLED_ITEM ( 'NONE', ( #203 ), #40 ) ;
#175 = ORIENTED_EDGE ( 'NONE', *, *, #231, .F. ) ;
#176 = ORIENTED_EDGE ( 'NONE', *, *, #83, .F. ) ;
#177 = CIRCLE ( 'NONE', #164, 0.06249999999999997918 ) ;
#178 = LINE ( 'NONE', #63, #58 ) ;
#179 = CARTESIAN_POINT ( 'NONE',  ( 0.06249999999999997918, 7.654042494670956004E-18, 1.781675027757221530 ) ) ;
#180 = EDGE_LOOP ( 'NONE', ( #88, #217, #205, #214 ) ) ;
#181 = PRODUCT_DEFINITION_FORMATION_WITH_SPECIFIED_SOURCE ( 'ANY', '', #156, .NOT_KNOWN. ) ;
#182 = CARTESIAN_POINT ( 'NONE',  ( 0.0000000000000000000, 0.0000000000000000000, 2.000000000000000000 ) ) ;
#183 = DIRECTION ( 'NONE',  ( -1.000000000000000000, 0.0000000000000000000, 0.0000000000000000000 ) ) ;
#184 = CIRCLE ( 'NONE', #79, 0.003999999999999999216 ) ;
#185 = CARTESIAN_POINT ( 'NONE',  ( 0.003999999999999999216, 0.0000000000000000000, 0.0000000000000000000 ) ) ;
#186 = CARTESIAN_POINT ( 'NONE',  ( -0.003999999999999999216, -4.898587196589411612E-19, 2.000000000000000000 ) ) ;
#187 = FILL_AREA_STYLE_COLOUR ( '', #76 ) ;
#188 = CIRCLE ( 'NONE', #100, 0.06249999999999997918 ) ;
#189 = SURFACE_STYLE_USAGE ( .BOTH. , #5 ) ;
#190 =( GEOMETRIC_REPRESENTATION_CONTEXT ( 3 ) GLOBAL_UNCERTAINTY_ASSIGNED_CONTEXT ( ( #210 ) ) GLOBAL_UNIT_ASSIGNED_CONTEXT ( ( #125, #73, #37 ) ) REPRESENTATION_CONTEXT ( 'NONE', 'WORKASPACE' ) );
#191 = DIRECTION ( 'NONE',  ( 1.000000000000000000, 0.0000000000000000000, 0.0000000000000000000 ) ) ;
#192 = EDGE_LOOP ( 'NONE', ( #195, #27, #106, #218 ) ) ;
#193 = ORIENTED_EDGE ( 'NONE', *, *, #237, .F. ) ;
#194 = AXIS2_PLACEMENT_3D ( 'NONE', #182, #135, #87 ) ;
#195 = ORIENTED_EDGE ( 'NONE', *, *, #146, .T. ) ;
#196 = PRODUCT_DEFINITION_CONTEXT ( 'detailed design', #222, 'design' ) ;
#197 = ORIENTED_EDGE ( 'NONE', *, *, #237, .T. ) ;
#198 = CARTESIAN_POINT ( 'NONE',  ( 0.0000000000000000000, 0.0000000000000000000, 2.000000000000000000 ) ) ;
#199 = CARTESIAN_POINT ( 'NONE',  ( 0.0000000000000000000, 0.0000000000000000000, 2.000000000000000000 ) ) ;
#200 = CARTESIAN_POINT ( 'NONE',  ( 0.0000000000000000000, 0.0000000000000000000, 1.781675027757221530 ) ) ;
#201 = AXIS2_PLACEMENT_3D ( 'NONE', #2, #232, #229 ) ;
#202 = EDGE_CURVE ( 'NONE', #131, #120, #224, .T. ) ;
#203 = PRESENTATION_STYLE_ASSIGNMENT (( #189 ) ) ;
#204 = ADVANCED_FACE ( 'NONE', ( #172 ), #132, .T. ) ;
#205 = ORIENTED_EDGE ( 'NONE', *, *, #202, .T. ) ;
#206 = DIRECTION ( 'NONE',  ( 0.0000000000000000000, 0.0000000000000000000, -1.000000000000000000 ) ) ;
#207 = DIRECTION ( 'NONE',  ( -1.000000000000000000, 0.0000000000000000000, 0.0000000000000000000 ) ) ;
#208 =( NAMED_UNIT ( * ) PLANE_ANGLE_UNIT ( ) SI_UNIT ( $, .RADIAN. ) );
#209 = PRODUCT_DEFINITION ( 'UNKNOWN', '', #181, #196 ) ;
#210 = UNCERTAINTY_MEASURE_WITH_UNIT (LENGTH_MEASURE( 1.000000000000000082E-05 ), #125, 'distance_accuracy_value', 'NONE');
#211 = SHAPE_DEFINITION_REPRESENTATION ( #30, #40 ) ;
#212 = DIRECTION ( 'NONE',  ( -1.000000000000000000, 0.0000000000000000000, 0.0000000000000000000 ) ) ;
#213 = ORIENTED_EDGE ( 'NONE', *, *, #152, .T. ) ;
#214 = ORIENTED_EDGE ( 'NONE', *, *, #215, .T. ) ;
#215 = EDGE_CURVE ( 'NONE', #120, #141, #177, .T. ) ;
#216 = DIRECTION ( 'NONE',  ( 1.000000000000000000, 0.0000000000000000000, 0.0000000000000000000 ) ) ;
#217 = ORIENTED_EDGE ( 'NONE', *, *, #161, .F. ) ;
#218 = ORIENTED_EDGE ( 'NONE', *, *, #113, .F. ) ;
#219 = DIRECTION ( 'NONE',  ( 1.000000000000000000, 0.0000000000000000000, 0.0000000000000000000 ) ) ;
#220 = AXIS2_PLACEMENT_3D ( 'NONE', #198, #70, #212 ) ;
#221 = DIRECTION ( 'NONE',  ( -0.2588190451025217387, 3.169619151431776651E-17, 0.9659258262890679791 ) ) ;
#222 = APPLICATION_CONTEXT ( 'automotive_design' ) ;
#223 = DIRECTION ( 'NONE',  ( -0.0000000000000000000, -0.0000000000000000000, -1.000000000000000000 ) ) ;
#224 = LINE ( 'NONE', #127, #227 ) ;
#225 = DIRECTION ( 'NONE',  ( 0.2588190451025217387, 0.0000000000000000000, -0.9659258262890679791 ) ) ;
#226 =( CONVERSION_BASED_UNIT ( 'INCH', #61 ) LENGTH_UNIT ( ) NAMED_UNIT ( #64 ) );
#227 = VECTOR ( 'NONE', #93, 39.37007874015748854 ) ;
#228 = CLOSED_SHELL ( 'NONE', ( #204, #241, #32, #14, #128, #110, #136, #47 ) ) ;
#229 = DIRECTION ( 'NONE',  ( 1.000000000000000000, 0.0000000000000000000, 0.0000000000000000000 ) ) ;
#230 =( NAMED_UNIT ( * ) PLANE_ANGLE_UNIT ( ) SI_UNIT ( $, .RADIAN. ) );
#231 = EDGE_CURVE ( 'NONE', #31, #248, #119, .T. ) ;
#232 = DIRECTION ( 'NONE',  ( 0.0000000000000000000, 0.0000000000000000000, 1.000000000000000000 ) ) ;
#233 = CIRCLE ( 'NONE', #246, 0.06249999999999997918 ) ;
#234 = PRESENTATION_LAYER_ASSIGNMENT (  '', '', ( #174 ) ) ;
#235 = CARTESIAN_POINT ( 'NONE',  ( 0.0000000000000000000, 0.0000000000000000000, 2.000000000000000000 ) ) ;
#236 = CARTESIAN_POINT ( 'NONE',  ( 0.0000000000000000000, 0.0000000000000000000, 2.000000000000000000 ) ) ;
#237 = EDGE_CURVE ( 'NONE', #12, #131, #184, .T. ) ;
#238 = FACE_OUTER_BOUND ( 'NONE', #192, .T. ) ;
#239 = ORIENTED_EDGE ( 'NONE', *, *, #98, .T. ) ;
#240 = ORIENTED_EDGE ( 'NONE', *, *, #6, .T. ) ;
#241 = ADVANCED_FACE ( 'NONE', ( #168 ), #38, .T. ) ;
#242 = CARTESIAN_POINT ( 'NONE',  ( 0.0000000000000000000, 0.0000000000000000000, 0.0000000000000000000 ) ) ;
#243 = VECTOR ( 'NONE', #225, 39.37007874015748854 ) ;
#244 = CARTESIAN_POINT ( 'NONE',  ( 0.0000000000000000000, 0.0000000000000000000, 0.2183249722427783590 ) ) ;
#245 = DIRECTION ( 'NONE',  ( -1.000000000000000000, 0.0000000000000000000, 0.0000000000000000000 ) ) ;
#246 = AXIS2_PLACEMENT_3D ( 'NONE', #244, #147, #74 ) ;
#247 =( NAMED_UNIT ( * ) SI_UNIT ( $, .STERADIAN. ) SOLID_ANGLE_UNIT ( ) );
#248 = VERTEX_POINT ( 'NONE', #154 ) ;
#249 = DIRECTION ( 'NONE',  ( -0.0000000000000000000, -0.0000000000000000000, -1.000000000000000000 ) ) ;
ENDSEC;
END-ISO-10303-21;
