ISO-10303-21;
HEADER;
FILE_DESCRIPTION (( 'STEP AP214' ),
    '1' );
FILE_NAME ('83185.STEP',
    '2023-06-23T07:54:47',
    ( '' ),
    ( '' ),
    'SwSTEP 2.0',
    'SolidWorks 2023',
    '' );
FILE_SCHEMA (( 'AUTOMOTIVE_DESIGN' ));
ENDSEC;

DATA;
#1 = ORIENTED_EDGE ( 'NONE', *, *, #86, .T. ) ;
#2 = ADVANCED_BREP_SHAPE_REPRESENTATION ( '83185', ( #137, #28, #217 ), #84 ) ;
#3 = EDGE_LOOP ( 'NONE', ( #101, #262 ) ) ;
#4 = PRESENTATION_LAYER_ASSIGNMENT (  '', '', ( #242 ) ) ;
#5 = VECTOR ( 'NONE', #97, 39.37007874015748143 ) ;
#6 = DIRECTION ( 'NONE',  ( -0.000000000000000000, -1.000000000000000000, -0.000000000000000000 ) ) ;
#7 = VERTEX_POINT ( 'NONE', #294 ) ;
#8 = COLOUR_RGB ( '',1.000000000000000000, 0.000000000000000000, 0.000000000000000000 ) ;
#9 = AXIS2_PLACEMENT_3D ( 'NONE', #282, #104, #54 ) ;
#10 = EDGE_CURVE ( 'NONE', #150, #58, #115, .T. ) ;
#11 = PRODUCT ( '83185', '83185', '', ( #240 ) ) ;
#12 = FACE_OUTER_BOUND ( 'NONE', #284, .T. ) ;
#13 =( CONVERSION_BASED_UNIT ( 'INCH', #201 ) LENGTH_UNIT ( ) NAMED_UNIT ( #295 ) );
#14 = DIMENSIONAL_EXPONENTS ( 1.000000000000000000, 0.000000000000000000, 0.000000000000000000, 0.000000000000000000, 0.000000000000000000, 0.000000000000000000, 0.000000000000000000 ) ;
#15 = LINE ( 'NONE', #118, #5 ) ;
#16 = DIRECTION ( 'NONE',  ( 0.000000000000000000, 0.000000000000000000, -1.000000000000000000 ) ) ;
#17 = CARTESIAN_POINT ( 'NONE',  ( -6.123233995736766036E-17, 2.500000000000000000, 0.000000000000000000 ) ) ;
#18 = SURFACE_STYLE_USAGE ( .BOTH. , #304 ) ;
#19 =( GEOMETRIC_REPRESENTATION_CONTEXT ( 3 ) GLOBAL_UNCERTAINTY_ASSIGNED_CONTEXT ( ( #31 ) ) GLOBAL_UNIT_ASSIGNED_CONTEXT ( ( #250, #112, #50 ) ) REPRESENTATION_CONTEXT ( 'NONE', 'WORKASPACE' ) );
#20 = DIRECTION ( 'NONE',  ( -0.000000000000000000, -1.000000000000000000, -0.000000000000000000 ) ) ;
#21 = CARTESIAN_POINT ( 'NONE',  ( 0.000000000000000000, 0.000000000000000000, -0.06250000000000000000 ) ) ;
#22 = DIRECTION ( 'NONE',  ( -0.000000000000000000, -1.000000000000000000, -0.000000000000000000 ) ) ;
#23 = FACE_OUTER_BOUND ( 'NONE', #3, .T. ) ;
#24 = SURFACE_SIDE_STYLE ('',( #29 ) ) ;
#25 = FILL_AREA_STYLE_COLOUR ( '', #216 ) ;
#26 = EDGE_LOOP ( 'NONE', ( #1, #283, #37, #239 ) ) ;
#27 = ORIENTED_EDGE ( 'NONE', *, *, #214, .T. ) ;
#28 = MANIFOLD_SOLID_BREP ( 'Revolve - Tool Body (Straight Shanked)', #166 ) ;
#29 = SURFACE_STYLE_FILL_AREA ( #83 ) ;
#30 = CYLINDRICAL_SURFACE ( 'NONE', #60, 0.06250000000000002776 ) ;
#31 = UNCERTAINTY_MEASURE_WITH_UNIT (LENGTH_MEASURE( 1.000000000000000082E-05 ), #250, 'distance_accuracy_value', 'NONE');
#32 = ORIENTED_EDGE ( 'NONE', *, *, #172, .T. ) ;
#33 = STYLED_ITEM ( 'NONE', ( #130 ), #64 ) ;
#34 =( GEOMETRIC_REPRESENTATION_CONTEXT ( 3 ) GLOBAL_UNCERTAINTY_ASSIGNED_CONTEXT ( ( #131 ) ) GLOBAL_UNIT_ASSIGNED_CONTEXT ( ( #147, #211, #121 ) ) REPRESENTATION_CONTEXT ( 'NONE', 'WORKASPACE' ) );
#35 = CARTESIAN_POINT ( 'NONE',  ( -6.123233995736766036E-17, 2.500000000000000000, 0.000000000000000000 ) ) ;
#36 = EDGE_LOOP ( 'NONE', ( #154, #189 ) ) ;
#37 = ORIENTED_EDGE ( 'NONE', *, *, #202, .F. ) ;
#38 = PRESENTATION_LAYER_ASSIGNMENT (  '', '', ( #33 ) ) ;
#39 = DIMENSIONAL_EXPONENTS ( 1.000000000000000000, 0.000000000000000000, 0.000000000000000000, 0.000000000000000000, 0.000000000000000000, 0.000000000000000000, 0.000000000000000000 ) ;
#40 = CYLINDRICAL_SURFACE ( 'NONE', #148, 0.06250000000000000000 ) ;
#41 = PRODUCT_DEFINITION_CONTEXT ( 'detailed design', #266, 'design' ) ;
#42 = CARTESIAN_POINT ( 'NONE',  ( 0.000000000000000000, 0.000000000000000000, 0.000000000000000000 ) ) ;
#43 = CARTESIAN_POINT ( 'NONE',  ( -6.123233995736766036E-17, 2.500000000000000000, 0.000000000000000000 ) ) ;
#44 =( GEOMETRIC_REPRESENTATION_CONTEXT ( 3 ) GLOBAL_UNCERTAINTY_ASSIGNED_CONTEXT ( ( #186 ) ) GLOBAL_UNIT_ASSIGNED_CONTEXT ( ( #13, #156, #267 ) ) REPRESENTATION_CONTEXT ( 'NONE', 'WORKASPACE' ) );
#45 = FACE_OUTER_BOUND ( 'NONE', #103, .T. ) ;
#46 = EDGE_CURVE ( 'NONE', #58, #150, #153, .T. ) ;
#47 = DIRECTION ( 'NONE',  ( -0.000000000000000000, -1.000000000000000000, -0.000000000000000000 ) ) ;
#48 = SURFACE_SIDE_STYLE ('',( #251 ) ) ;
#49 =( NAMED_UNIT ( * ) SI_UNIT ( $, .STERADIAN. ) SOLID_ANGLE_UNIT ( ) );
#50 =( NAMED_UNIT ( * ) SI_UNIT ( $, .STERADIAN. ) SOLID_ANGLE_UNIT ( ) );
#51 = AXIS2_PLACEMENT_3D ( 'NONE', #92, #207, #117 ) ;
#52 = SURFACE_STYLE_FILL_AREA ( #203 ) ;
#53 = ORIENTED_EDGE ( 'NONE', *, *, #202, .T. ) ;
#54 = DIRECTION ( 'NONE',  ( -1.000000000000000000, 0.000000000000000000, 0.000000000000000000 ) ) ;
#55 = PRESENTATION_LAYER_ASSIGNMENT (  '', '', ( #108 ) ) ;
#56 = ORIENTED_EDGE ( 'NONE', *, *, #261, .T. ) ;
#57 =( CONVERSION_BASED_UNIT ( 'INCH', #169 ) LENGTH_UNIT ( ) NAMED_UNIT ( #14 ) );
#58 = VERTEX_POINT ( 'NONE', #62 ) ;
#59 = CIRCLE ( 'NONE', #176, 0.06250000000000000000 ) ;
#60 = AXIS2_PLACEMENT_3D ( 'NONE', #35, #129, #238 ) ;
#61 = PRODUCT_DEFINITION_SHAPE ( 'NONE', 'NONE',  #192 ) ;
#62 = CARTESIAN_POINT ( 'NONE',  ( 0.06250000000000000000, 2.500000000000000000, 7.654042494670963708E-18 ) ) ;
#63 = DIMENSIONAL_EXPONENTS ( 1.000000000000000000, 0.000000000000000000, 0.000000000000000000, 0.000000000000000000, 0.000000000000000000, 0.000000000000000000, 0.000000000000000000 ) ;
#64 = ADVANCED_FACE ( 'NONE', ( #243 ), #40, .T. ) ;
#65 = STYLED_ITEM ( 'NONE', ( #138 ), #258 ) ;
#66 =( CONVERSION_BASED_UNIT ( 'INCH', #199 ) LENGTH_UNIT ( ) NAMED_UNIT ( #178 ) );
#67 =( LENGTH_UNIT ( ) NAMED_UNIT ( * ) SI_UNIT ( $, .METRE. ) );
#68 =( LENGTH_UNIT ( ) NAMED_UNIT ( * ) SI_UNIT ( $, .METRE. ) );
#69 = AXIS2_PLACEMENT_3D ( 'NONE', #272, #135, #90 ) ;
#70 = DIRECTION ( 'NONE',  ( -3.061616997868383018E-17, 1.000000000000000000, -0.000000000000000000 ) ) ;
#71 = UNCERTAINTY_MEASURE_WITH_UNIT (LENGTH_MEASURE( 1.000000000000000082E-05 ), #139, 'distance_accuracy_value', 'NONE');
#72 = ORIENTED_EDGE ( 'NONE', *, *, #95, .T. ) ;
#73 = SURFACE_STYLE_USAGE ( .BOTH. , #24 ) ;
#74 = CARTESIAN_POINT ( 'NONE',  ( 0.000000000000000000, 0.000000000000000000, 0.000000000000000000 ) ) ;
#75 = ORIENTED_EDGE ( 'NONE', *, *, #293, .T. ) ;
#76 = CARTESIAN_POINT ( 'NONE',  ( 0.000000000000000000, 0.000000000000000000, 0.000000000000000000 ) ) ;
#77 = ADVANCED_FACE ( 'NONE', ( #12 ), #270, .T. ) ;
#78 = AXIS2_PLACEMENT_3D ( 'NONE', #116, #22, #208 ) ;
#79 = ORIENTED_EDGE ( 'NONE', *, *, #89, .F. ) ;
#80 = ORIENTED_EDGE ( 'NONE', *, *, #288, .T. ) ;
#81 =( LENGTH_UNIT ( ) NAMED_UNIT ( * ) SI_UNIT ( $, .METRE. ) );
#82 = DIRECTION ( 'NONE',  ( -3.061616997868383018E-17, 1.000000000000000000, -0.000000000000000000 ) ) ;
#83 = FILL_AREA_STYLE ('',( #289 ) ) ;
#84 =( GEOMETRIC_REPRESENTATION_CONTEXT ( 3 ) GLOBAL_UNCERTAINTY_ASSIGNED_CONTEXT ( ( #268 ) ) GLOBAL_UNIT_ASSIGNED_CONTEXT ( ( #57, #102, #100 ) ) REPRESENTATION_CONTEXT ( 'NONE', 'WORKASPACE' ) );
#85 = FILL_AREA_STYLE_COLOUR ( '', #162 ) ;
#86 = EDGE_CURVE ( 'NONE', #291, #196, #59, .T. ) ;
#87 = PRESENTATION_LAYER_ASSIGNMENT (  '', '', ( #292 ) ) ;
#88 = AXIS2_PLACEMENT_3D ( 'NONE', #17, #306, #98 ) ;
#89 = EDGE_CURVE ( 'NONE', #196, #195, #210, .T. ) ;
#90 = DIRECTION ( 'NONE',  ( 1.000000000000000000, 3.061616997868383018E-17, 0.000000000000000000 ) ) ;
#91 = COLOUR_RGB ( '',1.000000000000000000, 0.000000000000000000, 0.000000000000000000 ) ;
#92 = CARTESIAN_POINT ( 'NONE',  ( 2.929218325511440640E-35, 0.5000000000000000000, 0.000000000000000000 ) ) ;
#93 = DIRECTION ( 'NONE',  ( -3.061616997868383018E-17, 1.000000000000000000, -0.000000000000000000 ) ) ;
#94 =( CONVERSION_BASED_UNIT ( 'INCH', #181 ) LENGTH_UNIT ( ) NAMED_UNIT ( #39 ) );
#95 = EDGE_CURVE ( 'NONE', #291, #7, #299, .T. ) ;
#96 = LENGTH_MEASURE_WITH_UNIT ( LENGTH_MEASURE( 0.02539999999999999897 ), #204 );
#97 = DIRECTION ( 'NONE',  ( -3.061616997868383018E-17, 1.000000000000000000, -0.000000000000000000 ) ) ;
#98 = DIRECTION ( 'NONE',  ( -1.000000000000000000, 0.000000000000000000, 0.000000000000000000 ) ) ;
#99 = CARTESIAN_POINT ( 'NONE',  ( -0.06250000000000012490, 2.500000000000000000, 0.000000000000000000 ) ) ;
#100 =( NAMED_UNIT ( * ) SI_UNIT ( $, .STERADIAN. ) SOLID_ANGLE_UNIT ( ) );
#101 = ORIENTED_EDGE ( 'NONE', *, *, #172, .F. ) ;
#102 =( NAMED_UNIT ( * ) PLANE_ANGLE_UNIT ( ) SI_UNIT ( $, .RADIAN. ) );
#103 = EDGE_LOOP ( 'NONE', ( #79, #190, #72, #308 ) ) ;
#104 = DIRECTION ( 'NONE',  ( -3.061616997868383018E-17, 1.000000000000000000, -0.000000000000000000 ) ) ;
#105 =( GEOMETRIC_REPRESENTATION_CONTEXT ( 3 ) GLOBAL_UNCERTAINTY_ASSIGNED_CONTEXT ( ( #71 ) ) GLOBAL_UNIT_ASSIGNED_CONTEXT ( ( #139, #144, #249 ) ) REPRESENTATION_CONTEXT ( 'NONE', 'WORKASPACE' ) );
#106 = VERTEX_POINT ( 'NONE', #233 ) ;
#107 = EDGE_LOOP ( 'NONE', ( #219, #75, #80, #127 ) ) ;
#108 = STYLED_ITEM ( 'NONE', ( #212 ), #302 ) ;
#109 = SURFACE_SIDE_STYLE ('',( #223 ) ) ;
#110 = PLANE ( 'NONE',  #171 ) ;
#111 = FILL_AREA_STYLE_COLOUR ( '', #91 ) ;
#112 =( NAMED_UNIT ( * ) PLANE_ANGLE_UNIT ( ) SI_UNIT ( $, .RADIAN. ) );
#113 = UNCERTAINTY_MEASURE_WITH_UNIT (LENGTH_MEASURE( 1.000000000000000082E-05 ), #66, 'distance_accuracy_value', 'NONE');
#114 = SURFACE_STYLE_USAGE ( .BOTH. , #48 ) ;
#115 = CIRCLE ( 'NONE', #285, 0.06250000000000005551 ) ;
#116 = CARTESIAN_POINT ( 'NONE',  ( 0.000000000000000000, 0.000000000000000000, 0.000000000000000000 ) ) ;
#117 = DIRECTION ( 'NONE',  ( -1.000000000000000000, -3.061616997868383018E-17, 0.000000000000000000 ) ) ;
#118 = CARTESIAN_POINT ( 'NONE',  ( -0.06250000000000009714, 2.500000000000000000, 0.000000000000000000 ) ) ;
#119 = VECTOR ( 'NONE', #47, 39.37007874015748143 ) ;
#120 = PRESENTATION_STYLE_ASSIGNMENT (( #18 ) ) ;
#121 =( NAMED_UNIT ( * ) SI_UNIT ( $, .STERADIAN. ) SOLID_ANGLE_UNIT ( ) );
#122 = CARTESIAN_POINT ( 'NONE',  ( 7.654042494670957545E-18, 0.5000000000000000000, 0.06250000000000000000 ) ) ;
#123 = ORIENTED_EDGE ( 'NONE', *, *, #10, .T. ) ;
#124 = EDGE_LOOP ( 'NONE', ( #123, #236 ) ) ;
#125 = ADVANCED_FACE ( 'NONE', ( #23 ), #275, .F. ) ;
#126 = MECHANICAL_DESIGN_GEOMETRIC_PRESENTATION_REPRESENTATION (  '', ( #140 ), #253 ) ;
#127 = ORIENTED_EDGE ( 'NONE', *, *, #46, .F. ) ;
#128 = DIRECTION ( 'NONE',  ( 1.000000000000000000, 0.000000000000000000, 0.000000000000000000 ) ) ;
#129 = DIRECTION ( 'NONE',  ( -3.061616997868383018E-17, 1.000000000000000000, -0.000000000000000000 ) ) ;
#130 = PRESENTATION_STYLE_ASSIGNMENT (( #241 ) ) ;
#131 = UNCERTAINTY_MEASURE_WITH_UNIT (LENGTH_MEASURE( 1.000000000000000082E-05 ), #147, 'distance_accuracy_value', 'NONE');
#132 = MECHANICAL_DESIGN_GEOMETRIC_PRESENTATION_REPRESENTATION (  '', ( #108 ), #34 ) ;
#133 = FILL_AREA_STYLE_COLOUR ( '', #8 ) ;
#134 = DIRECTION ( 'NONE',  ( -3.061616997868383018E-17, 1.000000000000000000, -0.000000000000000000 ) ) ;
#135 = DIRECTION ( 'NONE',  ( 3.061616997868383018E-17, -1.000000000000000000, 0.000000000000000000 ) ) ;
#136 = AXIS2_PLACEMENT_3D ( 'NONE', #298, #93, #183 ) ;
#137 = MANIFOLD_SOLID_BREP ( 'Revolve - Cutting Edge', #205 ) ;
#138 = PRESENTATION_STYLE_ASSIGNMENT (( #141 ) ) ;
#139 =( CONVERSION_BASED_UNIT ( 'INCH', #159 ) LENGTH_UNIT ( ) NAMED_UNIT ( #274 ) );
#140 = STYLED_ITEM ( 'NONE', ( #228 ), #28 ) ;
#141 = SURFACE_STYLE_USAGE ( .BOTH. , #277 ) ;
#142 = CIRCLE ( 'NONE', #78, 0.06250000000000000000 ) ;
#143 = CARTESIAN_POINT ( 'NONE',  ( 0.000000000000000000, 0.000000000000000000, 0.000000000000000000 ) ) ;
#144 =( NAMED_UNIT ( * ) PLANE_ANGLE_UNIT ( ) SI_UNIT ( $, .RADIAN. ) );
#145 = SHAPE_DEFINITION_REPRESENTATION ( #61, #2 ) ;
#146 = CARTESIAN_POINT ( 'NONE',  ( 7.654042494670957545E-18, 0.000000000000000000, 0.06250000000000000000 ) ) ;
#147 =( CONVERSION_BASED_UNIT ( 'INCH', #165 ) LENGTH_UNIT ( ) NAMED_UNIT ( #63 ) );
#148 = AXIS2_PLACEMENT_3D ( 'NONE', #42, #222, #197 ) ;
#149 = CARTESIAN_POINT ( 'NONE',  ( 7.654042494670957545E-18, 0.000000000000000000, 0.06250000000000000000 ) ) ;
#150 = VERTEX_POINT ( 'NONE', #99 ) ;
#151 = ORIENTED_EDGE ( 'NONE', *, *, #10, .F. ) ;
#152 = APPLICATION_PROTOCOL_DEFINITION ( 'draft international standard', 'automotive_design', 1998, #161 ) ;
#153 = CIRCLE ( 'NONE', #136, 0.06250000000000005551 ) ;
#154 = ORIENTED_EDGE ( 'NONE', *, *, #86, .F. ) ;
#155 = EDGE_CURVE ( 'NONE', #196, #291, #265, .T. ) ;
#156 =( NAMED_UNIT ( * ) PLANE_ANGLE_UNIT ( ) SI_UNIT ( $, .RADIAN. ) );
#157 = MECHANICAL_DESIGN_GEOMETRIC_PRESENTATION_REPRESENTATION (  '', ( #292 ), #105 ) ;
#158 =( NAMED_UNIT ( * ) SI_UNIT ( $, .STERADIAN. ) SOLID_ANGLE_UNIT ( ) );
#159 = LENGTH_MEASURE_WITH_UNIT ( LENGTH_MEASURE( 0.02539999999999999897 ), #68 );
#160 = FILL_AREA_STYLE_COLOUR ( '', #269 ) ;
#161 = APPLICATION_CONTEXT ( 'automotive_design' ) ;
#162 = COLOUR_RGB ( '',1.000000000000000000, 0.000000000000000000, 0.000000000000000000 ) ;
#163 = AXIS2_PLACEMENT_3D ( 'NONE', #200, #70, #164 ) ;
#164 = DIRECTION ( 'NONE',  ( -1.000000000000000000, 0.000000000000000000, 0.000000000000000000 ) ) ;
#165 = LENGTH_MEASURE_WITH_UNIT ( LENGTH_MEASURE( 0.02539999999999999897 ), #81 );
#166 = CLOSED_SHELL ( 'NONE', ( #230, #125, #167, #218 ) ) ;
#167 = ADVANCED_FACE ( 'NONE', ( #264 ), #30, .T. ) ;
#168 = EDGE_LOOP ( 'NONE', ( #32, #27, #151, #257 ) ) ;
#169 = LENGTH_MEASURE_WITH_UNIT ( LENGTH_MEASURE( 0.02539999999999999897 ), #215 );
#170 = FACE_OUTER_BOUND ( 'NONE', #124, .T. ) ;
#171 = AXIS2_PLACEMENT_3D ( 'NONE', #188, #237, #307 ) ;
#172 = EDGE_CURVE ( 'NONE', #106, #213, #244, .T. ) ;
#173 = UNCERTAINTY_MEASURE_WITH_UNIT (LENGTH_MEASURE( 1.000000000000000082E-05 ), #94, 'distance_accuracy_value', 'NONE');
#174 = SURFACE_SIDE_STYLE ('',( #220 ) ) ;
#175 = DIMENSIONAL_EXPONENTS ( 1.000000000000000000, 0.000000000000000000, 0.000000000000000000, 0.000000000000000000, 0.000000000000000000, 0.000000000000000000, 0.000000000000000000 ) ;
#176 = AXIS2_PLACEMENT_3D ( 'NONE', #256, #187, #184 ) ;
#177 = VECTOR ( 'NONE', #82, 39.37007874015748143 ) ;
#178 = DIMENSIONAL_EXPONENTS ( 1.000000000000000000, 0.000000000000000000, 0.000000000000000000, 0.000000000000000000, 0.000000000000000000, 0.000000000000000000, 0.000000000000000000 ) ;
#179 = SURFACE_STYLE_USAGE ( .BOTH. , #109 ) ;
#180 = DIRECTION ( 'NONE',  ( -1.000000000000000000, 0.000000000000000000, 0.000000000000000000 ) ) ;
#181 = LENGTH_MEASURE_WITH_UNIT ( LENGTH_MEASURE( 0.02539999999999999897 ), #67 );
#182 = SURFACE_STYLE_FILL_AREA ( #227 ) ;
#183 = DIRECTION ( 'NONE',  ( -1.000000000000000000, 0.000000000000000000, 0.000000000000000000 ) ) ;
#184 = DIRECTION ( 'NONE',  ( 0.000000000000000000, 0.000000000000000000, -1.000000000000000000 ) ) ;
#185 = MECHANICAL_DESIGN_GEOMETRIC_PRESENTATION_REPRESENTATION (  '', ( #33 ), #44 ) ;
#186 = UNCERTAINTY_MEASURE_WITH_UNIT (LENGTH_MEASURE( 1.000000000000000082E-05 ), #13, 'distance_accuracy_value', 'NONE');
#187 = DIRECTION ( 'NONE',  ( -0.000000000000000000, -1.000000000000000000, -0.000000000000000000 ) ) ;
#188 = CARTESIAN_POINT ( 'NONE',  ( 0.000000000000000000, 0.5000000000000000000, 0.000000000000000000 ) ) ;
#189 = ORIENTED_EDGE ( 'NONE', *, *, #155, .F. ) ;
#190 = ORIENTED_EDGE ( 'NONE', *, *, #155, .T. ) ;
#191 = AXIS2_PLACEMENT_3D ( 'NONE', #254, #278, #16 ) ;
#192 = PRODUCT_DEFINITION ( 'UNKNOWN', '', #276, #41 ) ;
#193 = DIRECTION ( 'NONE',  ( 0.000000000000000000, 0.000000000000000000, -1.000000000000000000 ) ) ;
#194 = CARTESIAN_POINT ( 'NONE',  ( 0.06250000000000000000, 0.5000000000000001110, 7.654042494670963708E-18 ) ) ;
#195 = VERTEX_POINT ( 'NONE', #149 ) ;
#196 = VERTEX_POINT ( 'NONE', #122 ) ;
#197 = DIRECTION ( 'NONE',  ( 0.000000000000000000, 0.000000000000000000, -1.000000000000000000 ) ) ;
#198 = CIRCLE ( 'NONE', #163, 0.06250000000000000000 ) ;
#199 = LENGTH_MEASURE_WITH_UNIT ( LENGTH_MEASURE( 0.02539999999999999897 ), #305 );
#200 = CARTESIAN_POINT ( 'NONE',  ( 0.000000000000000000, 0.5000000000000001110, 0.000000000000000000 ) ) ;
#201 = LENGTH_MEASURE_WITH_UNIT ( LENGTH_MEASURE( 0.02539999999999999897 ), #245 );
#202 = EDGE_CURVE ( 'NONE', #7, #195, #260, .T. ) ;
#203 = FILL_AREA_STYLE ('',( #111 ) ) ;
#204 =( LENGTH_UNIT ( ) NAMED_UNIT ( * ) SI_UNIT ( $, .METRE. ) );
#205 = CLOSED_SHELL ( 'NONE', ( #64, #302, #258, #77 ) ) ;
#206 = COLOUR_RGB ( '',1.000000000000000000, 0.000000000000000000, 0.000000000000000000 ) ;
#207 = DIRECTION ( 'NONE',  ( -3.061616997868383018E-17, 1.000000000000000000, 0.000000000000000000 ) ) ;
#208 = DIRECTION ( 'NONE',  ( 0.000000000000000000, 0.000000000000000000, -1.000000000000000000 ) ) ;
#209 = CARTESIAN_POINT ( 'NONE',  ( 0.000000000000000000, 0.5000000000000000000, 0.000000000000000000 ) ) ;
#210 = LINE ( 'NONE', #146, #247 ) ;
#211 =( NAMED_UNIT ( * ) PLANE_ANGLE_UNIT ( ) SI_UNIT ( $, .RADIAN. ) );
#212 = PRESENTATION_STYLE_ASSIGNMENT (( #73 ) ) ;
#213 = VERTEX_POINT ( 'NONE', #194 ) ;
#214 = EDGE_CURVE ( 'NONE', #213, #58, #287, .T. ) ;
#215 =( LENGTH_UNIT ( ) NAMED_UNIT ( * ) SI_UNIT ( $, .METRE. ) );
#216 = COLOUR_RGB ( '',0.7921568627450980005, 0.8196078431372548767, 0.9333333333333333481 ) ;
#217 = AXIS2_PLACEMENT_3D ( 'NONE', #76, #286, #128 ) ;
#218 = ADVANCED_FACE ( 'NONE', ( #170 ), #296, .F. ) ;
#219 = ORIENTED_EDGE ( 'NONE', *, *, #214, .F. ) ;
#220 = SURFACE_STYLE_FILL_AREA ( #224 ) ;
#221 = PRESENTATION_LAYER_ASSIGNMENT (  '', '', ( #65 ) ) ;
#222 = DIRECTION ( 'NONE',  ( -0.000000000000000000, -1.000000000000000000, -0.000000000000000000 ) ) ;
#223 = SURFACE_STYLE_FILL_AREA ( #297 ) ;
#224 = FILL_AREA_STYLE ('',( #85 ) ) ;
#225 = FACE_OUTER_BOUND ( 'NONE', #168, .T. ) ;
#226 =( NAMED_UNIT ( * ) PLANE_ANGLE_UNIT ( ) SI_UNIT ( $, .RADIAN. ) );
#227 = FILL_AREA_STYLE ('',( #25 ) ) ;
#228 = PRESENTATION_STYLE_ASSIGNMENT (( #114 ) ) ;
#229 = AXIS2_PLACEMENT_3D ( 'NONE', #74, #6, #309 ) ;
#230 = ADVANCED_FACE ( 'NONE', ( #225 ), #248, .T. ) ;
#231 = DIRECTION ( 'NONE',  ( -0.000000000000000000, -1.000000000000000000, -0.000000000000000000 ) ) ;
#232 = APPLICATION_PROTOCOL_DEFINITION ( 'draft international standard', 'automotive_design', 1998, #266 ) ;
#233 = CARTESIAN_POINT ( 'NONE',  ( -0.06250000000000000000, 0.5000000000000001110, 0.000000000000000000 ) ) ;
#234 = MECHANICAL_DESIGN_GEOMETRIC_PRESENTATION_REPRESENTATION (  '', ( #242 ), #19 ) ;
#235 = AXIS2_PLACEMENT_3D ( 'NONE', #143, #20, #303 ) ;
#236 = ORIENTED_EDGE ( 'NONE', *, *, #46, .T. ) ;
#237 = DIRECTION ( 'NONE',  ( 0.000000000000000000, 1.000000000000000000, 0.000000000000000000 ) ) ;
#238 = DIRECTION ( 'NONE',  ( -1.000000000000000000, 0.000000000000000000, 0.000000000000000000 ) ) ;
#239 = ORIENTED_EDGE ( 'NONE', *, *, #95, .F. ) ;
#240 = PRODUCT_CONTEXT ( 'NONE', #161, 'mechanical' ) ;
#241 = SURFACE_STYLE_USAGE ( .BOTH. , #174 ) ;
#242 = STYLED_ITEM ( 'NONE', ( #246 ), #77 ) ;
#243 = FACE_OUTER_BOUND ( 'NONE', #26, .T. ) ;
#244 = CIRCLE ( 'NONE', #9, 0.06250000000000000000 ) ;
#245 =( LENGTH_UNIT ( ) NAMED_UNIT ( * ) SI_UNIT ( $, .METRE. ) );
#246 = PRESENTATION_STYLE_ASSIGNMENT (( #179 ) ) ;
#247 = VECTOR ( 'NONE', #231, 39.37007874015748143 ) ;
#248 = CYLINDRICAL_SURFACE ( 'NONE', #88, 0.06250000000000002776 ) ;
#249 =( NAMED_UNIT ( * ) SI_UNIT ( $, .STERADIAN. ) SOLID_ANGLE_UNIT ( ) );
#250 =( CONVERSION_BASED_UNIT ( 'INCH', #96 ) LENGTH_UNIT ( ) NAMED_UNIT ( #175 ) );
#251 = SURFACE_STYLE_FILL_AREA ( #252 ) ;
#252 = FILL_AREA_STYLE ('',( #160 ) ) ;
#253 =( GEOMETRIC_REPRESENTATION_CONTEXT ( 3 ) GLOBAL_UNCERTAINTY_ASSIGNED_CONTEXT ( ( #113 ) ) GLOBAL_UNIT_ASSIGNED_CONTEXT ( ( #66, #301, #158 ) ) REPRESENTATION_CONTEXT ( 'NONE', 'WORKASPACE' ) );
#254 = CARTESIAN_POINT ( 'NONE',  ( 0.000000000000000000, 0.000000000000000000, 0.000000000000000000 ) ) ;
#255 = FACE_OUTER_BOUND ( 'NONE', #36, .T. ) ;
#256 = CARTESIAN_POINT ( 'NONE',  ( 0.000000000000000000, 0.5000000000000000000, 0.000000000000000000 ) ) ;
#257 = ORIENTED_EDGE ( 'NONE', *, *, #288, .F. ) ;
#258 = ADVANCED_FACE ( 'NONE', ( #45 ), #279, .T. ) ;
#259 = DIRECTION ( 'NONE',  ( -0.000000000000000000, -1.000000000000000000, -0.000000000000000000 ) ) ;
#260 = CIRCLE ( 'NONE', #229, 0.06250000000000000000 ) ;
#261 = EDGE_CURVE ( 'NONE', #195, #7, #142, .T. ) ;
#262 = ORIENTED_EDGE ( 'NONE', *, *, #293, .F. ) ;
#263 =( GEOMETRIC_REPRESENTATION_CONTEXT ( 3 ) GLOBAL_UNCERTAINTY_ASSIGNED_CONTEXT ( ( #173 ) ) GLOBAL_UNIT_ASSIGNED_CONTEXT ( ( #94, #226, #49 ) ) REPRESENTATION_CONTEXT ( 'NONE', 'WORKASPACE' ) );
#264 = FACE_OUTER_BOUND ( 'NONE', #107, .T. ) ;
#265 = CIRCLE ( 'NONE', #271, 0.06250000000000000000 ) ;
#266 = APPLICATION_CONTEXT ( 'automotive_design' ) ;
#267 =( NAMED_UNIT ( * ) SI_UNIT ( $, .STERADIAN. ) SOLID_ANGLE_UNIT ( ) );
#268 = UNCERTAINTY_MEASURE_WITH_UNIT (LENGTH_MEASURE( 1.000000000000000082E-05 ), #57, 'distance_accuracy_value', 'NONE');
#269 = COLOUR_RGB ( '',0.7921568627450980005, 0.8196078431372548767, 0.9333333333333333481 ) ;
#270 = PLANE ( 'NONE',  #191 ) ;
#271 = AXIS2_PLACEMENT_3D ( 'NONE', #209, #259, #193 ) ;
#272 = CARTESIAN_POINT ( 'NONE',  ( 0.06250000000000000000, 2.500000000000000000, 0.000000000000000000 ) ) ;
#273 = PRODUCT_RELATED_PRODUCT_CATEGORY ( 'part', '', ( #11 ) ) ;
#274 = DIMENSIONAL_EXPONENTS ( 1.000000000000000000, 0.000000000000000000, 0.000000000000000000, 0.000000000000000000, 0.000000000000000000, 0.000000000000000000, 0.000000000000000000 ) ;
#275 = PLANE ( 'NONE',  #51 ) ;
#276 = PRODUCT_DEFINITION_FORMATION_WITH_SPECIFIED_SOURCE ( 'ANY', '', #11, .NOT_KNOWN. ) ;
#277 = SURFACE_SIDE_STYLE ('',( #52 ) ) ;
#278 = DIRECTION ( 'NONE',  ( 0.000000000000000000, -1.000000000000000000, -0.000000000000000000 ) ) ;
#279 = CYLINDRICAL_SURFACE ( 'NONE', #235, 0.06250000000000000000 ) ;
#280 = PRESENTATION_LAYER_ASSIGNMENT (  '', '', ( #140 ) ) ;
#281 = CARTESIAN_POINT ( 'NONE',  ( 0.000000000000000000, 0.5000000000000000000, -0.06250000000000000000 ) ) ;
#282 = CARTESIAN_POINT ( 'NONE',  ( 0.000000000000000000, 0.5000000000000001110, 0.000000000000000000 ) ) ;
#283 = ORIENTED_EDGE ( 'NONE', *, *, #89, .T. ) ;
#284 = EDGE_LOOP ( 'NONE', ( #53, #56 ) ) ;
#285 = AXIS2_PLACEMENT_3D ( 'NONE', #43, #134, #180 ) ;
#286 = DIRECTION ( 'NONE',  ( 0.000000000000000000, 0.000000000000000000, 1.000000000000000000 ) ) ;
#287 = LINE ( 'NONE', #290, #177 ) ;
#288 = EDGE_CURVE ( 'NONE', #106, #150, #15, .T. ) ;
#289 = FILL_AREA_STYLE_COLOUR ( '', #206 ) ;
#290 = CARTESIAN_POINT ( 'NONE',  ( 0.06249999999999997224, 2.500000000000000000, 7.654042494670960626E-18 ) ) ;
#291 = VERTEX_POINT ( 'NONE', #281 ) ;
#292 = STYLED_ITEM ( 'NONE', ( #120 ), #137 ) ;
#293 = EDGE_CURVE ( 'NONE', #213, #106, #198, .T. ) ;
#294 = CARTESIAN_POINT ( 'NONE',  ( 0.000000000000000000, 0.000000000000000000, -0.06250000000000000000 ) ) ;
#295 = DIMENSIONAL_EXPONENTS ( 1.000000000000000000, 0.000000000000000000, 0.000000000000000000, 0.000000000000000000, 0.000000000000000000, 0.000000000000000000, 0.000000000000000000 ) ;
#296 = PLANE ( 'NONE',  #69 ) ;
#297 = FILL_AREA_STYLE ('',( #133 ) ) ;
#298 = CARTESIAN_POINT ( 'NONE',  ( -6.123233995736766036E-17, 2.500000000000000000, 0.000000000000000000 ) ) ;
#299 = LINE ( 'NONE', #21, #119 ) ;
#300 = MECHANICAL_DESIGN_GEOMETRIC_PRESENTATION_REPRESENTATION (  '', ( #65 ), #263 ) ;
#301 =( NAMED_UNIT ( * ) PLANE_ANGLE_UNIT ( ) SI_UNIT ( $, .RADIAN. ) );
#302 = ADVANCED_FACE ( 'NONE', ( #255 ), #110, .T. ) ;
#303 = DIRECTION ( 'NONE',  ( 0.000000000000000000, 0.000000000000000000, -1.000000000000000000 ) ) ;
#304 = SURFACE_SIDE_STYLE ('',( #182 ) ) ;
#305 =( LENGTH_UNIT ( ) NAMED_UNIT ( * ) SI_UNIT ( $, .METRE. ) );
#306 = DIRECTION ( 'NONE',  ( -3.061616997868383018E-17, 1.000000000000000000, -0.000000000000000000 ) ) ;
#307 = DIRECTION ( 'NONE',  ( 0.000000000000000000, -0.000000000000000000, 1.000000000000000000 ) ) ;
#308 = ORIENTED_EDGE ( 'NONE', *, *, #261, .F. ) ;
#309 = DIRECTION ( 'NONE',  ( 0.000000000000000000, 0.000000000000000000, -1.000000000000000000 ) ) ;
ENDSEC;
END-ISO-10303-21;
