ISO-10303-21;
HEADER;
FILE_DESCRIPTION (( 'STEP AP214' ),
    '1' );
FILE_NAME ('Micro_SPD-750-120.STEP',
    '2021-09-03T21:22:49',
    ( '' ),
    ( '' ),
    'SwSTEP 2.0',
    'SolidWorks 2020',
    '' );
FILE_SCHEMA (( 'AUTOMOTIVE_DESIGN' ));
ENDSEC;

DATA;
#1 = EDGE_LOOP ( 'NONE', ( #201, #59, #161, #101 ) ) ;
#2 = DIRECTION ( 'NONE',  ( -0.0000000000000000000, -0.0000000000000000000, -1.000000000000000000 ) ) ;
#3 = CARTESIAN_POINT ( 'NONE',  ( 0.0000000000000000000, 0.0000000000000000000, 2.484999999999999876 ) ) ;
#4 = EDGE_LOOP ( 'NONE', ( #211, #275, #203, #236 ) ) ;
#5 = CONICAL_SURFACE ( 'NONE', #322, 0.04900000000000000189, 1.047197551196600518 ) ;
#6 = UNCERTAINTY_MEASURE_WITH_UNIT (LENGTH_MEASURE( 1.000000000000000082E-05 ), #313, 'distance_accuracy_value', 'NONE');
#7 = FACE_OUTER_BOUND ( 'NONE', #74, .T. ) ;
#8 = ORIENTED_EDGE ( 'NONE', *, *, #244, .F. ) ;
#9 = ADVANCED_FACE ( 'NONE', ( #10 ), #142, .T. ) ;
#10 = FACE_OUTER_BOUND ( 'NONE', #298, .T. ) ;
#11 = LINE ( 'NONE', #114, #182 ) ;
#12 = DIRECTION ( 'NONE',  ( -0.0000000000000000000, -0.0000000000000000000, -1.000000000000000000 ) ) ;
#13 = ADVANCED_FACE ( 'NONE', ( #133 ), #212, .T. ) ;
#14 = DIRECTION ( 'NONE',  ( -0.0000000000000000000, -0.0000000000000000000, -1.000000000000000000 ) ) ;
#15 = CARTESIAN_POINT ( 'NONE',  ( -0.3749500000000001165, 4.591813173403002577E-17, 1.125000000000000000 ) ) ;
#16 = APPLICATION_PROTOCOL_DEFINITION ( 'draft international standard', 'automotive_design', 1998, #307 ) ;
#17 = DIRECTION ( 'NONE',  ( 1.000000000000000000, 0.0000000000000000000, 0.0000000000000000000 ) ) ;
#18 = VECTOR ( 'NONE', #66, 39.37007874015748143 ) ;
#19 = DIRECTION ( 'NONE',  ( -1.000000000000000000, 0.0000000000000000000, 0.0000000000000000000 ) ) ;
#20 = DIRECTION ( 'NONE',  ( 1.000000000000000000, 0.0000000000000000000, -0.0000000000000000000 ) ) ;
#21 = FILL_AREA_STYLE ('',( #266 ) ) ;
#22 = EDGE_CURVE ( 'NONE', #140, #303, #45, .T. ) ;
#23 = FACE_OUTER_BOUND ( 'NONE', #57, .T. ) ;
#24 = DIMENSIONAL_EXPONENTS ( 1.000000000000000000, 0.0000000000000000000, 0.0000000000000000000, 0.0000000000000000000, 0.0000000000000000000, 0.0000000000000000000, 0.0000000000000000000 ) ;
#25 = VERTEX_POINT ( 'NONE', #279 ) ;
#26 = ADVANCED_FACE ( 'NONE', ( #7 ), #5, .T. ) ;
#27 = AXIS2_PLACEMENT_3D ( 'NONE', #224, #226, #192 ) ;
#28 = CARTESIAN_POINT ( 'NONE',  ( 0.0000000000000000000, 0.0000000000000000000, 0.1881873202423573477 ) ) ;
#29 = ORIENTED_EDGE ( 'NONE', *, *, #271, .F. ) ;
#30 = ORIENTED_EDGE ( 'NONE', *, *, #336, .F. ) ;
#31 = PRODUCT ( 'Micro_SPD-750-120', 'Micro_SPD-750-120', '', ( #41 ) ) ;
#32 = ORIENTED_EDGE ( 'NONE', *, *, #312, .F. ) ;
#33 = PRESENTATION_LAYER_ASSIGNMENT (  '', '', ( #327 ) ) ;
#34 = AXIS2_PLACEMENT_3D ( 'NONE', #335, #154, #103 ) ;
#35 = ORIENTED_EDGE ( 'NONE', *, *, #22, .F. ) ;
#36 = ORIENTED_EDGE ( 'NONE', *, *, #191, .T. ) ;
#37 = EDGE_CURVE ( 'NONE', #238, #270, #141, .T. ) ;
#38 = VECTOR ( 'NONE', #80, 39.37007874015748143 ) ;
#39 = AXIS2_PLACEMENT_3D ( 'NONE', #150, #262, #20 ) ;
#40 = DIRECTION ( 'NONE',  ( 0.0000000000000000000, 0.0000000000000000000, -1.000000000000000000 ) ) ;
#41 = PRODUCT_CONTEXT ( 'NONE', #307, 'mechanical' ) ;
#42 = DIRECTION ( 'NONE',  ( 0.0000000000000000000, 0.0000000000000000000, 1.000000000000000000 ) ) ;
#43 =( LENGTH_UNIT ( ) NAMED_UNIT ( * ) SI_UNIT ( $, .METRE. ) );
#44 = FACE_OUTER_BOUND ( 'NONE', #159, .T. ) ;
#45 = CIRCLE ( 'NONE', #252, 0.04900000000000000189 ) ;
#46 = CYLINDRICAL_SURFACE ( 'NONE', #254, 0.3749500000000000610 ) ;
#47 = FACE_OUTER_BOUND ( 'NONE', #186, .T. ) ;
#48 =( NAMED_UNIT ( * ) PLANE_ANGLE_UNIT ( ) SI_UNIT ( $, .RADIAN. ) );
#49 = MECHANICAL_DESIGN_GEOMETRIC_PRESENTATION_REPRESENTATION (  '', ( #327 ), #242 ) ;
#50 = CARTESIAN_POINT ( 'NONE',  ( 0.0000000000000000000, 0.0000000000000000000, 1.125049999999999883 ) ) ;
#51 = AXIS2_PLACEMENT_3D ( 'NONE', #67, #139, #147 ) ;
#52 =( NAMED_UNIT ( * ) SI_UNIT ( $, .STERADIAN. ) SOLID_ANGLE_UNIT ( ) );
#53 = CARTESIAN_POINT ( 'NONE',  ( 0.0000000000000000000, 0.0000000000000000000, 1.125049999999999883 ) ) ;
#54 = EDGE_CURVE ( 'NONE', #137, #330, #11, .T. ) ;
#55 = ORIENTED_EDGE ( 'NONE', *, *, #336, .T. ) ;
#56 = EDGE_LOOP ( 'NONE', ( #81, #209, #207, #82 ) ) ;
#57 = EDGE_LOOP ( 'NONE', ( #36, #155, #160, #234 ) ) ;
#58 = CIRCLE ( 'NONE', #158, 0.3750000000000000555 ) ;
#59 = ORIENTED_EDGE ( 'NONE', *, *, #215, .F. ) ;
#60 =( NAMED_UNIT ( * ) SI_UNIT ( $, .STERADIAN. ) SOLID_ANGLE_UNIT ( ) );
#61 = ORIENTED_EDGE ( 'NONE', *, *, #105, .F. ) ;
#62 = EDGE_CURVE ( 'NONE', #157, #270, #241, .T. ) ;
#63 =( NAMED_UNIT ( * ) PLANE_ANGLE_UNIT ( ) SI_UNIT ( $, .RADIAN. ) );
#64 = DIRECTION ( 'NONE',  ( -0.7071067811865362485, 0.0000000000000000000, -0.7071067811865586750 ) ) ;
#65 = SURFACE_STYLE_USAGE ( .BOTH. , #256 ) ;
#66 = DIRECTION ( 'NONE',  ( -0.0000000000000000000, -0.0000000000000000000, -1.000000000000000000 ) ) ;
#67 = CARTESIAN_POINT ( 'NONE',  ( 0.0000000000000000000, 0.0000000000000000000, 0.0000000000000000000 ) ) ;
#68 = DIRECTION ( 'NONE',  ( -1.000000000000000000, 0.0000000000000000000, 0.0000000000000000000 ) ) ;
#69 = EDGE_CURVE ( 'NONE', #330, #25, #328, .T. ) ;
#70 = AXIS2_PLACEMENT_3D ( 'NONE', #223, #122, #19 ) ;
#71 = LINE ( 'NONE', #149, #100 ) ;
#72 = FACE_OUTER_BOUND ( 'NONE', #4, .T. ) ;
#73 = FACE_OUTER_BOUND ( 'NONE', #132, .T. ) ;
#74 = EDGE_LOOP ( 'NONE', ( #35, #347, #272, #265 ) ) ;
#75 =( GEOMETRIC_REPRESENTATION_CONTEXT ( 3 ) GLOBAL_UNCERTAINTY_ASSIGNED_CONTEXT ( ( #85 ) ) GLOBAL_UNIT_ASSIGNED_CONTEXT ( ( #334, #280, #60 ) ) REPRESENTATION_CONTEXT ( 'NONE', 'WORKASPACE' ) );
#76 = AXIS2_PLACEMENT_3D ( 'NONE', #190, #185, #111 ) ;
#77 = DIRECTION ( 'NONE',  ( 1.000000000000000000, 0.0000000000000000000, 0.0000000000000000000 ) ) ;
#78 = DIRECTION ( 'NONE',  ( 0.0000000000000000000, 0.0000000000000000000, 1.000000000000000000 ) ) ;
#79 = ORIENTED_EDGE ( 'NONE', *, *, #251, .F. ) ;
#80 = DIRECTION ( 'NONE',  ( -0.0000000000000000000, -0.0000000000000000000, -1.000000000000000000 ) ) ;
#81 = ORIENTED_EDGE ( 'NONE', *, *, #83, .F. ) ;
#82 = ORIENTED_EDGE ( 'NONE', *, *, #244, .T. ) ;
#83 = EDGE_CURVE ( 'NONE', #140, #112, #214, .T. ) ;
#84 = ORIENTED_EDGE ( 'NONE', *, *, #69, .F. ) ;
#85 = UNCERTAINTY_MEASURE_WITH_UNIT (LENGTH_MEASURE( 1.000000000000000082E-05 ), #334, 'distance_accuracy_value', 'NONE');
#86 = DIRECTION ( 'NONE',  ( 0.0000000000000000000, 0.0000000000000000000, 1.000000000000000000 ) ) ;
#87 = CIRCLE ( 'NONE', #109, 0.3749500000000000610 ) ;
#88 = CIRCLE ( 'NONE', #283, 0.3749500000000001165 ) ;
#89 = CARTESIAN_POINT ( 'NONE',  ( -0.3749500000000000610, 0.0000000000000000000, 0.0000000000000000000 ) ) ;
#90 = EDGE_CURVE ( 'NONE', #125, #137, #204, .T. ) ;
#91 = FACE_OUTER_BOUND ( 'NONE', #1, .T. ) ;
#92 = DIRECTION ( 'NONE',  ( -0.7071067811865487940, 8.659560562354948882E-17, 0.7071067811865462405 ) ) ;
#93 = VECTOR ( 'NONE', #296, 39.37007874015748143 ) ;
#94 = DIRECTION ( 'NONE',  ( 1.000000000000000000, 0.0000000000000000000, 0.0000000000000000000 ) ) ;
#95 = DIRECTION ( 'NONE',  ( 0.0000000000000000000, 0.0000000000000000000, -1.000000000000000000 ) ) ;
#96 = ORIENTED_EDGE ( 'NONE', *, *, #169, .T. ) ;
#97 = DIRECTION ( 'NONE',  ( 0.0000000000000000000, 0.0000000000000000000, -1.000000000000000000 ) ) ;
#98 = ORIENTED_EDGE ( 'NONE', *, *, #37, .T. ) ;
#99 = PLANE ( 'NONE',  #205 ) ;
#100 = VECTOR ( 'NONE', #167, 39.37007874015748854 ) ;
#101 = ORIENTED_EDGE ( 'NONE', *, *, #271, .T. ) ;
#102 = CIRCLE ( 'NONE', #294, 0.3750000000000000555 ) ;
#103 = DIRECTION ( 'NONE',  ( 1.000000000000000000, 0.0000000000000000000, 0.0000000000000000000 ) ) ;
#104 = ORIENTED_EDGE ( 'NONE', *, *, #90, .T. ) ;
#105 = EDGE_CURVE ( 'NONE', #125, #238, #71, .T. ) ;
#106 = DIRECTION ( 'NONE',  ( 1.000000000000000000, 0.0000000000000000000, 0.0000000000000000000 ) ) ;
#107 = ORIENTED_EDGE ( 'NONE', *, *, #54, .T. ) ;
#108 = CARTESIAN_POINT ( 'NONE',  ( 0.0000000000000000000, 0.0000000000000000000, 0.0000000000000000000 ) ) ;
#109 = AXIS2_PLACEMENT_3D ( 'NONE', #255, #14, #220 ) ;
#110 = CARTESIAN_POINT ( 'NONE',  ( -0.3750000000000000555, 0.0000000000000000000, 2.500000000000000000 ) ) ;
#111 = DIRECTION ( 'NONE',  ( -1.000000000000000000, 0.0000000000000000000, 0.0000000000000000000 ) ) ;
#112 = VERTEX_POINT ( 'NONE', #258 ) ;
#113 = SURFACE_STYLE_FILL_AREA ( #144 ) ;
#114 = CARTESIAN_POINT ( 'NONE',  ( -0.3600000000000002642, 0.0000000000000000000, 2.500000000000000000 ) ) ;
#115 = LENGTH_MEASURE_WITH_UNIT ( LENGTH_MEASURE( 0.02539999999999999897 ), #43 );
#116 = CARTESIAN_POINT ( 'NONE',  ( -0.3600000000000002642, 0.0000000000000000000, 2.500000000000000000 ) ) ;
#117 = CARTESIAN_POINT ( 'NONE',  ( 0.3600000000000002642, 4.500576986866523548E-17, 2.500000000000000000 ) ) ;
#118 = APPLICATION_PROTOCOL_DEFINITION ( 'draft international standard', 'automotive_design', 1998, #340 ) ;
#119 = COLOUR_RGB ( '',0.7921568627450980005, 0.8196078431372548767, 0.9333333333333333481 ) ;
#120 = DIRECTION ( 'NONE',  ( -0.8660254037844400399, 1.060575238724908640E-16, 0.4999999999999976685 ) ) ;
#121 = ADVANCED_FACE ( 'NONE', ( #72 ), #188, .T. ) ;
#122 = DIRECTION ( 'NONE',  ( -0.0000000000000000000, -0.0000000000000000000, -1.000000000000000000 ) ) ;
#123 = AXIS2_PLACEMENT_3D ( 'NONE', #228, #172, #17 ) ;
#124 =( LENGTH_UNIT ( ) NAMED_UNIT ( * ) SI_UNIT ( $, .METRE. ) );
#125 = VERTEX_POINT ( 'NONE', #117 ) ;
#126 = DIRECTION ( 'NONE',  ( -0.0000000000000000000, -0.0000000000000000000, -1.000000000000000000 ) ) ;
#127 = DIRECTION ( 'NONE',  ( 1.000000000000000000, 0.0000000000000000000, 0.0000000000000000000 ) ) ;
#128 = ADVANCED_FACE ( 'NONE', ( #91 ), #131, .T. ) ;
#129 = EDGE_LOOP ( 'NONE', ( #183, #104 ) ) ;
#130 = LENGTH_MEASURE_WITH_UNIT ( LENGTH_MEASURE( 0.02539999999999999897 ), #124 );
#131 = CONICAL_SURFACE ( 'NONE', #123, 0.3749500000000001165, 0.7853981633974501664 ) ;
#132 = EDGE_LOOP ( 'NONE', ( #55, #98, #240, #84 ) ) ;
#133 = FACE_OUTER_BOUND ( 'NONE', #56, .T. ) ;
#134 = STYLED_ITEM ( 'NONE', ( #267 ), #276 ) ;
#135 = CARTESIAN_POINT ( 'NONE',  ( 0.3750000000000000555, 4.592425496802575451E-17, 2.500000000000000000 ) ) ;
#136 = PRESENTATION_LAYER_ASSIGNMENT (  '', '', ( #134 ) ) ;
#137 = VERTEX_POINT ( 'NONE', #116 ) ;
#138 = ADVANCED_BREP_SHAPE_REPRESENTATION ( 'Micro_SPD-750-120', ( #276, #51 ), #75 ) ;
#139 = DIRECTION ( 'NONE',  ( 0.0000000000000000000, 0.0000000000000000000, 1.000000000000000000 ) ) ;
#140 = VERTEX_POINT ( 'NONE', #195 ) ;
#141 = LINE ( 'NONE', #135, #273 ) ;
#142 = CONICAL_SURFACE ( 'NONE', #76, 0.3600000000000002642, 0.7853981633974324028 ) ;
#143 = LINE ( 'NONE', #148, #18 ) ;
#144 = FILL_AREA_STYLE ('',( #309 ) ) ;
#145 = ADVANCED_FACE ( 'NONE', ( #44 ), #261, .T. ) ;
#146 = CARTESIAN_POINT ( 'NONE',  ( 0.0000000000000000000, 0.0000000000000000000, 2.500000000000000000 ) ) ;
#147 = DIRECTION ( 'NONE',  ( 1.000000000000000000, 0.0000000000000000000, 0.0000000000000000000 ) ) ;
#148 = CARTESIAN_POINT ( 'NONE',  ( 0.3749500000000000610, 4.591813173403001345E-17, 0.0000000000000000000 ) ) ;
#149 = CARTESIAN_POINT ( 'NONE',  ( 0.3600000000000002642, 4.408728476930474110E-17, 2.500000000000000000 ) ) ;
#150 = CARTESIAN_POINT ( 'NONE',  ( 0.0000000000000000000, 0.0000000000000000000, 0.0000000000000000000 ) ) ;
#151 = CARTESIAN_POINT ( 'NONE',  ( 0.3749500000000000610, 4.591813173403001345E-17, 0.1881873202423573477 ) ) ;
#152 = AXIS2_PLACEMENT_3D ( 'NONE', #108, #187, #305 ) ;
#153 = CIRCLE ( 'NONE', #34, 0.3600000000000002642 ) ;
#154 = DIRECTION ( 'NONE',  ( 0.0000000000000000000, 0.0000000000000000000, 1.000000000000000000 ) ) ;
#155 = ORIENTED_EDGE ( 'NONE', *, *, #230, .T. ) ;
#156 = EDGE_CURVE ( 'NONE', #320, #112, #341, .T. ) ;
#157 = VERTEX_POINT ( 'NONE', #315 ) ;
#158 = AXIS2_PLACEMENT_3D ( 'NONE', #346, #95, #319 ) ;
#159 = EDGE_LOOP ( 'NONE', ( #331, #299, #277, #29 ) ) ;
#160 = ORIENTED_EDGE ( 'NONE', *, *, #286, .F. ) ;
#161 = ORIENTED_EDGE ( 'NONE', *, *, #62, .T. ) ;
#162 = VECTOR ( 'NONE', #120, 39.37007874015748143 ) ;
#163 = COLOUR_RGB ( '',0.7921568627450980005, 0.8196078431372548767, 0.9333333333333333481 ) ;
#164 = CARTESIAN_POINT ( 'NONE',  ( 0.0000000000000000000, 0.0000000000000000000, 0.0000000000000000000 ) ) ;
#165 = DIRECTION ( 'NONE',  ( -1.000000000000000000, 0.0000000000000000000, 0.0000000000000000000 ) ) ;
#166 = DIRECTION ( 'NONE',  ( 0.7071067811865487940, 0.0000000000000000000, 0.7071067811865462405 ) ) ;
#167 = DIRECTION ( 'NONE',  ( 0.7071067811865362485, 8.659560562354793575E-17, -0.7071067811865586750 ) ) ;
#168 = PLANE ( 'NONE',  #39 ) ;
#169 = EDGE_CURVE ( 'NONE', #303, #140, #218, .T. ) ;
#170 = FACE_OUTER_BOUND ( 'NONE', #217, .T. ) ;
#171 = VECTOR ( 'NONE', #194, 39.37007874015748143 ) ;
#172 = DIRECTION ( 'NONE',  ( 0.0000000000000000000, 0.0000000000000000000, 1.000000000000000000 ) ) ;
#173 = CYLINDRICAL_SURFACE ( 'NONE', #302, 0.3750000000000000555 ) ;
#174 = AXIS2_PLACEMENT_3D ( 'NONE', #50, #210, #77 ) ;
#175 = CIRCLE ( 'NONE', #197, 0.3750000000000000555 ) ;
#176 = ORIENTED_EDGE ( 'NONE', *, *, #156, .T. ) ;
#177 = ADVANCED_FACE ( 'NONE', ( #170 ), #46, .T. ) ;
#178 = CARTESIAN_POINT ( 'NONE',  ( 0.3750000000000000555, 4.592425496802575451E-17, 1.125049999999999883 ) ) ;
#179 = ORIENTED_EDGE ( 'NONE', *, *, #22, .T. ) ;
#180 = DIRECTION ( 'NONE',  ( 1.000000000000000000, 0.0000000000000000000, -0.0000000000000000000 ) ) ;
#181 = EDGE_CURVE ( 'NONE', #320, #25, #343, .T. ) ;
#182 = VECTOR ( 'NONE', #64, 39.37007874015748854 ) ;
#183 = ORIENTED_EDGE ( 'NONE', *, *, #251, .T. ) ;
#184 = UNCERTAINTY_MEASURE_WITH_UNIT (LENGTH_MEASURE( 1.000000000000000082E-05 ), #264, 'distance_accuracy_value', 'NONE');
#185 = DIRECTION ( 'NONE',  ( 0.0000000000000000000, 0.0000000000000000000, -1.000000000000000000 ) ) ;
#186 = EDGE_LOOP ( 'NONE', ( #96, #179 ) ) ;
#187 = DIRECTION ( 'NONE',  ( 0.0000000000000000000, 0.0000000000000000000, 1.000000000000000000 ) ) ;
#188 = CONICAL_SURFACE ( 'NONE', #281, 0.3749500000000001165, 0.7853981633974501664 ) ;
#189 = ORIENTED_EDGE ( 'NONE', *, *, #54, .F. ) ;
#190 = CARTESIAN_POINT ( 'NONE',  ( 0.0000000000000000000, 0.0000000000000000000, 2.500000000000000000 ) ) ;
#191 = EDGE_CURVE ( 'NONE', #320, #157, #88, .T. ) ;
#192 = DIRECTION ( 'NONE',  ( -1.000000000000000000, 0.0000000000000000000, 0.0000000000000000000 ) ) ;
#193 = CONICAL_SURFACE ( 'NONE', #222, 0.3600000000000002642, 0.7853981633974324028 ) ;
#194 = DIRECTION ( 'NONE',  ( -0.0000000000000000000, -0.0000000000000000000, -1.000000000000000000 ) ) ;
#195 = CARTESIAN_POINT ( 'NONE',  ( -0.04900000000000000189, 2.595945052492602160E-17, 0.0000000000000000000 ) ) ;
#196 = CARTESIAN_POINT ( 'NONE',  ( 0.0000000000000000000, 0.0000000000000000000, 1.125000000000000000 ) ) ;
#197 = AXIS2_PLACEMENT_3D ( 'NONE', #3, #97, #106 ) ;
#198 = DIRECTION ( 'NONE',  ( -0.0000000000000000000, -0.0000000000000000000, -1.000000000000000000 ) ) ;
#199 = CARTESIAN_POINT ( 'NONE',  ( -0.3749500000000001165, 4.592119335102788706E-17, 1.125000000000000000 ) ) ;
#200 = ADVANCED_FACE ( 'NONE', ( #47 ), #168, .F. ) ;
#201 = ORIENTED_EDGE ( 'NONE', *, *, #181, .F. ) ;
#202 = SURFACE_SIDE_STYLE ('',( #297 ) ) ;
#203 = ORIENTED_EDGE ( 'NONE', *, *, #316, .T. ) ;
#204 = CIRCLE ( 'NONE', #259, 0.3600000000000002642 ) ;
#205 = AXIS2_PLACEMENT_3D ( 'NONE', #348, #78, #180 ) ;
#206 = LINE ( 'NONE', #324, #93 ) ;
#207 = ORIENTED_EDGE ( 'NONE', *, *, #326, .T. ) ;
#208 = CARTESIAN_POINT ( 'NONE',  ( 0.0000000000000000000, 0.0000000000000000000, 0.0000000000000000000 ) ) ;
#209 = ORIENTED_EDGE ( 'NONE', *, *, #169, .F. ) ;
#210 = DIRECTION ( 'NONE',  ( -0.0000000000000000000, -0.0000000000000000000, -1.000000000000000000 ) ) ;
#211 = ORIENTED_EDGE ( 'NONE', *, *, #191, .F. ) ;
#212 = CONICAL_SURFACE ( 'NONE', #152, 0.04900000000000000189, 1.047197551196600518 ) ;
#213 = CARTESIAN_POINT ( 'NONE',  ( 0.3749500000000001165, 0.0000000000000000000, 1.125000000000000000 ) ) ;
#214 = LINE ( 'NONE', #301, #162 ) ;
#215 = EDGE_CURVE ( 'NONE', #157, #320, #293, .T. ) ;
#216 = ORIENTED_EDGE ( 'NONE', *, *, #215, .T. ) ;
#217 = EDGE_LOOP ( 'NONE', ( #232, #216, #176, #8 ) ) ;
#218 = CIRCLE ( 'NONE', #70, 0.04900000000000000189 ) ;
#219 = DIRECTION ( 'NONE',  ( 1.000000000000000000, 0.0000000000000000000, 0.0000000000000000000 ) ) ;
#220 = DIRECTION ( 'NONE',  ( -1.000000000000000000, 0.0000000000000000000, 0.0000000000000000000 ) ) ;
#221 =( NAMED_UNIT ( * ) SI_UNIT ( $, .STERADIAN. ) SOLID_ANGLE_UNIT ( ) );
#222 = AXIS2_PLACEMENT_3D ( 'NONE', #338, #40, #287 ) ;
#223 = CARTESIAN_POINT ( 'NONE',  ( 0.0000000000000000000, 0.0000000000000000000, 0.0000000000000000000 ) ) ;
#224 = CARTESIAN_POINT ( 'NONE',  ( 0.0000000000000000000, 0.0000000000000000000, 2.500000000000000000 ) ) ;
#225 = PRODUCT_RELATED_PRODUCT_CATEGORY ( 'part', '', ( #31 ) ) ;
#226 = DIRECTION ( 'NONE',  ( -0.0000000000000000000, -0.0000000000000000000, -1.000000000000000000 ) ) ;
#227 = ADVANCED_FACE ( 'NONE', ( #282 ), #193, .T. ) ;
#228 = CARTESIAN_POINT ( 'NONE',  ( 0.0000000000000000000, 0.0000000000000000000, 1.125000000000000000 ) ) ;
#229 =( GEOMETRIC_REPRESENTATION_CONTEXT ( 3 ) GLOBAL_UNCERTAINTY_ASSIGNED_CONTEXT ( ( #184 ) ) GLOBAL_UNIT_ASSIGNED_CONTEXT ( ( #264, #48, #52 ) ) REPRESENTATION_CONTEXT ( 'NONE', 'WORKASPACE' ) );
#230 = EDGE_CURVE ( 'NONE', #157, #333, #143, .T. ) ;
#231 = DIRECTION ( 'NONE',  ( -1.000000000000000000, 0.0000000000000000000, 0.0000000000000000000 ) ) ;
#232 = ORIENTED_EDGE ( 'NONE', *, *, #230, .F. ) ;
#233 = SURFACE_STYLE_USAGE ( .BOTH. , #202 ) ;
#234 = ORIENTED_EDGE ( 'NONE', *, *, #156, .F. ) ;
#235 = CYLINDRICAL_SURFACE ( 'NONE', #274, 0.3749500000000000610 ) ;
#236 = ORIENTED_EDGE ( 'NONE', *, *, #62, .F. ) ;
#237 = DIMENSIONAL_EXPONENTS ( 1.000000000000000000, 0.0000000000000000000, 0.0000000000000000000, 0.0000000000000000000, 0.0000000000000000000, 0.0000000000000000000, 0.0000000000000000000 ) ;
#238 = VERTEX_POINT ( 'NONE', #284 ) ;
#239 = CARTESIAN_POINT ( 'NONE',  ( 0.04900000000000000189, 0.0000000000000000000, 0.0000000000000000000 ) ) ;
#240 = ORIENTED_EDGE ( 'NONE', *, *, #316, .F. ) ;
#241 = LINE ( 'NONE', #213, #243 ) ;
#242 =( GEOMETRIC_REPRESENTATION_CONTEXT ( 3 ) GLOBAL_UNCERTAINTY_ASSIGNED_CONTEXT ( ( #6 ) ) GLOBAL_UNIT_ASSIGNED_CONTEXT ( ( #313, #63, #221 ) ) REPRESENTATION_CONTEXT ( 'NONE', 'WORKASPACE' ) );
#243 = VECTOR ( 'NONE', #166, 39.37007874015748143 ) ;
#244 = EDGE_CURVE ( 'NONE', #333, #112, #87, .T. ) ;
#245 = AXIS2_PLACEMENT_3D ( 'NONE', #28, #2, #231 ) ;
#246 = EDGE_LOOP ( 'NONE', ( #61, #79, #107, #32 ) ) ;
#247 = PRODUCT_DEFINITION_SHAPE ( 'NONE', 'NONE',  #323 ) ;
#248 = CARTESIAN_POINT ( 'NONE',  ( 0.0000000000000000000, 0.0000000000000000000, 0.0000000000000000000 ) ) ;
#249 = PRESENTATION_STYLE_ASSIGNMENT (( #65 ) ) ;
#250 = ORIENTED_EDGE ( 'NONE', *, *, #90, .F. ) ;
#251 = EDGE_CURVE ( 'NONE', #137, #125, #153, .T. ) ;
#252 = AXIS2_PLACEMENT_3D ( 'NONE', #164, #308, #165 ) ;
#253 = DIRECTION ( 'NONE',  ( -0.0000000000000000000, -0.0000000000000000000, -1.000000000000000000 ) ) ;
#254 = AXIS2_PLACEMENT_3D ( 'NONE', #290, #314, #68 ) ;
#255 = CARTESIAN_POINT ( 'NONE',  ( 0.0000000000000000000, 0.0000000000000000000, 0.1881873202423573477 ) ) ;
#256 = SURFACE_SIDE_STYLE ('',( #113 ) ) ;
#257 = CARTESIAN_POINT ( 'NONE',  ( 0.0000000000000000000, 0.0000000000000000000, 1.125000000000000000 ) ) ;
#258 = CARTESIAN_POINT ( 'NONE',  ( -0.3749500000000000610, 0.0000000000000000000, 0.1881873202423573477 ) ) ;
#259 = AXIS2_PLACEMENT_3D ( 'NONE', #146, #42, #288 ) ;
#260 = VECTOR ( 'NONE', #92, 39.37007874015748143 ) ;
#261 = CYLINDRICAL_SURFACE ( 'NONE', #27, 0.3750000000000000555 ) ;
#262 = DIRECTION ( 'NONE',  ( 0.0000000000000000000, 0.0000000000000000000, 1.000000000000000000 ) ) ;
#263 = DIRECTION ( 'NONE',  ( -0.0000000000000000000, -0.0000000000000000000, -1.000000000000000000 ) ) ;
#264 =( CONVERSION_BASED_UNIT ( 'INCH', #130 ) LENGTH_UNIT ( ) NAMED_UNIT ( #237 ) );
#265 = ORIENTED_EDGE ( 'NONE', *, *, #326, .F. ) ;
#266 = FILL_AREA_STYLE_COLOUR ( '', #119 ) ;
#267 = PRESENTATION_STYLE_ASSIGNMENT (( #233 ) ) ;
#268 = CLOSED_SHELL ( 'NONE', ( #26, #295, #121, #9, #342, #145, #300, #227, #128, #177, #13, #200 ) ) ;
#269 = ORIENTED_EDGE ( 'NONE', *, *, #105, .T. ) ;
#270 = VERTEX_POINT ( 'NONE', #178 ) ;
#271 = EDGE_CURVE ( 'NONE', #270, #25, #102, .T. ) ;
#272 = ORIENTED_EDGE ( 'NONE', *, *, #286, .T. ) ;
#273 = VECTOR ( 'NONE', #253, 39.37007874015748143 ) ;
#274 = AXIS2_PLACEMENT_3D ( 'NONE', #208, #126, #325 ) ;
#275 = ORIENTED_EDGE ( 'NONE', *, *, #181, .T. ) ;
#276 = MANIFOLD_SOLID_BREP ( 'Cut-Revolve2', #268 ) ;
#277 = ORIENTED_EDGE ( 'NONE', *, *, #69, .T. ) ;
#278 = LENGTH_MEASURE_WITH_UNIT ( LENGTH_MEASURE( 0.02539999999999999897 ), #306 );
#279 = CARTESIAN_POINT ( 'NONE',  ( -0.3750000000000000555, 0.0000000000000000000, 1.125049999999999883 ) ) ;
#280 =( NAMED_UNIT ( * ) PLANE_ANGLE_UNIT ( ) SI_UNIT ( $, .RADIAN. ) );
#281 = AXIS2_PLACEMENT_3D ( 'NONE', #257, #86, #94 ) ;
#282 = FACE_OUTER_BOUND ( 'NONE', #246, .T. ) ;
#283 = AXIS2_PLACEMENT_3D ( 'NONE', #196, #310, #317 ) ;
#284 = CARTESIAN_POINT ( 'NONE',  ( 0.3750000000000000555, 4.592425496802575451E-17, 2.484999999999999876 ) ) ;
#285 = DIRECTION ( 'NONE',  ( -1.000000000000000000, 0.0000000000000000000, 0.0000000000000000000 ) ) ;
#286 = EDGE_CURVE ( 'NONE', #112, #333, #339, .T. ) ;
#287 = DIRECTION ( 'NONE',  ( -1.000000000000000000, 0.0000000000000000000, 0.0000000000000000000 ) ) ;
#288 = DIRECTION ( 'NONE',  ( 1.000000000000000000, 0.0000000000000000000, 0.0000000000000000000 ) ) ;
#289 = DIMENSIONAL_EXPONENTS ( 1.000000000000000000, 0.0000000000000000000, 0.0000000000000000000, 0.0000000000000000000, 0.0000000000000000000, 0.0000000000000000000, 0.0000000000000000000 ) ;
#290 = CARTESIAN_POINT ( 'NONE',  ( 0.0000000000000000000, 0.0000000000000000000, 0.0000000000000000000 ) ) ;
#291 = CARTESIAN_POINT ( 'NONE',  ( -0.3750000000000000555, 0.0000000000000000000, 2.484999999999999876 ) ) ;
#292 = CARTESIAN_POINT ( 'NONE',  ( 0.0000000000000000000, 0.0000000000000000000, 2.500000000000000000 ) ) ;
#293 = CIRCLE ( 'NONE', #337, 0.3749500000000001165 ) ;
#294 = AXIS2_PLACEMENT_3D ( 'NONE', #53, #263, #127 ) ;
#295 = ADVANCED_FACE ( 'NONE', ( #23 ), #235, .T. ) ;
#296 = DIRECTION ( 'NONE',  ( 0.8660254037844400399, 0.0000000000000000000, 0.4999999999999976685 ) ) ;
#297 = SURFACE_STYLE_FILL_AREA ( #21 ) ;
#298 = EDGE_LOOP ( 'NONE', ( #250, #269, #30, #189 ) ) ;
#299 = ORIENTED_EDGE ( 'NONE', *, *, #312, .T. ) ;
#300 = ADVANCED_FACE ( 'NONE', ( #349 ), #99, .T. ) ;
#301 = CARTESIAN_POINT ( 'NONE',  ( -0.04900000000000000189, 6.000769315822030524E-18, 0.0000000000000000000 ) ) ;
#302 = AXIS2_PLACEMENT_3D ( 'NONE', #292, #12, #285 ) ;
#303 = VERTEX_POINT ( 'NONE', #239 ) ;
#304 = SHAPE_DEFINITION_REPRESENTATION ( #247, #138 ) ;
#305 = DIRECTION ( 'NONE',  ( 1.000000000000000000, 0.0000000000000000000, 0.0000000000000000000 ) ) ;
#306 =( LENGTH_UNIT ( ) NAMED_UNIT ( * ) SI_UNIT ( $, .METRE. ) );
#307 = APPLICATION_CONTEXT ( 'automotive_design' ) ;
#308 = DIRECTION ( 'NONE',  ( -0.0000000000000000000, -0.0000000000000000000, -1.000000000000000000 ) ) ;
#309 = FILL_AREA_STYLE_COLOUR ( '', #163 ) ;
#310 = DIRECTION ( 'NONE',  ( -0.0000000000000000000, -0.0000000000000000000, -1.000000000000000000 ) ) ;
#311 = MECHANICAL_DESIGN_GEOMETRIC_PRESENTATION_REPRESENTATION (  '', ( #134 ), #229 ) ;
#312 = EDGE_CURVE ( 'NONE', #238, #330, #175, .T. ) ;
#313 =( CONVERSION_BASED_UNIT ( 'INCH', #278 ) LENGTH_UNIT ( ) NAMED_UNIT ( #289 ) );
#314 = DIRECTION ( 'NONE',  ( -0.0000000000000000000, -0.0000000000000000000, -1.000000000000000000 ) ) ;
#315 = CARTESIAN_POINT ( 'NONE',  ( 0.3749500000000001165, 0.0000000000000000000, 1.125000000000000000 ) ) ;
#316 = EDGE_CURVE ( 'NONE', #25, #270, #345, .T. ) ;
#317 = DIRECTION ( 'NONE',  ( -1.000000000000000000, 0.0000000000000000000, 0.0000000000000000000 ) ) ;
#318 = DIRECTION ( 'NONE',  ( -1.000000000000000000, 0.0000000000000000000, 0.0000000000000000000 ) ) ;
#319 = DIRECTION ( 'NONE',  ( 1.000000000000000000, 0.0000000000000000000, 0.0000000000000000000 ) ) ;
#320 = VERTEX_POINT ( 'NONE', #199 ) ;
#321 = PRODUCT_DEFINITION_FORMATION_WITH_SPECIFIED_SOURCE ( 'ANY', '', #31, .NOT_KNOWN. ) ;
#322 = AXIS2_PLACEMENT_3D ( 'NONE', #248, #329, #219 ) ;
#323 = PRODUCT_DEFINITION ( 'UNKNOWN', '', #321, #332 ) ;
#324 = CARTESIAN_POINT ( 'NONE',  ( 0.04900000000000000189, 0.0000000000000000000, 0.0000000000000000000 ) ) ;
#325 = DIRECTION ( 'NONE',  ( -1.000000000000000000, 0.0000000000000000000, 0.0000000000000000000 ) ) ;
#326 = EDGE_CURVE ( 'NONE', #303, #333, #206, .T. ) ;
#327 = STYLED_ITEM ( 'NONE', ( #249 ), #138 ) ;
#328 = LINE ( 'NONE', #110, #38 ) ;
#329 = DIRECTION ( 'NONE',  ( 0.0000000000000000000, 0.0000000000000000000, 1.000000000000000000 ) ) ;
#330 = VERTEX_POINT ( 'NONE', #291 ) ;
#331 = ORIENTED_EDGE ( 'NONE', *, *, #37, .F. ) ;
#332 = PRODUCT_DEFINITION_CONTEXT ( 'detailed design', #340, 'design' ) ;
#333 = VERTEX_POINT ( 'NONE', #151 ) ;
#334 =( CONVERSION_BASED_UNIT ( 'INCH', #115 ) LENGTH_UNIT ( ) NAMED_UNIT ( #24 ) );
#335 = CARTESIAN_POINT ( 'NONE',  ( 0.0000000000000000000, 0.0000000000000000000, 2.500000000000000000 ) ) ;
#336 = EDGE_CURVE ( 'NONE', #330, #238, #58, .T. ) ;
#337 = AXIS2_PLACEMENT_3D ( 'NONE', #344, #198, #318 ) ;
#338 = CARTESIAN_POINT ( 'NONE',  ( 0.0000000000000000000, 0.0000000000000000000, 2.500000000000000000 ) ) ;
#339 = CIRCLE ( 'NONE', #245, 0.3749500000000000610 ) ;
#340 = APPLICATION_CONTEXT ( 'automotive_design' ) ;
#341 = LINE ( 'NONE', #89, #171 ) ;
#342 = ADVANCED_FACE ( 'NONE', ( #73 ), #173, .T. ) ;
#343 = LINE ( 'NONE', #15, #260 ) ;
#344 = CARTESIAN_POINT ( 'NONE',  ( 0.0000000000000000000, 0.0000000000000000000, 1.125000000000000000 ) ) ;
#345 = CIRCLE ( 'NONE', #174, 0.3750000000000000555 ) ;
#346 = CARTESIAN_POINT ( 'NONE',  ( 0.0000000000000000000, 0.0000000000000000000, 2.484999999999999876 ) ) ;
#347 = ORIENTED_EDGE ( 'NONE', *, *, #83, .T. ) ;
#348 = CARTESIAN_POINT ( 'NONE',  ( 0.0000000000000000000, 0.0000000000000000000, 2.500000000000000000 ) ) ;
#349 = FACE_OUTER_BOUND ( 'NONE', #129, .T. ) ;
ENDSEC;
END-ISO-10303-21;
