ISO-10303-21;
HEADER;
FILE_DESCRIPTION (( 'STEP AP214' ),
    '1' );
FILE_NAME ('Micro_AECM-0610-4X.STEP',
    '2021-09-03T16:57:56',
    ( '' ),
    ( '' ),
    'SwSTEP 2.0',
    'SolidWorks 2020',
    '' );
FILE_SCHEMA (( 'AUTOMOTIVE_DESIGN' ));
ENDSEC;

DATA;
#1 = ORIENTED_EDGE ( 'NONE', *, *, #200, .F. ) ;
#2 = CARTESIAN_POINT ( 'NONE',  ( -0.1179918899999999882, 0.0000000000000000000, 1.444983904138465938E-17 ) ) ;
#3 = DIRECTION ( 'NONE',  ( 1.224646799147353207E-16, 1.000000000000000000, -0.0000000000000000000 ) ) ;
#4 = PLANE ( 'NONE',  #308 ) ;
#5 = FACE_OUTER_BOUND ( 'NONE', #185, .T. ) ;
#6 = CARTESIAN_POINT ( 'NONE',  ( -0.1181100000000000066, 0.0000000000000000000, 2.229093999999999465 ) ) ;
#7 = CARTESIAN_POINT ( 'NONE',  ( 0.0000000000000000000, 0.0000000000000000000, 2.244094000000000033 ) ) ;
#8 = VERTEX_POINT ( 'NONE', #125 ) ;
#9 = CIRCLE ( 'NONE', #29, 0.07862188999999999983 ) ;
#10 = ORIENTED_EDGE ( 'NONE', *, *, #98, .T. ) ;
#11 = DIRECTION ( 'NONE',  ( 0.0000000000000000000, 0.0000000000000000000, 1.000000000000000000 ) ) ;
#12 = CIRCLE ( 'NONE', #210, 0.1179918899999999882 ) ;
#13 = DIRECTION ( 'NONE',  ( 0.0000000000000000000, 0.0000000000000000000, -1.000000000000000000 ) ) ;
#14 = CONICAL_SURFACE ( 'NONE', #322, 0.1031100000000002570, 0.7853981633974318477 ) ;
#15 = CARTESIAN_POINT ( 'NONE',  ( 4.821434448243130025E-18, 0.0000000000000000000, 0.03937000000000000915 ) ) ;
#16 = ORIENTED_EDGE ( 'NONE', *, *, #230, .F. ) ;
#17 = STYLED_ITEM ( 'NONE', ( #270 ), #85 ) ;
#18 = DIRECTION ( 'NONE',  ( -1.000000000000000000, 0.0000000000000000000, 0.0000000000000000000 ) ) ;
#19 = ORIENTED_EDGE ( 'NONE', *, *, #82, .F. ) ;
#20 = AXIS2_PLACEMENT_3D ( 'NONE', #320, #11, #231 ) ;
#21 =( NAMED_UNIT ( * ) PLANE_ANGLE_UNIT ( ) SI_UNIT ( $, .RADIAN. ) );
#22 = CYLINDRICAL_SURFACE ( 'NONE', #184, 0.1181100000000000066 ) ;
#23 = SURFACE_STYLE_FILL_AREA ( #71 ) ;
#24 = ORIENTED_EDGE ( 'NONE', *, *, #319, .F. ) ;
#25 = COLOUR_RGB ( '',0.7921568627450980005, 0.8196078431372548767, 0.9333333333333333481 ) ;
#26 = VECTOR ( 'NONE', #318, 39.37007874015748143 ) ;
#27 = DIRECTION ( 'NONE',  ( 0.0000000000000000000, 0.0000000000000000000, 1.000000000000000000 ) ) ;
#28 = CARTESIAN_POINT ( 'NONE',  ( 7.714307363656999460E-17, 0.0000000000000000000, 0.6299209999999999532 ) ) ;
#29 = AXIS2_PLACEMENT_3D ( 'NONE', #295, #316, #340 ) ;
#30 = LINE ( 'NONE', #2, #106 ) ;
#31 = LINE ( 'NONE', #161, #213 ) ;
#32 = ADVANCED_FACE ( 'NONE', ( #76 ), #190, .T. ) ;
#33 = CARTESIAN_POINT ( 'NONE',  ( -0.1179918899999999882, 0.0000000000000000000, 0.03937000000000000915 ) ) ;
#34 = DIRECTION ( 'NONE',  ( 0.0000000000000000000, 0.0000000000000000000, 1.000000000000000000 ) ) ;
#35 = DIRECTION ( 'NONE',  ( 0.0000000000000000000, 0.0000000000000000000, -1.000000000000000000 ) ) ;
#36 = DIRECTION ( 'NONE',  ( -0.0000000000000000000, -0.0000000000000000000, -1.000000000000000000 ) ) ;
#37 =( LENGTH_UNIT ( ) NAMED_UNIT ( * ) SI_UNIT ( $, .METRE. ) );
#38 = CIRCLE ( 'NONE', #191, 0.1179918899999999882 ) ;
#39 =( NAMED_UNIT ( * ) PLANE_ANGLE_UNIT ( ) SI_UNIT ( $, .RADIAN. ) );
#40 = ORIENTED_EDGE ( 'NONE', *, *, #338, .T. ) ;
#41 = EDGE_CURVE ( 'NONE', #119, #209, #97, .T. ) ;
#42 = ORIENTED_EDGE ( 'NONE', *, *, #223, .F. ) ;
#43 = CIRCLE ( 'NONE', #243, 0.1031100000000002570 ) ;
#44 = AXIS2_PLACEMENT_3D ( 'NONE', #169, #287, #84 ) ;
#45 = ADVANCED_FACE ( 'NONE', ( #154 ), #99, .T. ) ;
#46 =( NAMED_UNIT ( * ) SI_UNIT ( $, .STERADIAN. ) SOLID_ANGLE_UNIT ( ) );
#47 = ORIENTED_EDGE ( 'NONE', *, *, #313, .T. ) ;
#48 = ORIENTED_EDGE ( 'NONE', *, *, #50, .F. ) ;
#49 = DIRECTION ( 'NONE',  ( -0.0000000000000000000, -0.0000000000000000000, -1.000000000000000000 ) ) ;
#50 = EDGE_CURVE ( 'NONE', #141, #94, #135, .T. ) ;
#51 = VERTEX_POINT ( 'NONE', #326 ) ;
#52 = DIRECTION ( 'NONE',  ( 1.000000000000000000, 0.0000000000000000000, 0.0000000000000000000 ) ) ;
#53 = DIRECTION ( 'NONE',  ( 0.0000000000000000000, 0.0000000000000000000, -1.000000000000000000 ) ) ;
#54 = VECTOR ( 'NONE', #73, 39.37007874015748143 ) ;
#55 = PRESENTATION_LAYER_ASSIGNMENT (  '', '', ( #204 ) ) ;
#56 = CARTESIAN_POINT ( 'NONE',  ( 0.0000000000000000000, 0.0000000000000000000, 2.244094000000000033 ) ) ;
#57 = LINE ( 'NONE', #164, #334 ) ;
#58 = CIRCLE ( 'NONE', #64, 0.1181100000000000066 ) ;
#59 = CARTESIAN_POINT ( 'NONE',  ( 0.0000000000000000000, 0.0000000000000000000, 2.244094000000000033 ) ) ;
#60 = CIRCLE ( 'NONE', #100, 0.1181100000000000066 ) ;
#61 = CONICAL_SURFACE ( 'NONE', #168, 0.1179918899999999882, 0.1745329251994339748 ) ;
#62 = LINE ( 'NONE', #107, #346 ) ;
#63 = CARTESIAN_POINT ( 'NONE',  ( -0.1181100000000000066, 0.0000000000000000000, 2.244094000000000033 ) ) ;
#64 = AXIS2_PLACEMENT_3D ( 'NONE', #341, #312, #176 ) ;
#65 = LINE ( 'NONE', #88, #93 ) ;
#66 = EDGE_LOOP ( 'NONE', ( #157, #89, #214, #242 ) ) ;
#67 = CARTESIAN_POINT ( 'NONE',  ( -0.07862188999999999983, 1.203912181726309475E-17, 0.0000000000000000000 ) ) ;
#68 = ORIENTED_EDGE ( 'NONE', *, *, #50, .T. ) ;
#69 = DIRECTION ( 'NONE',  ( 1.000000000000000000, 0.0000000000000000000, 0.0000000000000000000 ) ) ;
#70 = LENGTH_MEASURE_WITH_UNIT ( LENGTH_MEASURE( 0.02539999999999999897 ), #208 );
#71 = FILL_AREA_STYLE ('',( #323 ) ) ;
#72 = EDGE_LOOP ( 'NONE', ( #212, #47 ) ) ;
#73 = DIRECTION ( 'NONE',  ( 0.1736481776669314692, 0.0000000000000000000, 0.9848077530122077983 ) ) ;
#74 = ORIENTED_EDGE ( 'NONE', *, *, #179, .F. ) ;
#75 =( NAMED_UNIT ( * ) SI_UNIT ( $, .STERADIAN. ) SOLID_ANGLE_UNIT ( ) );
#76 = FACE_OUTER_BOUND ( 'NONE', #117, .T. ) ;
#77 = ORIENTED_EDGE ( 'NONE', *, *, #103, .T. ) ;
#78 = ADVANCED_FACE ( 'NONE', ( #277 ), #22, .T. ) ;
#79 = CARTESIAN_POINT ( 'NONE',  ( -0.07862188999999999983, 9.628404593141530123E-18, 0.03937000000000000222 ) ) ;
#80 = AXIS2_PLACEMENT_3D ( 'NONE', #293, #258, #199 ) ;
#81 = DIRECTION ( 'NONE',  ( 1.000000000000000000, 0.0000000000000000000, 0.0000000000000000000 ) ) ;
#82 = EDGE_CURVE ( 'NONE', #119, #175, #12, .T. ) ;
#83 = CARTESIAN_POINT ( 'NONE',  ( 0.1179918900000000853, 0.0000000000000000000, 0.6299209999999999532 ) ) ;
#84 = DIRECTION ( 'NONE',  ( -1.000000000000000000, 0.0000000000000000000, 1.224646799147353454E-16 ) ) ;
#85 = ADVANCED_BREP_SHAPE_REPRESENTATION ( 'Micro_AECM-0610-4X', ( #325, #139 ), #207 ) ;
#86 = AXIS2_PLACEMENT_3D ( 'NONE', #305, #328, #52 ) ;
#87 = CARTESIAN_POINT ( 'NONE',  ( -0.1031100000000002570, 0.0000000000000000000, 2.244094000000000033 ) ) ;
#88 = CARTESIAN_POINT ( 'NONE',  ( 0.1179918899999999882, 1.444983904138465938E-17, -1.444983904138465938E-17 ) ) ;
#89 = ORIENTED_EDGE ( 'NONE', *, *, #319, .T. ) ;
#90 = EDGE_CURVE ( 'NONE', #8, #209, #60, .T. ) ;
#91 = FACE_OUTER_BOUND ( 'NONE', #198, .T. ) ;
#92 = LINE ( 'NONE', #63, #26 ) ;
#93 = VECTOR ( 'NONE', #116, 39.37007874015748143 ) ;
#94 = VERTEX_POINT ( 'NONE', #345 ) ;
#95 = DIRECTION ( 'NONE',  ( -1.224646799147353207E-16, -0.0000000000000000000, -1.000000000000000000 ) ) ;
#96 = AXIS2_PLACEMENT_3D ( 'NONE', #267, #297, #262 ) ;
#97 = LINE ( 'NONE', #205, #54 ) ;
#98 = EDGE_CURVE ( 'NONE', #94, #141, #195, .T. ) ;
#99 = CYLINDRICAL_SURFACE ( 'NONE', #236, 0.1181100000000000066 ) ;
#100 = AXIS2_PLACEMENT_3D ( 'NONE', #120, #95, #235 ) ;
#101 = ORIENTED_EDGE ( 'NONE', *, *, #103, .F. ) ;
#102 = ORIENTED_EDGE ( 'NONE', *, *, #284, .T. ) ;
#103 = EDGE_CURVE ( 'NONE', #269, #145, #43, .T. ) ;
#104 = CARTESIAN_POINT ( 'NONE',  ( 4.821434448243129254E-18, 0.0000000000000000000, 0.0000000000000000000 ) ) ;
#105 = CARTESIAN_POINT ( 'NONE',  ( 4.821434448243129254E-18, 0.0000000000000000000, 0.03937000000000000222 ) ) ;
#106 = VECTOR ( 'NONE', #332, 39.37007874015748143 ) ;
#107 = CARTESIAN_POINT ( 'NONE',  ( 0.1031100000000002570, 1.262733314600838667E-17, 2.244094000000000033 ) ) ;
#108 = DIRECTION ( 'NONE',  ( 0.7071067811865358044, 8.659560562354788645E-17, -0.7071067811865590080 ) ) ;
#109 = CARTESIAN_POINT ( 'NONE',  ( 0.1181100000000000066, 1.446430334472939084E-17, 2.244094000000000033 ) ) ;
#110 = DIRECTION ( 'NONE',  ( 1.000000000000000000, 0.0000000000000000000, 0.0000000000000000000 ) ) ;
#111 = ORIENTED_EDGE ( 'NONE', *, *, #200, .T. ) ;
#112 = PRODUCT_DEFINITION_CONTEXT ( 'detailed design', #281, 'design' ) ;
#113 =( NAMED_UNIT ( * ) SI_UNIT ( $, .STERADIAN. ) SOLID_ANGLE_UNIT ( ) );
#114 = ORIENTED_EDGE ( 'NONE', *, *, #253, .F. ) ;
#115 = EDGE_CURVE ( 'NONE', #51, #351, #290, .T. ) ;
#116 = DIRECTION ( 'NONE',  ( -1.224646799147353207E-16, -0.0000000000000000000, -1.000000000000000000 ) ) ;
#117 = EDGE_LOOP ( 'NONE', ( #74, #317, #296, #188 ) ) ;
#118 = SURFACE_STYLE_FILL_AREA ( #196 ) ;
#119 = VERTEX_POINT ( 'NONE', #83 ) ;
#120 = CARTESIAN_POINT ( 'NONE',  ( 7.722510477716240475E-17, 0.0000000000000000000, 0.6305908350957151187 ) ) ;
#121 = ORIENTED_EDGE ( 'NONE', *, *, #90, .F. ) ;
#122 = ADVANCED_FACE ( 'NONE', ( #216 ), #310, .T. ) ;
#123 = CONICAL_SURFACE ( 'NONE', #303, 0.1179918899999999882, 0.1745329251994339748 ) ;
#124 = PRODUCT_CONTEXT ( 'NONE', #181, 'mechanical' ) ;
#125 = CARTESIAN_POINT ( 'NONE',  ( -0.1181099999999999234, 0.0000000000000000000, 0.6305908350957151187 ) ) ;
#126 = ADVANCED_FACE ( 'NONE', ( #280 ), #186, .T. ) ;
#127 =( LENGTH_UNIT ( ) NAMED_UNIT ( * ) SI_UNIT ( $, .METRE. ) );
#128 = EDGE_LOOP ( 'NONE', ( #339, #10, #182, #151 ) ) ;
#129 = DIRECTION ( 'NONE',  ( 1.000000000000000000, 0.0000000000000000000, 0.0000000000000000000 ) ) ;
#130 = DIRECTION ( 'NONE',  ( -1.224646799147353207E-16, -0.0000000000000000000, -1.000000000000000000 ) ) ;
#131 = VECTOR ( 'NONE', #36, 39.37007874015748143 ) ;
#132 = FACE_OUTER_BOUND ( 'NONE', #298, .T. ) ;
#133 = DIRECTION ( 'NONE',  ( 1.000000000000000000, 0.0000000000000000000, 0.0000000000000000000 ) ) ;
#134 = DIRECTION ( 'NONE',  ( -0.1736481776669312471, 2.126576849575783933E-17, 0.9848077530122077983 ) ) ;
#135 = CIRCLE ( 'NONE', #299, 0.1181100000000000066 ) ;
#136 = ADVANCED_FACE ( 'NONE', ( #5 ), #4, .T. ) ;
#137 = CARTESIAN_POINT ( 'NONE',  ( 7.714307363656999460E-17, 0.0000000000000000000, 0.6299209999999999532 ) ) ;
#138 = DIRECTION ( 'NONE',  ( 1.000000000000000000, 0.0000000000000000000, 0.0000000000000000000 ) ) ;
#139 = AXIS2_PLACEMENT_3D ( 'NONE', #276, #27, #129 ) ;
#140 = CARTESIAN_POINT ( 'NONE',  ( 0.0000000000000000000, 0.0000000000000000000, 2.244094000000000033 ) ) ;
#141 = VERTEX_POINT ( 'NONE', #6 ) ;
#142 = DIRECTION ( 'NONE',  ( 0.0000000000000000000, 0.0000000000000000000, 1.000000000000000000 ) ) ;
#143 = VERTEX_POINT ( 'NONE', #33 ) ;
#144 = CYLINDRICAL_SURFACE ( 'NONE', #96, 0.1179918899999999882 ) ;
#145 = VERTEX_POINT ( 'NONE', #87 ) ;
#146 = ADVANCED_FACE ( 'NONE', ( #132 ), #123, .T. ) ;
#147 = DIRECTION ( 'NONE',  ( 0.0000000000000000000, 0.0000000000000000000, 1.000000000000000000 ) ) ;
#148 = ORIENTED_EDGE ( 'NONE', *, *, #115, .F. ) ;
#149 = PRODUCT_RELATED_PRODUCT_CATEGORY ( 'part', '', ( #234 ) ) ;
#150 = AXIS2_PLACEMENT_3D ( 'NONE', #335, #35, #217 ) ;
#151 = ORIENTED_EDGE ( 'NONE', *, *, #338, .F. ) ;
#152 = ORIENTED_EDGE ( 'NONE', *, *, #289, .F. ) ;
#153 = EDGE_CURVE ( 'NONE', #269, #94, #62, .T. ) ;
#154 = FACE_OUTER_BOUND ( 'NONE', #128, .T. ) ;
#155 =( NAMED_UNIT ( * ) PLANE_ANGLE_UNIT ( ) SI_UNIT ( $, .RADIAN. ) );
#156 = DIRECTION ( 'NONE',  ( -1.000000000000000000, 0.0000000000000000000, 0.0000000000000000000 ) ) ;
#157 = ORIENTED_EDGE ( 'NONE', *, *, #253, .T. ) ;
#158 = ADVANCED_FACE ( 'NONE', ( #166 ), #61, .T. ) ;
#159 = SURFACE_SIDE_STYLE ('',( #23 ) ) ;
#160 = CARTESIAN_POINT ( 'NONE',  ( 0.0000000000000000000, 0.0000000000000000000, 2.244094000000000033 ) ) ;
#161 = CARTESIAN_POINT ( 'NONE',  ( -0.1031100000000002570, 0.0000000000000000000, 2.244094000000000033 ) ) ;
#162 = COLOUR_RGB ( '',0.7921568627450980005, 0.8196078431372548767, 0.9333333333333333481 ) ;
#163 = DIRECTION ( 'NONE',  ( -1.000000000000000000, 0.0000000000000000000, 0.0000000000000000000 ) ) ;
#164 = CARTESIAN_POINT ( 'NONE',  ( -0.1179918899999999049, 1.444983904138465938E-17, 0.6299209999999999532 ) ) ;
#165 = EDGE_CURVE ( 'NONE', #51, #347, #286, .T. ) ;
#166 = FACE_OUTER_BOUND ( 'NONE', #238, .T. ) ;
#167 = CLOSED_SHELL ( 'NONE', ( #126, #122, #146, #174, #78, #45, #136, #247, #158, #327, #331, #32 ) ) ;
#168 = AXIS2_PLACEMENT_3D ( 'NONE', #137, #222, #337 ) ;
#169 = CARTESIAN_POINT ( 'NONE',  ( 0.0000000000000000000, 0.0000000000000000000, 0.0000000000000000000 ) ) ;
#170 = LINE ( 'NONE', #109, #131 ) ;
#171 = PLANE ( 'NONE',  #20 ) ;
#172 = AXIS2_PLACEMENT_3D ( 'NONE', #140, #13, #228 ) ;
#173 = LENGTH_MEASURE_WITH_UNIT ( LENGTH_MEASURE( 0.02539999999999999897 ), #37 );
#174 = ADVANCED_FACE ( 'NONE', ( #306 ), #14, .T. ) ;
#175 = VERTEX_POINT ( 'NONE', #192 ) ;
#176 = DIRECTION ( 'NONE',  ( 1.000000000000000000, 0.0000000000000000000, 0.0000000000000000000 ) ) ;
#177 = LENGTH_MEASURE_WITH_UNIT ( LENGTH_MEASURE( 0.02539999999999999897 ), #127 );
#178 = CIRCLE ( 'NONE', #252, 0.1031100000000002570 ) ;
#179 = EDGE_CURVE ( 'NONE', #347, #143, #272, .T. ) ;
#180 = SURFACE_STYLE_USAGE ( .BOTH. , #159 ) ;
#181 = APPLICATION_CONTEXT ( 'automotive_design' ) ;
#182 = ORIENTED_EDGE ( 'NONE', *, *, #342, .T. ) ;
#183 = ORIENTED_EDGE ( 'NONE', *, *, #275, .T. ) ;
#184 = AXIS2_PLACEMENT_3D ( 'NONE', #240, #49, #156 ) ;
#185 = EDGE_LOOP ( 'NONE', ( #268, #77 ) ) ;
#186 = TOROIDAL_SURFACE ( 'NONE', #279, 0.07862188999999999983, 0.03937000000000000222 ) ;
#187 =( GEOMETRIC_REPRESENTATION_CONTEXT ( 3 ) GLOBAL_UNCERTAINTY_ASSIGNED_CONTEXT ( ( #254 ) ) GLOBAL_UNIT_ASSIGNED_CONTEXT ( ( #314, #39, #113 ) ) REPRESENTATION_CONTEXT ( 'NONE', 'WORKASPACE' ) );
#188 = ORIENTED_EDGE ( 'NONE', *, *, #275, .F. ) ;
#189 = CARTESIAN_POINT ( 'NONE',  ( 0.0000000000000000000, 0.0000000000000000000, 2.229093999999999465 ) ) ;
#190 = TOROIDAL_SURFACE ( 'NONE', #86, 0.07862188999999999983, 0.03937000000000000222 ) ;
#191 = AXIS2_PLACEMENT_3D ( 'NONE', #285, #34, #265 ) ;
#192 = CARTESIAN_POINT ( 'NONE',  ( -0.1179918899999999049, 1.445707119305702357E-17, 0.6299209999999999532 ) ) ;
#193 = CARTESIAN_POINT ( 'NONE',  ( 7.714307363656999460E-17, 0.0000000000000000000, 0.6299209999999999532 ) ) ;
#194 = DIRECTION ( 'NONE',  ( 1.000000000000000000, 0.0000000000000000000, -0.0000000000000000000 ) ) ;
#195 = CIRCLE ( 'NONE', #150, 0.1181100000000000066 ) ;
#196 = FILL_AREA_STYLE ('',( #197 ) ) ;
#197 = FILL_AREA_STYLE_COLOUR ( '', #162 ) ;
#198 = EDGE_LOOP ( 'NONE', ( #24, #202, #329, #183 ) ) ;
#199 = DIRECTION ( 'NONE',  ( -1.000000000000000000, 0.0000000000000000000, 0.0000000000000000000 ) ) ;
#200 = EDGE_CURVE ( 'NONE', #145, #141, #31, .T. ) ;
#201 = SURFACE_SIDE_STYLE ('',( #118 ) ) ;
#202 = ORIENTED_EDGE ( 'NONE', *, *, #82, .T. ) ;
#203 = APPLICATION_PROTOCOL_DEFINITION ( 'draft international standard', 'automotive_design', 1998, #181 ) ;
#204 = STYLED_ITEM ( 'NONE', ( #233 ), #325 ) ;
#205 = CARTESIAN_POINT ( 'NONE',  ( 0.1179918900000000853, 0.0000000000000000000, 0.6299209999999999532 ) ) ;
#206 = DIRECTION ( 'NONE',  ( 1.000000000000000000, 0.0000000000000000000, 0.0000000000000000000 ) ) ;
#207 =( GEOMETRIC_REPRESENTATION_CONTEXT ( 3 ) GLOBAL_UNCERTAINTY_ASSIGNED_CONTEXT ( ( #227 ) ) GLOBAL_UNIT_ASSIGNED_CONTEXT ( ( #344, #21, #46 ) ) REPRESENTATION_CONTEXT ( 'NONE', 'WORKASPACE' ) );
#208 =( LENGTH_UNIT ( ) NAMED_UNIT ( * ) SI_UNIT ( $, .METRE. ) );
#209 = VERTEX_POINT ( 'NONE', #309 ) ;
#210 = AXIS2_PLACEMENT_3D ( 'NONE', #28, #130, #18 ) ;
#211 = PRODUCT_DEFINITION ( 'UNKNOWN', '', #264, #112 ) ;
#212 = ORIENTED_EDGE ( 'NONE', *, *, #165, .T. ) ;
#213 = VECTOR ( 'NONE', #278, 39.37007874015748854 ) ;
#214 = ORIENTED_EDGE ( 'NONE', *, *, #230, .T. ) ;
#215 = PRESENTATION_LAYER_ASSIGNMENT (  '', '', ( #17 ) ) ;
#216 = FACE_OUTER_BOUND ( 'NONE', #66, .T. ) ;
#217 = DIRECTION ( 'NONE',  ( 1.000000000000000000, 0.0000000000000000000, 0.0000000000000000000 ) ) ;
#218 = EDGE_CURVE ( 'NONE', #175, #143, #30, .T. ) ;
#219 = DIMENSIONAL_EXPONENTS ( 1.000000000000000000, 0.0000000000000000000, 0.0000000000000000000, 0.0000000000000000000, 0.0000000000000000000, 0.0000000000000000000, 0.0000000000000000000 ) ;
#220 = CARTESIAN_POINT ( 'NONE',  ( 0.0000000000000000000, 0.0000000000000000000, 2.244094000000000033 ) ) ;
#221 = DIMENSIONAL_EXPONENTS ( 1.000000000000000000, 0.0000000000000000000, 0.0000000000000000000, 0.0000000000000000000, 0.0000000000000000000, 0.0000000000000000000, 0.0000000000000000000 ) ;
#222 = DIRECTION ( 'NONE',  ( 1.224646799147353207E-16, 0.0000000000000000000, 1.000000000000000000 ) ) ;
#223 = EDGE_CURVE ( 'NONE', #175, #8, #57, .T. ) ;
#224 = CIRCLE ( 'NONE', #300, 0.1179918899999999882 ) ;
#225 = FACE_OUTER_BOUND ( 'NONE', #273, .T. ) ;
#226 = EDGE_LOOP ( 'NONE', ( #101, #232, #48, #1 ) ) ;
#227 = UNCERTAINTY_MEASURE_WITH_UNIT (LENGTH_MEASURE( 1.000000000000000082E-05 ), #344, 'distance_accuracy_value', 'NONE');
#228 = DIRECTION ( 'NONE',  ( -1.000000000000000000, 0.0000000000000000000, 0.0000000000000000000 ) ) ;
#229 = ORIENTED_EDGE ( 'NONE', *, *, #223, .T. ) ;
#230 = EDGE_CURVE ( 'NONE', #351, #143, #38, .T. ) ;
#231 = DIRECTION ( 'NONE',  ( 1.000000000000000000, 0.0000000000000000000, -0.0000000000000000000 ) ) ;
#232 = ORIENTED_EDGE ( 'NONE', *, *, #153, .T. ) ;
#233 = PRESENTATION_STYLE_ASSIGNMENT (( #288 ) ) ;
#234 = PRODUCT ( 'Micro_AECM-0610-4X', 'Micro_AECM-0610-4X', '', ( #124 ) ) ;
#235 = DIRECTION ( 'NONE',  ( 1.000000000000000000, 0.0000000000000000000, 0.0000000000000000000 ) ) ;
#236 = AXIS2_PLACEMENT_3D ( 'NONE', #160, #349, #244 ) ;
#237 = AXIS2_PLACEMENT_3D ( 'NONE', #104, #249, #333 ) ;
#238 = EDGE_LOOP ( 'NONE', ( #42, #19, #263, #40 ) ) ;
#239 = CARTESIAN_POINT ( 'NONE',  ( 0.1179918899999999882, 1.444983904138465938E-17, 0.03937000000000000915 ) ) ;
#240 = CARTESIAN_POINT ( 'NONE',  ( 0.0000000000000000000, 0.0000000000000000000, 2.244094000000000033 ) ) ;
#241 =( CONVERSION_BASED_UNIT ( 'INCH', #177 ) LENGTH_UNIT ( ) NAMED_UNIT ( #251 ) );
#242 = ORIENTED_EDGE ( 'NONE', *, *, #218, .F. ) ;
#243 = AXIS2_PLACEMENT_3D ( 'NONE', #220, #307, #81 ) ;
#244 = DIRECTION ( 'NONE',  ( -1.000000000000000000, 0.0000000000000000000, 0.0000000000000000000 ) ) ;
#245 = AXIS2_PLACEMENT_3D ( 'NONE', #79, #3, #255 ) ;
#246 = DIRECTION ( 'NONE',  ( 0.0000000000000000000, 0.0000000000000000000, 1.000000000000000000 ) ) ;
#247 = ADVANCED_FACE ( 'NONE', ( #225 ), #292, .T. ) ;
#248 = UNCERTAINTY_MEASURE_WITH_UNIT (LENGTH_MEASURE( 1.000000000000000082E-05 ), #241, 'distance_accuracy_value', 'NONE');
#249 = DIRECTION ( 'NONE',  ( -0.0000000000000000000, -0.0000000000000000000, -1.000000000000000000 ) ) ;
#250 = CARTESIAN_POINT ( 'NONE',  ( 0.07862188999999999983, 0.0000000000000000000, 0.03937000000000000222 ) ) ;
#251 = DIMENSIONAL_EXPONENTS ( 1.000000000000000000, 0.0000000000000000000, 0.0000000000000000000, 0.0000000000000000000, 0.0000000000000000000, 0.0000000000000000000, 0.0000000000000000000 ) ;
#252 = AXIS2_PLACEMENT_3D ( 'NONE', #7, #142, #110 ) ;
#253 = EDGE_CURVE ( 'NONE', #175, #119, #266, .T. ) ;
#254 = UNCERTAINTY_MEASURE_WITH_UNIT (LENGTH_MEASURE( 1.000000000000000082E-05 ), #314, 'distance_accuracy_value', 'NONE');
#255 = DIRECTION ( 'NONE',  ( -1.000000000000000000, 1.224646799147352961E-16, 0.0000000000000000000 ) ) ;
#256 = MECHANICAL_DESIGN_GEOMETRIC_PRESENTATION_REPRESENTATION (  '', ( #17 ), #282 ) ;
#257 = DIRECTION ( 'NONE',  ( 0.0000000000000000000, 0.0000000000000000000, 1.000000000000000000 ) ) ;
#258 = DIRECTION ( 'NONE',  ( -1.224646799147353207E-16, -0.0000000000000000000, -1.000000000000000000 ) ) ;
#259 = ORIENTED_EDGE ( 'NONE', *, *, #313, .F. ) ;
#260 = MECHANICAL_DESIGN_GEOMETRIC_PRESENTATION_REPRESENTATION (  '', ( #204 ), #187 ) ;
#261 = CARTESIAN_POINT ( 'NONE',  ( 0.1031100000000002570, 1.354581824536888722E-17, 2.244094000000000033 ) ) ;
#262 = DIRECTION ( 'NONE',  ( -1.000000000000000000, 0.0000000000000000000, 1.224646799147353454E-16 ) ) ;
#263 = ORIENTED_EDGE ( 'NONE', *, *, #41, .T. ) ;
#264 = PRODUCT_DEFINITION_FORMATION_WITH_SPECIFIED_SOURCE ( 'ANY', '', #234, .NOT_KNOWN. ) ;
#265 = DIRECTION ( 'NONE',  ( 1.000000000000000000, 0.0000000000000000000, 0.0000000000000000000 ) ) ;
#266 = CIRCLE ( 'NONE', #80, 0.1179918899999999882 ) ;
#267 = CARTESIAN_POINT ( 'NONE',  ( 0.0000000000000000000, 0.0000000000000000000, 0.0000000000000000000 ) ) ;
#268 = ORIENTED_EDGE ( 'NONE', *, *, #289, .T. ) ;
#269 = VERTEX_POINT ( 'NONE', #261 ) ;
#270 = PRESENTATION_STYLE_ASSIGNMENT (( #180 ) ) ;
#271 = AXIS2_PLACEMENT_3D ( 'NONE', #250, #336, #283 ) ;
#272 = CIRCLE ( 'NONE', #245, 0.03937000000000000915 ) ;
#273 = EDGE_LOOP ( 'NONE', ( #274, #152, #111, #302 ) ) ;
#274 = ORIENTED_EDGE ( 'NONE', *, *, #153, .F. ) ;
#275 = EDGE_CURVE ( 'NONE', #143, #351, #224, .T. ) ;
#276 = CARTESIAN_POINT ( 'NONE',  ( 0.0000000000000000000, 0.0000000000000000000, 0.0000000000000000000 ) ) ;
#277 = FACE_OUTER_BOUND ( 'NONE', #291, .T. ) ;
#278 = DIRECTION ( 'NONE',  ( -0.7071067811865358044, 0.0000000000000000000, -0.7071067811865590080 ) ) ;
#279 = AXIS2_PLACEMENT_3D ( 'NONE', #105, #257, #138 ) ;
#280 = FACE_OUTER_BOUND ( 'NONE', #330, .T. ) ;
#281 = APPLICATION_CONTEXT ( 'automotive_design' ) ;
#282 =( GEOMETRIC_REPRESENTATION_CONTEXT ( 3 ) GLOBAL_UNCERTAINTY_ASSIGNED_CONTEXT ( ( #248 ) ) GLOBAL_UNIT_ASSIGNED_CONTEXT ( ( #241, #155, #75 ) ) REPRESENTATION_CONTEXT ( 'NONE', 'WORKASPACE' ) );
#283 = DIRECTION ( 'NONE',  ( 0.0000000000000000000, 0.0000000000000000000, -1.000000000000000000 ) ) ;
#284 = EDGE_CURVE ( 'NONE', #94, #209, #170, .T. ) ;
#285 = CARTESIAN_POINT ( 'NONE',  ( 4.821434448243130025E-18, 0.0000000000000000000, 0.03937000000000000915 ) ) ;
#286 = CIRCLE ( 'NONE', #237, 0.07862188999999999983 ) ;
#287 = DIRECTION ( 'NONE',  ( -1.224646799147353207E-16, -0.0000000000000000000, -1.000000000000000000 ) ) ;
#288 = SURFACE_STYLE_USAGE ( .BOTH. , #201 ) ;
#289 = EDGE_CURVE ( 'NONE', #145, #269, #178, .T. ) ;
#290 = CIRCLE ( 'NONE', #271, 0.03937000000000000222 ) ;
#291 = EDGE_LOOP ( 'NONE', ( #68, #102, #121, #301 ) ) ;
#292 = CONICAL_SURFACE ( 'NONE', #172, 0.1031100000000002570, 0.7853981633974318477 ) ;
#293 = CARTESIAN_POINT ( 'NONE',  ( 7.714307363656999460E-17, 0.0000000000000000000, 0.6299209999999999532 ) ) ;
#294 = ORIENTED_EDGE ( 'NONE', *, *, #90, .T. ) ;
#295 = CARTESIAN_POINT ( 'NONE',  ( 4.821434448243129254E-18, 0.0000000000000000000, 0.0000000000000000000 ) ) ;
#296 = ORIENTED_EDGE ( 'NONE', *, *, #115, .T. ) ;
#297 = DIRECTION ( 'NONE',  ( -1.224646799147353207E-16, -0.0000000000000000000, -1.000000000000000000 ) ) ;
#298 = EDGE_LOOP ( 'NONE', ( #114, #229, #294, #324 ) ) ;
#299 = AXIS2_PLACEMENT_3D ( 'NONE', #189, #304, #206 ) ;
#300 = AXIS2_PLACEMENT_3D ( 'NONE', #15, #147, #69 ) ;
#301 = ORIENTED_EDGE ( 'NONE', *, *, #342, .F. ) ;
#302 = ORIENTED_EDGE ( 'NONE', *, *, #98, .F. ) ;
#303 = AXIS2_PLACEMENT_3D ( 'NONE', #193, #311, #133 ) ;
#304 = DIRECTION ( 'NONE',  ( 0.0000000000000000000, 0.0000000000000000000, -1.000000000000000000 ) ) ;
#305 = CARTESIAN_POINT ( 'NONE',  ( 4.821434448243129254E-18, 0.0000000000000000000, 0.03937000000000000222 ) ) ;
#306 = FACE_OUTER_BOUND ( 'NONE', #226, .T. ) ;
#307 = DIRECTION ( 'NONE',  ( 0.0000000000000000000, 0.0000000000000000000, 1.000000000000000000 ) ) ;
#308 = AXIS2_PLACEMENT_3D ( 'NONE', #59, #246, #194 ) ;
#309 = CARTESIAN_POINT ( 'NONE',  ( 0.1181100000000000899, 1.446430334472940009E-17, 0.6305908350957151187 ) ) ;
#310 = CYLINDRICAL_SURFACE ( 'NONE', #44, 0.1179918899999999882 ) ;
#311 = DIRECTION ( 'NONE',  ( 1.224646799147353207E-16, 0.0000000000000000000, 1.000000000000000000 ) ) ;
#312 = DIRECTION ( 'NONE',  ( -1.224646799147353207E-16, -0.0000000000000000000, -1.000000000000000000 ) ) ;
#313 = EDGE_CURVE ( 'NONE', #347, #51, #9, .T. ) ;
#314 =( CONVERSION_BASED_UNIT ( 'INCH', #173 ) LENGTH_UNIT ( ) NAMED_UNIT ( #219 ) );
#315 = ORIENTED_EDGE ( 'NONE', *, *, #179, .T. ) ;
#316 = DIRECTION ( 'NONE',  ( -0.0000000000000000000, -0.0000000000000000000, -1.000000000000000000 ) ) ;
#317 = ORIENTED_EDGE ( 'NONE', *, *, #165, .F. ) ;
#318 = DIRECTION ( 'NONE',  ( -0.0000000000000000000, -0.0000000000000000000, -1.000000000000000000 ) ) ;
#319 = EDGE_CURVE ( 'NONE', #119, #351, #65, .T. ) ;
#320 = CARTESIAN_POINT ( 'NONE',  ( 0.0000000000000000000, 0.0000000000000000000, 0.0000000000000000000 ) ) ;
#321 = SHAPE_DEFINITION_REPRESENTATION ( #350, #85 ) ;
#322 = AXIS2_PLACEMENT_3D ( 'NONE', #56, #53, #163 ) ;
#323 = FILL_AREA_STYLE_COLOUR ( '', #25 ) ;
#324 = ORIENTED_EDGE ( 'NONE', *, *, #41, .F. ) ;
#325 = MANIFOLD_SOLID_BREP ( 'Fillet1', #167 ) ;
#326 = CARTESIAN_POINT ( 'NONE',  ( 0.07862188999999999983, 0.0000000000000000000, 0.0000000000000000000 ) ) ;
#327 = ADVANCED_FACE ( 'NONE', ( #91 ), #144, .T. ) ;
#328 = DIRECTION ( 'NONE',  ( 0.0000000000000000000, 0.0000000000000000000, 1.000000000000000000 ) ) ;
#329 = ORIENTED_EDGE ( 'NONE', *, *, #218, .T. ) ;
#330 = EDGE_LOOP ( 'NONE', ( #259, #315, #16, #148 ) ) ;
#331 = ADVANCED_FACE ( 'NONE', ( #343 ), #171, .F. ) ;
#332 = DIRECTION ( 'NONE',  ( -1.224646799147353207E-16, -0.0000000000000000000, -1.000000000000000000 ) ) ;
#333 = DIRECTION ( 'NONE',  ( 1.000000000000000000, 0.0000000000000000000, 0.0000000000000000000 ) ) ;
#334 = VECTOR ( 'NONE', #134, 39.37007874015748143 ) ;
#335 = CARTESIAN_POINT ( 'NONE',  ( 0.0000000000000000000, 0.0000000000000000000, 2.229093999999999465 ) ) ;
#336 = DIRECTION ( 'NONE',  ( 0.0000000000000000000, -1.000000000000000000, 0.0000000000000000000 ) ) ;
#337 = DIRECTION ( 'NONE',  ( 1.000000000000000000, 0.0000000000000000000, 0.0000000000000000000 ) ) ;
#338 = EDGE_CURVE ( 'NONE', #209, #8, #58, .T. ) ;
#339 = ORIENTED_EDGE ( 'NONE', *, *, #284, .F. ) ;
#340 = DIRECTION ( 'NONE',  ( 1.000000000000000000, 0.0000000000000000000, 0.0000000000000000000 ) ) ;
#341 = CARTESIAN_POINT ( 'NONE',  ( 7.722510477716240475E-17, 0.0000000000000000000, 0.6305908350957151187 ) ) ;
#342 = EDGE_CURVE ( 'NONE', #141, #8, #92, .T. ) ;
#343 = FACE_OUTER_BOUND ( 'NONE', #72, .T. ) ;
#344 =( CONVERSION_BASED_UNIT ( 'INCH', #70 ) LENGTH_UNIT ( ) NAMED_UNIT ( #221 ) );
#345 = CARTESIAN_POINT ( 'NONE',  ( 0.1181100000000000066, 1.446430334472939084E-17, 2.229093999999999465 ) ) ;
#346 = VECTOR ( 'NONE', #108, 39.37007874015748854 ) ;
#347 = VERTEX_POINT ( 'NONE', #67 ) ;
#348 = APPLICATION_PROTOCOL_DEFINITION ( 'draft international standard', 'automotive_design', 1998, #281 ) ;
#349 = DIRECTION ( 'NONE',  ( -0.0000000000000000000, -0.0000000000000000000, -1.000000000000000000 ) ) ;
#350 = PRODUCT_DEFINITION_SHAPE ( 'NONE', 'NONE',  #211 ) ;
#351 = VERTEX_POINT ( 'NONE', #239 ) ;
ENDSEC;
END-ISO-10303-21;
