ISO-10303-21;
HEADER;
FILE_DESCRIPTION (( 'STEP AP214' ),
    '1' );
FILE_NAME ('Micro_GEM-375-4X.STEP',
    '2021-09-01T20:41:08',
    ( '' ),
    ( '' ),
    'SwSTEP 2.0',
    'SolidWorks 2020',
    '' );
FILE_SCHEMA (( 'AUTOMOTIVE_DESIGN' ));
ENDSEC;

DATA;
#1 = FILL_AREA_STYLE ('',( #205 ) ) ;
#2 = CARTESIAN_POINT ( 'NONE',  ( -0.1724999999999995981, 0.0000000000000000000, 2.500000000000000000 ) ) ;
#3 = VERTEX_POINT ( 'NONE', #105 ) ;
#4 = CARTESIAN_POINT ( 'NONE',  ( -0.1873124999999999096, 2.293916535652885904E-17, 0.8750000000000000000 ) ) ;
#5 = DIRECTION ( 'NONE',  ( 1.000000000000000000, 0.0000000000000000000, 0.0000000000000000000 ) ) ;
#6 = AXIS2_PLACEMENT_3D ( 'NONE', #58, #159, #225 ) ;
#7 = SHAPE_DEFINITION_REPRESENTATION ( #285, #25 ) ;
#8 = CARTESIAN_POINT ( 'NONE',  ( 1.072868196215332272E-16, 0.0000000000000000000, 0.8760633653411783461 ) ) ;
#9 = CARTESIAN_POINT ( 'NONE',  ( 1.071565949253934025E-16, 0.0000000000000000000, 0.8750000000000000000 ) ) ;
#10 = DIRECTION ( 'NONE',  ( 1.000000000000000000, 0.0000000000000000000, 0.0000000000000000000 ) ) ;
#11 = ADVANCED_FACE ( 'NONE', ( #88 ), #200, .T. ) ;
#12 = CARTESIAN_POINT ( 'NONE',  ( 0.1724999999999995981, 2.204364238465233357E-17, 2.500000000000000000 ) ) ;
#13 = PRESENTATION_STYLE_ASSIGNMENT (( #263 ) ) ;
#14 = APPLICATION_CONTEXT ( 'automotive_design' ) ;
#15 = FILL_AREA_STYLE ('',( #178 ) ) ;
#16 = CARTESIAN_POINT ( 'NONE',  ( 0.0000000000000000000, 0.0000000000000000000, 2.500000000000000000 ) ) ;
#17 = FACE_OUTER_BOUND ( 'NONE', #197, .T. ) ;
#18 = ADVANCED_FACE ( 'NONE', ( #290 ), #35, .T. ) ;
#19 = ORIENTED_EDGE ( 'NONE', *, *, #52, .F. ) ;
#20 = ORIENTED_EDGE ( 'NONE', *, *, #260, .T. ) ;
#21 = APPLICATION_CONTEXT ( 'automotive_design' ) ;
#22 = VERTEX_POINT ( 'NONE', #180 ) ;
#23 = CARTESIAN_POINT ( 'NONE',  ( -0.1874999999999999167, 0.0000000000000000000, 0.8760633653411783461 ) ) ;
#24 = CIRCLE ( 'NONE', #42, 0.1724999999999995981 ) ;
#25 = ADVANCED_BREP_SHAPE_REPRESENTATION ( 'Micro_GEM-375-4X', ( #129, #126 ), #130 ) ;
#26 = CARTESIAN_POINT ( 'NONE',  ( 0.1724999999999995981, 2.112515728529179297E-17, 2.500000000000000000 ) ) ;
#27 = STYLED_ITEM ( 'NONE', ( #13 ), #25 ) ;
#28 = VERTEX_POINT ( 'NONE', #267 ) ;
#29 = CARTESIAN_POINT ( 'NONE',  ( 0.1873125000000001317, 0.0000000000000000000, 0.8750000000000000000 ) ) ;
#30 =( CONVERSION_BASED_UNIT ( 'INCH', #151 ) LENGTH_UNIT ( ) NAMED_UNIT ( #192 ) );
#31 = ORIENTED_EDGE ( 'NONE', *, *, #244, .F. ) ;
#32 = AXIS2_PLACEMENT_3D ( 'NONE', #8, #211, #196 ) ;
#33 = DIRECTION ( 'NONE',  ( 0.0000000000000000000, 0.0000000000000000000, 1.000000000000000000 ) ) ;
#34 = CARTESIAN_POINT ( 'NONE',  ( 2.809237542898491532E-33, 0.0000000000000000000, 2.293916535652885596E-17 ) ) ;
#35 = CYLINDRICAL_SURFACE ( 'NONE', #212, 0.1873124999999999929 ) ;
#36 = EDGE_CURVE ( 'NONE', #22, #3, #229, .T. ) ;
#37 = EDGE_LOOP ( 'NONE', ( #85, #83, #31, #98 ) ) ;
#38 = CARTESIAN_POINT ( 'NONE',  ( 0.0000000000000000000, 0.0000000000000000000, 0.0000000000000000000 ) ) ;
#39 = SURFACE_STYLE_FILL_AREA ( #1 ) ;
#40 = APPLICATION_PROTOCOL_DEFINITION ( 'draft international standard', 'automotive_design', 1998, #21 ) ;
#41 = LINE ( 'NONE', #4, #82 ) ;
#42 = AXIS2_PLACEMENT_3D ( 'NONE', #265, #33, #84 ) ;
#43 = EDGE_LOOP ( 'NONE', ( #120, #48, #215, #169 ) ) ;
#44 = DIRECTION ( 'NONE',  ( -1.224646799147353207E-16, -0.0000000000000000000, -1.000000000000000000 ) ) ;
#45 =( LENGTH_UNIT ( ) NAMED_UNIT ( * ) SI_UNIT ( $, .METRE. ) );
#46 = LINE ( 'NONE', #144, #292 ) ;
#47 = CARTESIAN_POINT ( 'NONE',  ( 0.0000000000000000000, 0.0000000000000000000, 2.500000000000000000 ) ) ;
#48 = ORIENTED_EDGE ( 'NONE', *, *, #36, .T. ) ;
#49 = CARTESIAN_POINT ( 'NONE',  ( 1.071565949253934025E-16, 0.0000000000000000000, 0.8750000000000000000 ) ) ;
#50 = AXIS2_PLACEMENT_3D ( 'NONE', #16, #127, #223 ) ;
#51 = COLOUR_RGB ( '',0.7921568627450980005, 0.8196078431372548767, 0.9333333333333333481 ) ;
#52 = EDGE_CURVE ( 'NONE', #161, #175, #24, .T. ) ;
#53 = CONICAL_SURFACE ( 'NONE', #162, 0.1873125000000000207, 0.1745329251994338915 ) ;
#54 = ADVANCED_FACE ( 'NONE', ( #186 ), #164, .T. ) ;
#55 = EDGE_CURVE ( 'NONE', #28, #277, #234, .T. ) ;
#56 = UNCERTAINTY_MEASURE_WITH_UNIT (LENGTH_MEASURE( 1.000000000000000082E-05 ), #154, 'distance_accuracy_value', 'NONE');
#57 = DIRECTION ( 'NONE',  ( 0.0000000000000000000, 0.0000000000000000000, -1.000000000000000000 ) ) ;
#58 = CARTESIAN_POINT ( 'NONE',  ( 0.0000000000000000000, 0.0000000000000000000, 2.500000000000000000 ) ) ;
#59 =( NAMED_UNIT ( * ) PLANE_ANGLE_UNIT ( ) SI_UNIT ( $, .RADIAN. ) );
#60 = CARTESIAN_POINT ( 'NONE',  ( 0.0000000000000000000, 0.0000000000000000000, 0.0000000000000000000 ) ) ;
#61 = ORIENTED_EDGE ( 'NONE', *, *, #276, .F. ) ;
#62 = AXIS2_PLACEMENT_3D ( 'NONE', #132, #231, #128 ) ;
#63 = DIRECTION ( 'NONE',  ( -1.000000000000000000, 0.0000000000000000000, 1.224646799147352961E-16 ) ) ;
#64 = ORIENTED_EDGE ( 'NONE', *, *, #269, .F. ) ;
#65 = DIRECTION ( 'NONE',  ( 0.0000000000000000000, 0.0000000000000000000, 1.000000000000000000 ) ) ;
#66 = ORIENTED_EDGE ( 'NONE', *, *, #276, .T. ) ;
#67 = CARTESIAN_POINT ( 'NONE',  ( 1.071565949253934025E-16, 0.0000000000000000000, 0.8750000000000000000 ) ) ;
#68 = SURFACE_STYLE_USAGE ( .BOTH. , #275 ) ;
#69 =( GEOMETRIC_REPRESENTATION_CONTEXT ( 3 ) GLOBAL_UNCERTAINTY_ASSIGNED_CONTEXT ( ( #106 ) ) GLOBAL_UNIT_ASSIGNED_CONTEXT ( ( #135, #139, #235 ) ) REPRESENTATION_CONTEXT ( 'NONE', 'WORKASPACE' ) );
#70 = DIRECTION ( 'NONE',  ( 1.224646799147353207E-16, 0.0000000000000000000, 1.000000000000000000 ) ) ;
#71 = CARTESIAN_POINT ( 'NONE',  ( 0.0000000000000000000, 0.0000000000000000000, 2.500000000000000000 ) ) ;
#72 = CIRCLE ( 'NONE', #284, 0.1873125000000000207 ) ;
#73 = ORIENTED_EDGE ( 'NONE', *, *, #242, .T. ) ;
#74 =( LENGTH_UNIT ( ) NAMED_UNIT ( * ) SI_UNIT ( $, .METRE. ) );
#75 = VECTOR ( 'NONE', #207, 39.37007874015748854 ) ;
#76 = PRODUCT_DEFINITION_FORMATION_WITH_SPECIFIED_SOURCE ( 'ANY', '', #219, .NOT_KNOWN. ) ;
#77 = PRODUCT_DEFINITION_CONTEXT ( 'detailed design', #21, 'design' ) ;
#78 = CARTESIAN_POINT ( 'NONE',  ( -0.1873124999999999929, 0.0000000000000000000, 4.587833071305771192E-17 ) ) ;
#79 = CLOSED_SHELL ( 'NONE', ( #18, #179, #107, #131, #54, #86, #102, #155, #11, #216 ) ) ;
#80 = DIRECTION ( 'NONE',  ( 0.0000000000000000000, 0.0000000000000000000, 1.000000000000000000 ) ) ;
#81 = DIRECTION ( 'NONE',  ( -1.000000000000000000, 0.0000000000000000000, 1.224646799147352961E-16 ) ) ;
#82 = VECTOR ( 'NONE', #134, 39.37007874015747433 ) ;
#83 = ORIENTED_EDGE ( 'NONE', *, *, #289, .T. ) ;
#84 = DIRECTION ( 'NONE',  ( 1.000000000000000000, 0.0000000000000000000, 0.0000000000000000000 ) ) ;
#85 = ORIENTED_EDGE ( 'NONE', *, *, #55, .T. ) ;
#86 = ADVANCED_FACE ( 'NONE', ( #17 ), #111, .T. ) ;
#87 = EDGE_LOOP ( 'NONE', ( #239, #149, #209, #293 ) ) ;
#88 = FACE_OUTER_BOUND ( 'NONE', #119, .T. ) ;
#89 = CARTESIAN_POINT ( 'NONE',  ( 0.0000000000000000000, 0.0000000000000000000, 2.500000000000000000 ) ) ;
#90 = PRODUCT_CONTEXT ( 'NONE', #14, 'mechanical' ) ;
#91 = DIRECTION ( 'NONE',  ( -1.224646799147353207E-16, -0.0000000000000000000, -1.000000000000000000 ) ) ;
#92 = CARTESIAN_POINT ( 'NONE',  ( -0.1873124999999999096, 2.295064642027087123E-17, 0.8750000000000000000 ) ) ;
#93 = ORIENTED_EDGE ( 'NONE', *, *, #125, .T. ) ;
#94 = DIRECTION ( 'NONE',  ( 1.000000000000000000, 0.0000000000000000000, 0.0000000000000000000 ) ) ;
#95 = ORIENTED_EDGE ( 'NONE', *, *, #145, .T. ) ;
#96 = DIRECTION ( 'NONE',  ( 0.0000000000000000000, 0.0000000000000000000, -1.000000000000000000 ) ) ;
#97 = AXIS2_PLACEMENT_3D ( 'NONE', #185, #57, #248 ) ;
#98 = ORIENTED_EDGE ( 'NONE', *, *, #247, .F. ) ;
#99 = DIRECTION ( 'NONE',  ( -1.224646799147353207E-16, -0.0000000000000000000, -1.000000000000000000 ) ) ;
#100 = CARTESIAN_POINT ( 'NONE',  ( 0.1875000000000000833, 2.296212748401288650E-17, 0.8760633653411783461 ) ) ;
#101 = EDGE_LOOP ( 'NONE', ( #202, #19, #93, #256 ) ) ;
#102 = ADVANCED_FACE ( 'NONE', ( #167 ), #103, .T. ) ;
#103 = CONICAL_SURFACE ( 'NONE', #50, 0.1724999999999995981, 0.7853981633974357335 ) ;
#104 = CIRCLE ( 'NONE', #296, 0.1875000000000000278 ) ;
#105 = CARTESIAN_POINT ( 'NONE',  ( 0.1873124999999999929, 2.293916535652885596E-17, 0.0000000000000000000 ) ) ;
#106 = UNCERTAINTY_MEASURE_WITH_UNIT (LENGTH_MEASURE( 1.000000000000000082E-05 ), #135, 'distance_accuracy_value', 'NONE');
#107 = ADVANCED_FACE ( 'NONE', ( #199 ), #266, .T. ) ;
#108 = DIRECTION ( 'NONE',  ( 0.0000000000000000000, 0.0000000000000000000, 1.000000000000000000 ) ) ;
#109 = CIRCLE ( 'NONE', #121, 0.1873124999999999929 ) ;
#110 = CIRCLE ( 'NONE', #286, 0.1875000000000000278 ) ;
#111 = PLANE ( 'NONE',  #156 ) ;
#112 = EDGE_CURVE ( 'NONE', #227, #3, #109, .T. ) ;
#113 = CARTESIAN_POINT ( 'NONE',  ( 0.0000000000000000000, 0.0000000000000000000, 0.0000000000000000000 ) ) ;
#114 = VERTEX_POINT ( 'NONE', #92 ) ;
#115 = FACE_OUTER_BOUND ( 'NONE', #37, .T. ) ;
#116 = VECTOR ( 'NONE', #280, 39.37007874015748854 ) ;
#117 = EDGE_LOOP ( 'NONE', ( #124, #20, #140, #271 ) ) ;
#118 = CARTESIAN_POINT ( 'NONE',  ( 0.0000000000000000000, 0.0000000000000000000, 2.484999999999999432 ) ) ;
#119 = EDGE_LOOP ( 'NONE', ( #236, #66, #73, #165 ) ) ;
#120 = ORIENTED_EDGE ( 'NONE', *, *, #168, .T. ) ;
#121 = AXIS2_PLACEMENT_3D ( 'NONE', #34, #158, #190 ) ;
#122 = DIRECTION ( 'NONE',  ( -1.224646799147353207E-16, -0.0000000000000000000, -1.000000000000000000 ) ) ;
#123 = DIRECTION ( 'NONE',  ( 0.1736481776669313859, 0.0000000000000000000, 0.9848077530122077983 ) ) ;
#124 = ORIENTED_EDGE ( 'NONE', *, *, #168, .F. ) ;
#125 = EDGE_CURVE ( 'NONE', #161, #28, #233, .T. ) ;
#126 = AXIS2_PLACEMENT_3D ( 'NONE', #38, #295, #187 ) ;
#127 = DIRECTION ( 'NONE',  ( 0.0000000000000000000, 0.0000000000000000000, -1.000000000000000000 ) ) ;
#128 = DIRECTION ( 'NONE',  ( 1.000000000000000000, 0.0000000000000000000, 0.0000000000000000000 ) ) ;
#129 = MANIFOLD_SOLID_BREP ( 'Cut-Revolve1', #79 ) ;
#130 =( GEOMETRIC_REPRESENTATION_CONTEXT ( 3 ) GLOBAL_UNCERTAINTY_ASSIGNED_CONTEXT ( ( #288 ) ) GLOBAL_UNIT_ASSIGNED_CONTEXT ( ( #30, #261, #153 ) ) REPRESENTATION_CONTEXT ( 'NONE', 'WORKASPACE' ) );
#131 = ADVANCED_FACE ( 'NONE', ( #115 ), #279, .T. ) ;
#132 = CARTESIAN_POINT ( 'NONE',  ( 0.0000000000000000000, 0.0000000000000000000, 2.484999999999999432 ) ) ;
#133 = EDGE_LOOP ( 'NONE', ( #174, #61, #273, #95 ) ) ;
#134 = DIRECTION ( 'NONE',  ( -0.1736481776669311916, 2.126576849575783316E-17, 0.9848077530122080203 ) ) ;
#135 =( CONVERSION_BASED_UNIT ( 'INCH', #250 ) LENGTH_UNIT ( ) NAMED_UNIT ( #184 ) );
#136 = EDGE_LOOP ( 'NONE', ( #64, #232, #252, #206 ) ) ;
#137 = DIRECTION ( 'NONE',  ( -0.0000000000000000000, -0.0000000000000000000, -1.000000000000000000 ) ) ;
#138 = STYLED_ITEM ( 'NONE', ( #173 ), #129 ) ;
#139 =( NAMED_UNIT ( * ) PLANE_ANGLE_UNIT ( ) SI_UNIT ( $, .RADIAN. ) );
#140 = ORIENTED_EDGE ( 'NONE', *, *, #244, .T. ) ;
#141 = DIRECTION ( 'NONE',  ( 1.000000000000000000, 0.0000000000000000000, 0.0000000000000000000 ) ) ;
#142 = CARTESIAN_POINT ( 'NONE',  ( -0.1875000000000000278, 0.0000000000000000000, 2.500000000000000000 ) ) ;
#143 = VERTEX_POINT ( 'NONE', #23 ) ;
#144 = CARTESIAN_POINT ( 'NONE',  ( 0.1875000000000000278, 2.296212748401287726E-17, 2.500000000000000000 ) ) ;
#145 = EDGE_CURVE ( 'NONE', #282, #143, #110, .T. ) ;
#146 = VECTOR ( 'NONE', #123, 39.37007874015748143 ) ;
#147 = SURFACE_STYLE_FILL_AREA ( #15 ) ;
#148 = FACE_OUTER_BOUND ( 'NONE', #117, .T. ) ;
#149 = ORIENTED_EDGE ( 'NONE', *, *, #241, .T. ) ;
#150 = FACE_OUTER_BOUND ( 'NONE', #193, .T. ) ;
#151 = LENGTH_MEASURE_WITH_UNIT ( LENGTH_MEASURE( 0.02539999999999999897 ), #74 );
#152 = DIRECTION ( 'NONE',  ( 1.000000000000000000, 0.0000000000000000000, -0.0000000000000000000 ) ) ;
#153 =( NAMED_UNIT ( * ) SI_UNIT ( $, .STERADIAN. ) SOLID_ANGLE_UNIT ( ) );
#154 =( CONVERSION_BASED_UNIT ( 'INCH', #294 ) LENGTH_UNIT ( ) NAMED_UNIT ( #228 ) );
#155 = ADVANCED_FACE ( 'NONE', ( #210 ), #53, .T. ) ;
#156 = AXIS2_PLACEMENT_3D ( 'NONE', #89, #108, #268 ) ;
#157 =( GEOMETRIC_REPRESENTATION_CONTEXT ( 3 ) GLOBAL_UNCERTAINTY_ASSIGNED_CONTEXT ( ( #56 ) ) GLOBAL_UNIT_ASSIGNED_CONTEXT ( ( #154, #59, #160 ) ) REPRESENTATION_CONTEXT ( 'NONE', 'WORKASPACE' ) );
#158 = DIRECTION ( 'NONE',  ( -1.224646799147353207E-16, -0.0000000000000000000, -1.000000000000000000 ) ) ;
#159 = DIRECTION ( 'NONE',  ( -0.0000000000000000000, -0.0000000000000000000, -1.000000000000000000 ) ) ;
#160 =( NAMED_UNIT ( * ) SI_UNIT ( $, .STERADIAN. ) SOLID_ANGLE_UNIT ( ) );
#161 = VERTEX_POINT ( 'NONE', #259 ) ;
#162 = AXIS2_PLACEMENT_3D ( 'NONE', #9, #70, #5 ) ;
#163 = VECTOR ( 'NONE', #258, 39.37007874015748143 ) ;
#164 = CYLINDRICAL_SURFACE ( 'NONE', #6, 0.1875000000000000278 ) ;
#165 = ORIENTED_EDGE ( 'NONE', *, *, #299, .F. ) ;
#166 = CARTESIAN_POINT ( 'NONE',  ( 2.809237542898491532E-33, 0.0000000000000000000, 2.293916535652885596E-17 ) ) ;
#167 = FACE_OUTER_BOUND ( 'NONE', #101, .T. ) ;
#168 = EDGE_CURVE ( 'NONE', #114, #22, #195, .T. ) ;
#169 = ORIENTED_EDGE ( 'NONE', *, *, #242, .F. ) ;
#170 = LINE ( 'NONE', #29, #146 ) ;
#171 = EDGE_CURVE ( 'NONE', #22, #282, #170, .T. ) ;
#172 = LINE ( 'NONE', #142, #163 ) ;
#173 = PRESENTATION_STYLE_ASSIGNMENT (( #68 ) ) ;
#174 = ORIENTED_EDGE ( 'NONE', *, *, #260, .F. ) ;
#175 = VERTEX_POINT ( 'NONE', #12 ) ;
#176 = CARTESIAN_POINT ( 'NONE',  ( 1.072868196215332272E-16, 0.0000000000000000000, 0.8760633653411783461 ) ) ;
#177 = CIRCLE ( 'NONE', #32, 0.1875000000000000278 ) ;
#178 = FILL_AREA_STYLE_COLOUR ( '', #51 ) ;
#179 = ADVANCED_FACE ( 'NONE', ( #148 ), #281, .T. ) ;
#180 = CARTESIAN_POINT ( 'NONE',  ( 0.1873125000000001317, 0.0000000000000000000, 0.8750000000000000000 ) ) ;
#181 = PRESENTATION_LAYER_ASSIGNMENT (  '', '', ( #138 ) ) ;
#182 = DIRECTION ( 'NONE',  ( -1.224646799147353207E-16, -0.0000000000000000000, -1.000000000000000000 ) ) ;
#183 = PRODUCT_DEFINITION ( 'UNKNOWN', '', #76, #77 ) ;
#184 = DIMENSIONAL_EXPONENTS ( 1.000000000000000000, 0.0000000000000000000, 0.0000000000000000000, 0.0000000000000000000, 0.0000000000000000000, 0.0000000000000000000, 0.0000000000000000000 ) ;
#185 = CARTESIAN_POINT ( 'NONE',  ( 0.0000000000000000000, 0.0000000000000000000, 2.500000000000000000 ) ) ;
#186 = FACE_OUTER_BOUND ( 'NONE', #87, .T. ) ;
#187 = DIRECTION ( 'NONE',  ( 1.000000000000000000, 0.0000000000000000000, 0.0000000000000000000 ) ) ;
#188 = VECTOR ( 'NONE', #44, 39.37007874015748143 ) ;
#189 = CARTESIAN_POINT ( 'NONE',  ( 1.071565949253934025E-16, 0.0000000000000000000, 0.8750000000000000000 ) ) ;
#190 = DIRECTION ( 'NONE',  ( -1.000000000000000000, 0.0000000000000000000, 1.224646799147352961E-16 ) ) ;
#191 = ORIENTED_EDGE ( 'NONE', *, *, #112, .T. ) ;
#192 = DIMENSIONAL_EXPONENTS ( 1.000000000000000000, 0.0000000000000000000, 0.0000000000000000000, 0.0000000000000000000, 0.0000000000000000000, 0.0000000000000000000, 0.0000000000000000000 ) ;
#193 = EDGE_LOOP ( 'NONE', ( #191, #208 ) ) ;
#194 = DIRECTION ( 'NONE',  ( -0.0000000000000000000, -0.0000000000000000000, -1.000000000000000000 ) ) ;
#195 = CIRCLE ( 'NONE', #238, 0.1873125000000000207 ) ;
#196 = DIRECTION ( 'NONE',  ( 1.000000000000000000, 0.0000000000000000000, 0.0000000000000000000 ) ) ;
#197 = EDGE_LOOP ( 'NONE', ( #254, #230 ) ) ;
#198 = MECHANICAL_DESIGN_GEOMETRIC_PRESENTATION_REPRESENTATION (  '', ( #27 ), #157 ) ;
#199 = FACE_OUTER_BOUND ( 'NONE', #136, .T. ) ;
#200 = CYLINDRICAL_SURFACE ( 'NONE', #226, 0.1873124999999999929 ) ;
#201 = AXIS2_PLACEMENT_3D ( 'NONE', #71, #65, #10 ) ;
#202 = ORIENTED_EDGE ( 'NONE', *, *, #264, .F. ) ;
#203 = DIRECTION ( 'NONE',  ( -1.224646799147353207E-16, -0.0000000000000000000, -1.000000000000000000 ) ) ;
#204 = AXIS2_PLACEMENT_3D ( 'NONE', #166, #91, #278 ) ;
#205 = FILL_AREA_STYLE_COLOUR ( '', #291 ) ;
#206 = ORIENTED_EDGE ( 'NONE', *, *, #125, .F. ) ;
#207 = DIRECTION ( 'NONE',  ( -0.7071067811865385799, 0.0000000000000000000, -0.7071067811865563435 ) ) ;
#208 = ORIENTED_EDGE ( 'NONE', *, *, #299, .T. ) ;
#209 = ORIENTED_EDGE ( 'NONE', *, *, #247, .T. ) ;
#210 = FACE_OUTER_BOUND ( 'NONE', #133, .T. ) ;
#211 = DIRECTION ( 'NONE',  ( -1.224646799147353207E-16, -0.0000000000000000000, -1.000000000000000000 ) ) ;
#212 = AXIS2_PLACEMENT_3D ( 'NONE', #60, #182, #63 ) ;
#213 = DIRECTION ( 'NONE',  ( 1.000000000000000000, 0.0000000000000000000, 0.0000000000000000000 ) ) ;
#214 = SURFACE_SIDE_STYLE ('',( #147 ) ) ;
#215 = ORIENTED_EDGE ( 'NONE', *, *, #112, .F. ) ;
#216 = ADVANCED_FACE ( 'NONE', ( #150 ), #220, .F. ) ;
#217 = MECHANICAL_DESIGN_GEOMETRIC_PRESENTATION_REPRESENTATION (  '', ( #138 ), #69 ) ;
#218 = CARTESIAN_POINT ( 'NONE',  ( 0.0000000000000000000, 0.0000000000000000000, 0.0000000000000000000 ) ) ;
#219 = PRODUCT ( 'Micro_GEM-375-4X', 'Micro_GEM-375-4X', '', ( #90 ) ) ;
#220 = PLANE ( 'NONE',  #249 ) ;
#221 = AXIS2_PLACEMENT_3D ( 'NONE', #47, #194, #257 ) ;
#222 = PRESENTATION_LAYER_ASSIGNMENT (  '', '', ( #27 ) ) ;
#223 = DIRECTION ( 'NONE',  ( -1.000000000000000000, 0.0000000000000000000, 0.0000000000000000000 ) ) ;
#224 = PRODUCT_RELATED_PRODUCT_CATEGORY ( 'part', '', ( #219 ) ) ;
#225 = DIRECTION ( 'NONE',  ( -1.000000000000000000, 0.0000000000000000000, 0.0000000000000000000 ) ) ;
#226 = AXIS2_PLACEMENT_3D ( 'NONE', #113, #203, #81 ) ;
#227 = VERTEX_POINT ( 'NONE', #78 ) ;
#228 = DIMENSIONAL_EXPONENTS ( 1.000000000000000000, 0.0000000000000000000, 0.0000000000000000000, 0.0000000000000000000, 0.0000000000000000000, 0.0000000000000000000, 0.0000000000000000000 ) ;
#229 = LINE ( 'NONE', #270, #243 ) ;
#230 = ORIENTED_EDGE ( 'NONE', *, *, #269, .T. ) ;
#231 = DIRECTION ( 'NONE',  ( 0.0000000000000000000, 0.0000000000000000000, -1.000000000000000000 ) ) ;
#232 = ORIENTED_EDGE ( 'NONE', *, *, #264, .T. ) ;
#233 = LINE ( 'NONE', #2, #75 ) ;
#234 = CIRCLE ( 'NONE', #62, 0.1875000000000000278 ) ;
#235 =( NAMED_UNIT ( * ) SI_UNIT ( $, .STERADIAN. ) SOLID_ANGLE_UNIT ( ) );
#236 = ORIENTED_EDGE ( 'NONE', *, *, #36, .F. ) ;
#237 = LINE ( 'NONE', #26, #116 ) ;
#238 = AXIS2_PLACEMENT_3D ( 'NONE', #49, #99, #240 ) ;
#239 = ORIENTED_EDGE ( 'NONE', *, *, #289, .F. ) ;
#240 = DIRECTION ( 'NONE',  ( -1.000000000000000000, 0.0000000000000000000, 0.0000000000000000000 ) ) ;
#241 = EDGE_CURVE ( 'NONE', #277, #28, #104, .T. ) ;
#242 = EDGE_CURVE ( 'NONE', #114, #227, #272, .T. ) ;
#243 = VECTOR ( 'NONE', #246, 39.37007874015748143 ) ;
#244 = EDGE_CURVE ( 'NONE', #143, #282, #177, .T. ) ;
#245 = CIRCLE ( 'NONE', #201, 0.1724999999999995981 ) ;
#246 = DIRECTION ( 'NONE',  ( -1.224646799147353207E-16, -0.0000000000000000000, -1.000000000000000000 ) ) ;
#247 = EDGE_CURVE ( 'NONE', #28, #143, #172, .T. ) ;
#248 = DIRECTION ( 'NONE',  ( -1.000000000000000000, 0.0000000000000000000, 0.0000000000000000000 ) ) ;
#249 = AXIS2_PLACEMENT_3D ( 'NONE', #218, #80, #152 ) ;
#250 = LENGTH_MEASURE_WITH_UNIT ( LENGTH_MEASURE( 0.02539999999999999897 ), #45 );
#251 = CARTESIAN_POINT ( 'NONE',  ( -0.1873124999999999929, 0.0000000000000000000, 2.293916535652885596E-17 ) ) ;
#252 = ORIENTED_EDGE ( 'NONE', *, *, #55, .F. ) ;
#253 = DIRECTION ( 'NONE',  ( 1.224646799147353207E-16, 0.0000000000000000000, 1.000000000000000000 ) ) ;
#254 = ORIENTED_EDGE ( 'NONE', *, *, #52, .T. ) ;
#255 = DIRECTION ( 'NONE',  ( -1.000000000000000000, 0.0000000000000000000, 0.0000000000000000000 ) ) ;
#256 = ORIENTED_EDGE ( 'NONE', *, *, #241, .F. ) ;
#257 = DIRECTION ( 'NONE',  ( -1.000000000000000000, 0.0000000000000000000, 0.0000000000000000000 ) ) ;
#258 = DIRECTION ( 'NONE',  ( -0.0000000000000000000, -0.0000000000000000000, -1.000000000000000000 ) ) ;
#259 = CARTESIAN_POINT ( 'NONE',  ( -0.1724999999999995981, 0.0000000000000000000, 2.500000000000000000 ) ) ;
#260 = EDGE_CURVE ( 'NONE', #114, #143, #41, .T. ) ;
#261 =( NAMED_UNIT ( * ) PLANE_ANGLE_UNIT ( ) SI_UNIT ( $, .RADIAN. ) );
#262 = AXIS2_PLACEMENT_3D ( 'NONE', #67, #253, #141 ) ;
#263 = SURFACE_STYLE_USAGE ( .BOTH. , #214 ) ;
#264 = EDGE_CURVE ( 'NONE', #175, #277, #237, .T. ) ;
#265 = CARTESIAN_POINT ( 'NONE',  ( 0.0000000000000000000, 0.0000000000000000000, 2.500000000000000000 ) ) ;
#266 = CONICAL_SURFACE ( 'NONE', #97, 0.1724999999999995981, 0.7853981633974357335 ) ;
#267 = CARTESIAN_POINT ( 'NONE',  ( -0.1875000000000000278, 0.0000000000000000000, 2.484999999999999432 ) ) ;
#268 = DIRECTION ( 'NONE',  ( 1.000000000000000000, 0.0000000000000000000, -0.0000000000000000000 ) ) ;
#269 = EDGE_CURVE ( 'NONE', #175, #161, #245, .T. ) ;
#270 = CARTESIAN_POINT ( 'NONE',  ( 0.1873124999999999929, 2.293916535652885596E-17, -2.293916535652885596E-17 ) ) ;
#271 = ORIENTED_EDGE ( 'NONE', *, *, #171, .F. ) ;
#272 = LINE ( 'NONE', #251, #188 ) ;
#273 = ORIENTED_EDGE ( 'NONE', *, *, #171, .T. ) ;
#274 = CARTESIAN_POINT ( 'NONE',  ( 0.1875000000000000278, 2.296212748401287726E-17, 2.484999999999999432 ) ) ;
#275 = SURFACE_SIDE_STYLE ('',( #39 ) ) ;
#276 = EDGE_CURVE ( 'NONE', #22, #114, #72, .T. ) ;
#277 = VERTEX_POINT ( 'NONE', #274 ) ;
#278 = DIRECTION ( 'NONE',  ( -1.000000000000000000, 0.0000000000000000000, 1.224646799147352961E-16 ) ) ;
#279 = CYLINDRICAL_SURFACE ( 'NONE', #221, 0.1875000000000000278 ) ;
#280 = DIRECTION ( 'NONE',  ( 0.7071067811865385799, 8.659560562354823157E-17, -0.7071067811865563435 ) ) ;
#281 = CONICAL_SURFACE ( 'NONE', #262, 0.1873125000000000207, 0.1745329251994338915 ) ;
#282 = VERTEX_POINT ( 'NONE', #100 ) ;
#283 =( LENGTH_UNIT ( ) NAMED_UNIT ( * ) SI_UNIT ( $, .METRE. ) );
#284 = AXIS2_PLACEMENT_3D ( 'NONE', #189, #298, #255 ) ;
#285 = PRODUCT_DEFINITION_SHAPE ( 'NONE', 'NONE',  #183 ) ;
#286 = AXIS2_PLACEMENT_3D ( 'NONE', #176, #122, #213 ) ;
#287 = CIRCLE ( 'NONE', #204, 0.1873124999999999929 ) ;
#288 = UNCERTAINTY_MEASURE_WITH_UNIT (LENGTH_MEASURE( 1.000000000000000082E-05 ), #30, 'distance_accuracy_value', 'NONE');
#289 = EDGE_CURVE ( 'NONE', #277, #282, #46, .T. ) ;
#290 = FACE_OUTER_BOUND ( 'NONE', #43, .T. ) ;
#291 = COLOUR_RGB ( '',0.7921568627450980005, 0.8196078431372548767, 0.9333333333333333481 ) ;
#292 = VECTOR ( 'NONE', #137, 39.37007874015748143 ) ;
#293 = ORIENTED_EDGE ( 'NONE', *, *, #145, .F. ) ;
#294 = LENGTH_MEASURE_WITH_UNIT ( LENGTH_MEASURE( 0.02539999999999999897 ), #283 );
#295 = DIRECTION ( 'NONE',  ( 0.0000000000000000000, 0.0000000000000000000, 1.000000000000000000 ) ) ;
#296 = AXIS2_PLACEMENT_3D ( 'NONE', #118, #96, #94 ) ;
#297 = APPLICATION_PROTOCOL_DEFINITION ( 'draft international standard', 'automotive_design', 1998, #14 ) ;
#298 = DIRECTION ( 'NONE',  ( -1.224646799147353207E-16, -0.0000000000000000000, -1.000000000000000000 ) ) ;
#299 = EDGE_CURVE ( 'NONE', #3, #227, #287, .T. ) ;
ENDSEC;
END-ISO-10303-21;
