ISO-10303-21;
HEADER;
FILE_DESCRIPTION (( 'STEP AP214' ),
    '1' );
FILE_NAME ('Micro_KC-375-1125-187X.STEP',
    '2021-09-03T19:33:38',
    ( '' ),
    ( '' ),
    'SwSTEP 2.0',
    'SolidWorks 2020',
    '' );
FILE_SCHEMA (( 'AUTOMOTIVE_DESIGN' ));
ENDSEC;

DATA;
#1 = DIRECTION ( 'NONE',  ( -0.0000000000000000000, -0.0000000000000000000, -1.000000000000000000 ) ) ;
#2 = ORIENTED_EDGE ( 'NONE', *, *, #169, .F. ) ;
#3 = DIRECTION ( 'NONE',  ( 0.7071067811865489050, 0.0000000000000000000, 0.7071067811865461294 ) ) ;
#4 = EDGE_LOOP ( 'NONE', ( #156, #104, #327, #82 ) ) ;
#5 = EDGE_CURVE ( 'NONE', #297, #69, #128, .T. ) ;
#6 = DIRECTION ( 'NONE',  ( 0.0000000000000000000, 0.0000000000000000000, 1.000000000000000000 ) ) ;
#7 = VECTOR ( 'NONE', #3, 39.37007874015748143 ) ;
#8 = CARTESIAN_POINT ( 'NONE',  ( -0.1875000000000000278, 0.0000000000000000000, 2.484999999999999432 ) ) ;
#9 = EDGE_CURVE ( 'NONE', #69, #297, #199, .T. ) ;
#10 = DIRECTION ( 'NONE',  ( 1.000000000000000000, 0.0000000000000000000, 0.0000000000000000000 ) ) ;
#11 = ORIENTED_EDGE ( 'NONE', *, *, #5, .F. ) ;
#12 = DIRECTION ( 'NONE',  ( -0.7071067811865385799, 0.0000000000000000000, -0.7071067811865563435 ) ) ;
#13 = EDGE_LOOP ( 'NONE', ( #239, #167, #355, #39 ) ) ;
#14 = VECTOR ( 'NONE', #151, 39.37007874015748143 ) ;
#15 = CARTESIAN_POINT ( 'NONE',  ( 0.1875000000000000278, 2.296212748401287726E-17, 2.500000000000000000 ) ) ;
#16 = CARTESIAN_POINT ( 'NONE',  ( -0.1724999999999995981, 0.0000000000000000000, 2.500000000000000000 ) ) ;
#17 = EDGE_LOOP ( 'NONE', ( #364, #36, #306, #97 ) ) ;
#18 = DIRECTION ( 'NONE',  ( -0.0000000000000000000, -0.0000000000000000000, -1.000000000000000000 ) ) ;
#19 = ORIENTED_EDGE ( 'NONE', *, *, #341, .T. ) ;
#20 = AXIS2_PLACEMENT_3D ( 'NONE', #176, #310, #171 ) ;
#21 = VERTEX_POINT ( 'NONE', #300 ) ;
#22 = EDGE_CURVE ( 'NONE', #331, #165, #46, .T. ) ;
#23 = CARTESIAN_POINT ( 'NONE',  ( 0.0000000000000000000, 0.0000000000000000000, 0.0000000000000000000 ) ) ;
#24 = EDGE_CURVE ( 'NONE', #158, #21, #280, .T. ) ;
#25 = CIRCLE ( 'NONE', #95, 0.09500000000000001499 ) ;
#26 = AXIS2_PLACEMENT_3D ( 'NONE', #221, #278, #305 ) ;
#27 = CARTESIAN_POINT ( 'NONE',  ( 0.0000000000000000000, 0.0000000000000000000, 2.484999999999999432 ) ) ;
#28 = PRODUCT_DEFINITION_CONTEXT ( 'detailed design', #379, 'design' ) ;
#29 = FILL_AREA_STYLE_COLOUR ( '', #33 ) ;
#30 = CARTESIAN_POINT ( 'NONE',  ( -0.1875000000000000278, 0.0000000000000000000, 2.500000000000000000 ) ) ;
#31 = AXIS2_PLACEMENT_3D ( 'NONE', #62, #378, #123 ) ;
#32 = CARTESIAN_POINT ( 'NONE',  ( 0.09500000000000001499, 1.163414459189986206E-17, 0.1869999999999999996 ) ) ;
#33 = COLOUR_RGB ( '',0.7921568627450980005, 0.8196078431372548767, 0.9333333333333333481 ) ;
#34 = VERTEX_POINT ( 'NONE', #373 ) ;
#35 = DIRECTION ( 'NONE',  ( -0.0000000000000000000, -0.0000000000000000000, -1.000000000000000000 ) ) ;
#36 = ORIENTED_EDGE ( 'NONE', *, *, #222, .F. ) ;
#37 = ADVANCED_BREP_SHAPE_REPRESENTATION ( 'Micro_KC-375-1125-187X', ( #80, #149 ), #65 ) ;
#38 = FACE_OUTER_BOUND ( 'NONE', #154, .T. ) ;
#39 = ORIENTED_EDGE ( 'NONE', *, *, #270, .F. ) ;
#40 = DIRECTION ( 'NONE',  ( 1.000000000000000000, 0.0000000000000000000, 0.0000000000000000000 ) ) ;
#41 = CIRCLE ( 'NONE', #377, 0.1875000000000000278 ) ;
#42 = EDGE_LOOP ( 'NONE', ( #219, #126 ) ) ;
#43 = CARTESIAN_POINT ( 'NONE',  ( 0.0000000000000000000, 0.0000000000000000000, 0.0000000000000000000 ) ) ;
#44 = ORIENTED_EDGE ( 'NONE', *, *, #251, .F. ) ;
#45 = DIRECTION ( 'NONE',  ( -1.000000000000000000, 0.0000000000000000000, 0.0000000000000000000 ) ) ;
#46 = LINE ( 'NONE', #163, #320 ) ;
#47 = AXIS2_PLACEMENT_3D ( 'NONE', #27, #170, #286 ) ;
#48 = CIRCLE ( 'NONE', #31, 0.09500000000000015377 ) ;
#49 = SURFACE_SIDE_STYLE ('',( #303 ) ) ;
#50 = ORIENTED_EDGE ( 'NONE', *, *, #9, .T. ) ;
#51 = PRODUCT_DEFINITION_SHAPE ( 'NONE', 'NONE',  #64 ) ;
#52 = APPLICATION_PROTOCOL_DEFINITION ( 'draft international standard', 'automotive_design', 1998, #317 ) ;
#53 = VERTEX_POINT ( 'NONE', #88 ) ;
#54 = ORIENTED_EDGE ( 'NONE', *, *, #298, .T. ) ;
#55 = DIRECTION ( 'NONE',  ( 0.7071067811865385799, 8.659560562354823157E-17, -0.7071067811865563435 ) ) ;
#56 = FACE_OUTER_BOUND ( 'NONE', #113, .T. ) ;
#57 =( NAMED_UNIT ( * ) SI_UNIT ( $, .STERADIAN. ) SOLID_ANGLE_UNIT ( ) );
#58 = DIRECTION ( 'NONE',  ( -0.0000000000000000000, -0.0000000000000000000, -1.000000000000000000 ) ) ;
#59 = EDGE_CURVE ( 'NONE', #21, #140, #235, .T. ) ;
#60 = CARTESIAN_POINT ( 'NONE',  ( 0.0000000000000000000, 0.0000000000000000000, 1.125000000000000222 ) ) ;
#61 = LINE ( 'NONE', #147, #304 ) ;
#62 = CARTESIAN_POINT ( 'NONE',  ( 0.0000000000000000000, 0.0000000000000000000, 1.125000000000000222 ) ) ;
#63 = ORIENTED_EDGE ( 'NONE', *, *, #59, .F. ) ;
#64 = PRODUCT_DEFINITION ( 'UNKNOWN', '', #133, #28 ) ;
#65 =( GEOMETRIC_REPRESENTATION_CONTEXT ( 3 ) GLOBAL_UNCERTAINTY_ASSIGNED_CONTEXT ( ( #328 ) ) GLOBAL_UNIT_ASSIGNED_CONTEXT ( ( #356, #161, #361 ) ) REPRESENTATION_CONTEXT ( 'NONE', 'WORKASPACE' ) );
#66 = CARTESIAN_POINT ( 'NONE',  ( 0.0000000000000000000, 0.0000000000000000000, 0.1869999999999999996 ) ) ;
#67 = LINE ( 'NONE', #232, #14 ) ;
#68 = PLANE ( 'NONE',  #326 ) ;
#69 = VERTEX_POINT ( 'NONE', #115 ) ;
#70 = EDGE_CURVE ( 'NONE', #245, #158, #351, .T. ) ;
#71 = CARTESIAN_POINT ( 'NONE',  ( -0.1875000000000000278, 0.0000000000000000000, 0.0000000000000000000 ) ) ;
#72 = CIRCLE ( 'NONE', #129, 0.09500000000000001499 ) ;
#73 =( LENGTH_UNIT ( ) NAMED_UNIT ( * ) SI_UNIT ( $, .METRE. ) );
#74 = ORIENTED_EDGE ( 'NONE', *, *, #70, .F. ) ;
#75 = ORIENTED_EDGE ( 'NONE', *, *, #316, .T. ) ;
#76 = ORIENTED_EDGE ( 'NONE', *, *, #5, .T. ) ;
#77 =( GEOMETRIC_REPRESENTATION_CONTEXT ( 3 ) GLOBAL_UNCERTAINTY_ASSIGNED_CONTEXT ( ( #279 ) ) GLOBAL_UNIT_ASSIGNED_CONTEXT ( ( #142, #284, #315 ) ) REPRESENTATION_CONTEXT ( 'NONE', 'WORKASPACE' ) );
#78 = CARTESIAN_POINT ( 'NONE',  ( 0.0000000000000000000, 0.0000000000000000000, 2.500000000000000000 ) ) ;
#79 = ORIENTED_EDGE ( 'NONE', *, *, #298, .F. ) ;
#80 = MANIFOLD_SOLID_BREP ( 'Cut-Revolve1', #179 ) ;
#81 = CARTESIAN_POINT ( 'NONE',  ( 0.0000000000000000000, 0.0000000000000000000, 0.1869999999999999996 ) ) ;
#82 = ORIENTED_EDGE ( 'NONE', *, *, #281, .F. ) ;
#83 = ADVANCED_FACE ( 'NONE', ( #252 ), #254, .T. ) ;
#84 = DIRECTION ( 'NONE',  ( -1.000000000000000000, 0.0000000000000000000, 0.0000000000000000000 ) ) ;
#85 = AXIS2_PLACEMENT_3D ( 'NONE', #78, #187, #296 ) ;
#86 = FACE_OUTER_BOUND ( 'NONE', #206, .T. ) ;
#87 = ADVANCED_FACE ( 'NONE', ( #340 ), #121, .T. ) ;
#88 = CARTESIAN_POINT ( 'NONE',  ( -0.09500000000000001499, 0.0000000000000000000, 0.1869999999999999996 ) ) ;
#89 = CARTESIAN_POINT ( 'NONE',  ( 0.0000000000000000000, 0.0000000000000000000, 1.217499999999999583 ) ) ;
#90 = AXIS2_PLACEMENT_3D ( 'NONE', #99, #182, #271 ) ;
#91 = LENGTH_MEASURE_WITH_UNIT ( LENGTH_MEASURE( 0.02539999999999999897 ), #345 );
#92 = CARTESIAN_POINT ( 'NONE',  ( 0.0000000000000000000, 0.0000000000000000000, 2.500000000000000000 ) ) ;
#93 = CARTESIAN_POINT ( 'NONE',  ( -0.1875000000000000278, 0.0000000000000000000, 2.500000000000000000 ) ) ;
#94 = EDGE_CURVE ( 'NONE', #34, #140, #61, .T. ) ;
#95 = AXIS2_PLACEMENT_3D ( 'NONE', #159, #18, #365 ) ;
#96 = FACE_BOUND ( 'NONE', #244, .T. ) ;
#97 = ORIENTED_EDGE ( 'NONE', *, *, #59, .T. ) ;
#98 = EDGE_CURVE ( 'NONE', #297, #158, #371, .T. ) ;
#99 = CARTESIAN_POINT ( 'NONE',  ( 0.0000000000000000000, 0.0000000000000000000, 0.0000000000000000000 ) ) ;
#100 = DIRECTION ( 'NONE',  ( 1.000000000000000000, 0.0000000000000000000, -0.0000000000000000000 ) ) ;
#101 = VERTEX_POINT ( 'NONE', #143 ) ;
#102 = PRESENTATION_STYLE_ASSIGNMENT (( #277 ) ) ;
#103 = AXIS2_PLACEMENT_3D ( 'NONE', #92, #325, #100 ) ;
#104 = ORIENTED_EDGE ( 'NONE', *, *, #94, .T. ) ;
#105 = ADVANCED_FACE ( 'NONE', ( #86 ), #231, .T. ) ;
#106 = EDGE_LOOP ( 'NONE', ( #2, #248, #134, #263 ) ) ;
#107 = DIRECTION ( 'NONE',  ( -1.000000000000000000, 0.0000000000000000000, 0.0000000000000000000 ) ) ;
#108 = DIRECTION ( 'NONE',  ( -0.0000000000000000000, -0.0000000000000000000, -1.000000000000000000 ) ) ;
#109 = CARTESIAN_POINT ( 'NONE',  ( 0.0000000000000000000, 0.0000000000000000000, 2.500000000000000000 ) ) ;
#110 = CONICAL_SURFACE ( 'NONE', #269, 0.09500000000000015377, 0.7853981633974502774 ) ;
#111 = FACE_OUTER_BOUND ( 'NONE', #283, .T. ) ;
#112 = ADVANCED_FACE ( 'NONE', ( #56 ), #285, .T. ) ;
#113 = EDGE_LOOP ( 'NONE', ( #241, #178, #152, #63 ) ) ;
#114 =( CONVERSION_BASED_UNIT ( 'INCH', #255 ) LENGTH_UNIT ( ) NAMED_UNIT ( #119 ) );
#115 = CARTESIAN_POINT ( 'NONE',  ( -0.1724999999999995981, 0.0000000000000000000, 2.500000000000000000 ) ) ;
#116 = SURFACE_STYLE_FILL_AREA ( #229 ) ;
#117 = CIRCLE ( 'NONE', #258, 0.1875000000000000278 ) ;
#118 = CARTESIAN_POINT ( 'NONE',  ( 0.0000000000000000000, 0.0000000000000000000, 2.500000000000000000 ) ) ;
#119 = DIMENSIONAL_EXPONENTS ( 1.000000000000000000, 0.0000000000000000000, 0.0000000000000000000, 0.0000000000000000000, 0.0000000000000000000, 0.0000000000000000000, 0.0000000000000000000 ) ;
#120 = EDGE_CURVE ( 'NONE', #34, #267, #225, .T. ) ;
#121 = CYLINDRICAL_SURFACE ( 'NONE', #146, 0.09500000000000008438 ) ;
#122 = VECTOR ( 'NONE', #35, 39.37007874015748143 ) ;
#123 = DIRECTION ( 'NONE',  ( -1.000000000000000000, 0.0000000000000000000, 0.0000000000000000000 ) ) ;
#124 = DIRECTION ( 'NONE',  ( 0.0000000000000000000, 0.0000000000000000000, -1.000000000000000000 ) ) ;
#125 = DIRECTION ( 'NONE',  ( -0.0000000000000000000, -0.0000000000000000000, -1.000000000000000000 ) ) ;
#126 = ORIENTED_EDGE ( 'NONE', *, *, #215, .F. ) ;
#127 = ADVANCED_FACE ( 'NONE', ( #314 ), #110, .T. ) ;
#128 = CIRCLE ( 'NONE', #301, 0.1724999999999995981 ) ;
#129 = AXIS2_PLACEMENT_3D ( 'NONE', #210, #211, #291 ) ;
#130 = LINE ( 'NONE', #186, #122 ) ;
#131 = CARTESIAN_POINT ( 'NONE',  ( 0.0000000000000000000, 0.0000000000000000000, 0.0000000000000000000 ) ) ;
#132 = DIRECTION ( 'NONE',  ( 1.000000000000000000, 0.0000000000000000000, 0.0000000000000000000 ) ) ;
#133 = PRODUCT_DEFINITION_FORMATION_WITH_SPECIFIED_SOURCE ( 'ANY', '', #349, .NOT_KNOWN. ) ;
#134 = ORIENTED_EDGE ( 'NONE', *, *, #251, .T. ) ;
#135 = EDGE_CURVE ( 'NONE', #53, #265, #72, .T. ) ;
#136 = DIRECTION ( 'NONE',  ( -0.0000000000000000000, -0.0000000000000000000, -1.000000000000000000 ) ) ;
#137 = DIRECTION ( 'NONE',  ( -0.0000000000000000000, -0.0000000000000000000, -1.000000000000000000 ) ) ;
#138 = ORIENTED_EDGE ( 'NONE', *, *, #358, .T. ) ;
#139 = DIRECTION ( 'NONE',  ( 0.0000000000000000000, 0.0000000000000000000, 1.000000000000000000 ) ) ;
#140 = VERTEX_POINT ( 'NONE', #153 ) ;
#141 = MECHANICAL_DESIGN_GEOMETRIC_PRESENTATION_REPRESENTATION (  '', ( #275 ), #308 ) ;
#142 =( CONVERSION_BASED_UNIT ( 'INCH', #91 ) LENGTH_UNIT ( ) NAMED_UNIT ( #226 ) );
#143 = CARTESIAN_POINT ( 'NONE',  ( -0.1875000000000000278, 0.0000000000000000000, 0.1869999999999999996 ) ) ;
#144 = DIRECTION ( 'NONE',  ( -0.0000000000000000000, -0.0000000000000000000, -1.000000000000000000 ) ) ;
#145 = CIRCLE ( 'NONE', #203, 0.1875000000000000278 ) ;
#146 = AXIS2_PLACEMENT_3D ( 'NONE', #23, #224, #84 ) ;
#147 = CARTESIAN_POINT ( 'NONE',  ( -0.09500000000000015377, 1.163414459189987285E-17, 1.125000000000000222 ) ) ;
#148 = DIRECTION ( 'NONE',  ( 1.000000000000000000, 0.0000000000000000000, -0.0000000000000000000 ) ) ;
#149 = AXIS2_PLACEMENT_3D ( 'NONE', #228, #311, #223 ) ;
#150 = CARTESIAN_POINT ( 'NONE',  ( 0.09500000000000015377, 0.0000000000000000000, 1.125000000000000222 ) ) ;
#151 = DIRECTION ( 'NONE',  ( -0.0000000000000000000, -0.0000000000000000000, -1.000000000000000000 ) ) ;
#152 = ORIENTED_EDGE ( 'NONE', *, *, #270, .T. ) ;
#153 = CARTESIAN_POINT ( 'NONE',  ( -0.1875000000000000278, 0.0000000000000000000, 1.217499999999999583 ) ) ;
#154 = EDGE_LOOP ( 'NONE', ( #332, #214 ) ) ;
#155 = DIRECTION ( 'NONE',  ( 1.000000000000000000, 0.0000000000000000000, 0.0000000000000000000 ) ) ;
#156 = ORIENTED_EDGE ( 'NONE', *, *, #120, .F. ) ;
#157 = LENGTH_MEASURE_WITH_UNIT ( LENGTH_MEASURE( 0.02539999999999999897 ), #194 );
#158 = VERTEX_POINT ( 'NONE', #185 ) ;
#159 = CARTESIAN_POINT ( 'NONE',  ( 0.0000000000000000000, 0.0000000000000000000, 0.1869999999999999996 ) ) ;
#160 = DIRECTION ( 'NONE',  ( 0.0000000000000000000, 0.0000000000000000000, 1.000000000000000000 ) ) ;
#161 =( NAMED_UNIT ( * ) PLANE_ANGLE_UNIT ( ) SI_UNIT ( $, .RADIAN. ) );
#162 = PRESENTATION_LAYER_ASSIGNMENT (  '', '', ( #275 ) ) ;
#163 = CARTESIAN_POINT ( 'NONE',  ( 0.1875000000000000278, 2.296212748401287726E-17, 2.500000000000000000 ) ) ;
#164 = LINE ( 'NONE', #16, #191 ) ;
#165 = VERTEX_POINT ( 'NONE', #294 ) ;
#166 = FILL_AREA_STYLE_COLOUR ( '', #313 ) ;
#167 = ORIENTED_EDGE ( 'NONE', *, *, #24, .T. ) ;
#168 = ORIENTED_EDGE ( 'NONE', *, *, #192, .F. ) ;
#169 = EDGE_CURVE ( 'NONE', #267, #265, #130, .T. ) ;
#170 = DIRECTION ( 'NONE',  ( 0.0000000000000000000, 0.0000000000000000000, -1.000000000000000000 ) ) ;
#171 = DIRECTION ( 'NONE',  ( -1.000000000000000000, 0.0000000000000000000, 0.0000000000000000000 ) ) ;
#172 = AXIS2_PLACEMENT_3D ( 'NONE', #312, #338, #197 ) ;
#173 = APPLICATION_PROTOCOL_DEFINITION ( 'draft international standard', 'automotive_design', 1998, #379 ) ;
#174 = DIRECTION ( 'NONE',  ( 0.0000000000000000000, 0.0000000000000000000, 1.000000000000000000 ) ) ;
#175 = ADVANCED_FACE ( 'NONE', ( #238 ), #347, .T. ) ;
#176 = CARTESIAN_POINT ( 'NONE',  ( 0.0000000000000000000, 0.0000000000000000000, 2.500000000000000000 ) ) ;
#177 = DIRECTION ( 'NONE',  ( -1.000000000000000000, 0.0000000000000000000, 0.0000000000000000000 ) ) ;
#178 = ORIENTED_EDGE ( 'NONE', *, *, #207, .T. ) ;
#179 = CLOSED_SHELL ( 'NONE', ( #289, #246, #127, #372, #83, #112, #175, #105, #329, #87, #201, #376, #346 ) ) ;
#180 = CONICAL_SURFACE ( 'NONE', #85, 0.1724999999999995981, 0.7853981633974357335 ) ;
#181 = MECHANICAL_DESIGN_GEOMETRIC_PRESENTATION_REPRESENTATION (  '', ( #256 ), #77 ) ;
#182 = DIRECTION ( 'NONE',  ( 0.0000000000000000000, 0.0000000000000000000, 1.000000000000000000 ) ) ;
#183 = LINE ( 'NONE', #264, #7 ) ;
#184 = VERTEX_POINT ( 'NONE', #71 ) ;
#185 = CARTESIAN_POINT ( 'NONE',  ( 0.1875000000000000278, 2.296212748401287726E-17, 2.484999999999999432 ) ) ;
#186 = CARTESIAN_POINT ( 'NONE',  ( 0.09500000000000008438, 1.163414459189986514E-17, 0.0000000000000000000 ) ) ;
#187 = DIRECTION ( 'NONE',  ( 0.0000000000000000000, 0.0000000000000000000, -1.000000000000000000 ) ) ;
#188 = ORIENTED_EDGE ( 'NONE', *, *, #135, .F. ) ;
#189 = CARTESIAN_POINT ( 'NONE',  ( 0.0000000000000000000, 0.0000000000000000000, 2.500000000000000000 ) ) ;
#190 = FILL_AREA_STYLE ('',( #166 ) ) ;
#191 = VECTOR ( 'NONE', #12, 39.37007874015748854 ) ;
#192 = EDGE_CURVE ( 'NONE', #101, #184, #266, .T. ) ;
#193 = ORIENTED_EDGE ( 'NONE', *, *, #22, .F. ) ;
#194 =( LENGTH_UNIT ( ) NAMED_UNIT ( * ) SI_UNIT ( $, .METRE. ) );
#195 = EDGE_LOOP ( 'NONE', ( #50, #76 ) ) ;
#196 = ORIENTED_EDGE ( 'NONE', *, *, #98, .T. ) ;
#197 = DIRECTION ( 'NONE',  ( -1.000000000000000000, 0.0000000000000000000, 0.0000000000000000000 ) ) ;
#198 = CIRCLE ( 'NONE', #260, 0.1875000000000000278 ) ;
#199 = CIRCLE ( 'NONE', #26, 0.1724999999999995981 ) ;
#200 = EDGE_CURVE ( 'NONE', #140, #21, #41, .T. ) ;
#201 = ADVANCED_FACE ( 'NONE', ( #96, #38 ), #68, .T. ) ;
#202 = DIRECTION ( 'NONE',  ( -1.000000000000000000, 0.0000000000000000000, 0.0000000000000000000 ) ) ;
#203 = AXIS2_PLACEMENT_3D ( 'NONE', #81, #136, #45 ) ;
#204 = SURFACE_SIDE_STYLE ('',( #116 ) ) ;
#205 = DIRECTION ( 'NONE',  ( -0.0000000000000000000, -0.0000000000000000000, -1.000000000000000000 ) ) ;
#206 = EDGE_LOOP ( 'NONE', ( #216, #369, #54, #366 ) ) ;
#207 = EDGE_CURVE ( 'NONE', #158, #245, #321, .T. ) ;
#208 = CARTESIAN_POINT ( 'NONE',  ( 0.0000000000000000000, 0.0000000000000000000, 2.500000000000000000 ) ) ;
#209 = VECTOR ( 'NONE', #237, 39.37007874015748143 ) ;
#210 = CARTESIAN_POINT ( 'NONE',  ( 0.0000000000000000000, 0.0000000000000000000, 0.1869999999999999996 ) ) ;
#211 = DIRECTION ( 'NONE',  ( -0.0000000000000000000, -0.0000000000000000000, -1.000000000000000000 ) ) ;
#212 = AXIS2_PLACEMENT_3D ( 'NONE', #249, #139, #132 ) ;
#213 = ORIENTED_EDGE ( 'NONE', *, *, #215, .T. ) ;
#214 = ORIENTED_EDGE ( 'NONE', *, *, #358, .F. ) ;
#215 = EDGE_CURVE ( 'NONE', #165, #184, #334, .T. ) ;
#216 = ORIENTED_EDGE ( 'NONE', *, *, #98, .F. ) ;
#217 = AXIS2_PLACEMENT_3D ( 'NONE', #89, #58, #288 ) ;
#218 = CARTESIAN_POINT ( 'NONE',  ( 0.1875000000000000278, 2.296212748401287726E-17, 0.1869999999999999996 ) ) ;
#219 = ORIENTED_EDGE ( 'NONE', *, *, #341, .F. ) ;
#220 = DIRECTION ( 'NONE',  ( -0.0000000000000000000, -0.0000000000000000000, -1.000000000000000000 ) ) ;
#221 = CARTESIAN_POINT ( 'NONE',  ( 0.0000000000000000000, 0.0000000000000000000, 2.500000000000000000 ) ) ;
#222 = EDGE_CURVE ( 'NONE', #267, #34, #48, .T. ) ;
#223 = DIRECTION ( 'NONE',  ( 1.000000000000000000, 0.0000000000000000000, 0.0000000000000000000 ) ) ;
#224 = DIRECTION ( 'NONE',  ( -0.0000000000000000000, -0.0000000000000000000, -1.000000000000000000 ) ) ;
#225 = CIRCLE ( 'NONE', #344, 0.09500000000000015377 ) ;
#226 = DIMENSIONAL_EXPONENTS ( 1.000000000000000000, 0.0000000000000000000, 0.0000000000000000000, 0.0000000000000000000, 0.0000000000000000000, 0.0000000000000000000, 0.0000000000000000000 ) ;
#227 = CARTESIAN_POINT ( 'NONE',  ( 0.1724999999999995981, 2.112515728529179297E-17, 2.500000000000000000 ) ) ;
#228 = CARTESIAN_POINT ( 'NONE',  ( 0.0000000000000000000, 0.0000000000000000000, 0.0000000000000000000 ) ) ;
#229 = FILL_AREA_STYLE ('',( #29 ) ) ;
#230 = SURFACE_STYLE_USAGE ( .BOTH. , #204 ) ;
#231 = CONICAL_SURFACE ( 'NONE', #20, 0.1724999999999995981, 0.7853981633974357335 ) ;
#232 = CARTESIAN_POINT ( 'NONE',  ( -0.09500000000000008438, 0.0000000000000000000, 0.0000000000000000000 ) ) ;
#233 = DIRECTION ( 'NONE',  ( -1.000000000000000000, 0.0000000000000000000, 0.0000000000000000000 ) ) ;
#234 = EDGE_LOOP ( 'NONE', ( #193, #138, #307, #19 ) ) ;
#235 = CIRCLE ( 'NONE', #217, 0.1875000000000000278 ) ;
#236 = AXIS2_PLACEMENT_3D ( 'NONE', #118, #144, #257 ) ;
#237 = DIRECTION ( 'NONE',  ( -0.0000000000000000000, -0.0000000000000000000, -1.000000000000000000 ) ) ;
#238 = FACE_OUTER_BOUND ( 'NONE', #195, .T. ) ;
#239 = ORIENTED_EDGE ( 'NONE', *, *, #70, .T. ) ;
#240 = DIRECTION ( 'NONE',  ( 0.0000000000000000000, 0.0000000000000000000, 1.000000000000000000 ) ) ;
#241 = ORIENTED_EDGE ( 'NONE', *, *, #24, .F. ) ;
#242 = AXIS2_PLACEMENT_3D ( 'NONE', #109, #220, #107 ) ;
#243 = PRESENTATION_LAYER_ASSIGNMENT (  '', '', ( #256 ) ) ;
#244 = EDGE_LOOP ( 'NONE', ( #357, #75 ) ) ;
#245 = VERTEX_POINT ( 'NONE', #8 ) ;
#246 = ADVANCED_FACE ( 'NONE', ( #354 ), #322, .T. ) ;
#247 = CYLINDRICAL_SURFACE ( 'NONE', #242, 0.1875000000000000278 ) ;
#248 = ORIENTED_EDGE ( 'NONE', *, *, #222, .T. ) ;
#249 = CARTESIAN_POINT ( 'NONE',  ( 0.0000000000000000000, 0.0000000000000000000, 1.125000000000000222 ) ) ;
#250 = EDGE_LOOP ( 'NONE', ( #272, #337, #188, #44 ) ) ;
#251 = EDGE_CURVE ( 'NONE', #34, #53, #67, .T. ) ;
#252 = FACE_OUTER_BOUND ( 'NONE', #13, .T. ) ;
#253 = PRODUCT_CONTEXT ( 'NONE', #317, 'mechanical' ) ;
#254 = CYLINDRICAL_SURFACE ( 'NONE', #172, 0.1875000000000000278 ) ;
#255 = LENGTH_MEASURE_WITH_UNIT ( LENGTH_MEASURE( 0.02539999999999999897 ), #73 );
#256 = STYLED_ITEM ( 'NONE', ( #309 ), #80 ) ;
#257 = DIRECTION ( 'NONE',  ( -1.000000000000000000, 0.0000000000000000000, 0.0000000000000000000 ) ) ;
#258 = AXIS2_PLACEMENT_3D ( 'NONE', #66, #205, #177 ) ;
#259 = CARTESIAN_POINT ( 'NONE',  ( 0.0000000000000000000, 0.0000000000000000000, 2.484999999999999432 ) ) ;
#260 = AXIS2_PLACEMENT_3D ( 'NONE', #43, #363, #10 ) ;
#261 = LINE ( 'NONE', #93, #359 ) ;
#262 = EDGE_CURVE ( 'NONE', #101, #331, #117, .T. ) ;
#263 = ORIENTED_EDGE ( 'NONE', *, *, #316, .F. ) ;
#264 = CARTESIAN_POINT ( 'NONE',  ( 0.09500000000000015377, 0.0000000000000000000, 1.125000000000000222 ) ) ;
#265 = VERTEX_POINT ( 'NONE', #32 ) ;
#266 = LINE ( 'NONE', #30, #209 ) ;
#267 = VERTEX_POINT ( 'NONE', #150 ) ;
#268 = AXIS2_PLACEMENT_3D ( 'NONE', #335, #240, #273 ) ;
#269 = AXIS2_PLACEMENT_3D ( 'NONE', #60, #174, #290 ) ;
#270 = EDGE_CURVE ( 'NONE', #245, #140, #261, .T. ) ;
#271 = DIRECTION ( 'NONE',  ( 1.000000000000000000, 0.0000000000000000000, 0.0000000000000000000 ) ) ;
#272 = ORIENTED_EDGE ( 'NONE', *, *, #120, .T. ) ;
#273 = DIRECTION ( 'NONE',  ( 1.000000000000000000, 0.0000000000000000000, -0.0000000000000000000 ) ) ;
#274 = EDGE_LOOP ( 'NONE', ( #362, #323, #213, #168 ) ) ;
#275 = STYLED_ITEM ( 'NONE', ( #102 ), #37 ) ;
#276 = DIRECTION ( 'NONE',  ( 1.000000000000000000, 0.0000000000000000000, 0.0000000000000000000 ) ) ;
#277 = SURFACE_STYLE_USAGE ( .BOTH. , #49 ) ;
#278 = DIRECTION ( 'NONE',  ( 0.0000000000000000000, 0.0000000000000000000, 1.000000000000000000 ) ) ;
#279 = UNCERTAINTY_MEASURE_WITH_UNIT (LENGTH_MEASURE( 1.000000000000000082E-05 ), #142, 'distance_accuracy_value', 'NONE');
#280 = LINE ( 'NONE', #15, #360 ) ;
#281 = EDGE_CURVE ( 'NONE', #267, #21, #183, .T. ) ;
#282 = CONICAL_SURFACE ( 'NONE', #212, 0.09500000000000015377, 0.7853981633974502774 ) ;
#283 = EDGE_LOOP ( 'NONE', ( #11, #196, #74, #79 ) ) ;
#284 =( NAMED_UNIT ( * ) PLANE_ANGLE_UNIT ( ) SI_UNIT ( $, .RADIAN. ) );
#285 = CYLINDRICAL_SURFACE ( 'NONE', #236, 0.1875000000000000278 ) ;
#286 = DIRECTION ( 'NONE',  ( 1.000000000000000000, 0.0000000000000000000, 0.0000000000000000000 ) ) ;
#287 =( NAMED_UNIT ( * ) PLANE_ANGLE_UNIT ( ) SI_UNIT ( $, .RADIAN. ) );
#288 = DIRECTION ( 'NONE',  ( 1.000000000000000000, 0.0000000000000000000, 0.0000000000000000000 ) ) ;
#289 = ADVANCED_FACE ( 'NONE', ( #292 ), #348, .T. ) ;
#290 = DIRECTION ( 'NONE',  ( 1.000000000000000000, 0.0000000000000000000, 0.0000000000000000000 ) ) ;
#291 = DIRECTION ( 'NONE',  ( -1.000000000000000000, 0.0000000000000000000, 0.0000000000000000000 ) ) ;
#292 = FACE_OUTER_BOUND ( 'NONE', #274, .T. ) ;
#293 = PRODUCT_RELATED_PRODUCT_CATEGORY ( 'part', '', ( #349 ) ) ;
#294 = CARTESIAN_POINT ( 'NONE',  ( 0.1875000000000000278, 2.296212748401287726E-17, 0.0000000000000000000 ) ) ;
#295 = PLANE ( 'NONE',  #268 ) ;
#296 = DIRECTION ( 'NONE',  ( -1.000000000000000000, 0.0000000000000000000, 0.0000000000000000000 ) ) ;
#297 = VERTEX_POINT ( 'NONE', #299 ) ;
#298 = EDGE_CURVE ( 'NONE', #69, #245, #164, .T. ) ;
#299 = CARTESIAN_POINT ( 'NONE',  ( 0.1724999999999995981, 2.204364238465233357E-17, 2.500000000000000000 ) ) ;
#300 = CARTESIAN_POINT ( 'NONE',  ( 0.1875000000000000278, 2.296212748401287726E-17, 1.217499999999999583 ) ) ;
#301 = AXIS2_PLACEMENT_3D ( 'NONE', #189, #160, #276 ) ;
#302 = AXIS2_PLACEMENT_3D ( 'NONE', #208, #319, #233 ) ;
#303 = SURFACE_STYLE_FILL_AREA ( #190 ) ;
#304 = VECTOR ( 'NONE', #339, 39.37007874015748143 ) ;
#305 = DIRECTION ( 'NONE',  ( 1.000000000000000000, 0.0000000000000000000, 0.0000000000000000000 ) ) ;
#306 = ORIENTED_EDGE ( 'NONE', *, *, #281, .T. ) ;
#307 = ORIENTED_EDGE ( 'NONE', *, *, #192, .T. ) ;
#308 =( GEOMETRIC_REPRESENTATION_CONTEXT ( 3 ) GLOBAL_UNCERTAINTY_ASSIGNED_CONTEXT ( ( #333 ) ) GLOBAL_UNIT_ASSIGNED_CONTEXT ( ( #114, #287, #57 ) ) REPRESENTATION_CONTEXT ( 'NONE', 'WORKASPACE' ) );
#309 = PRESENTATION_STYLE_ASSIGNMENT (( #230 ) ) ;
#310 = DIRECTION ( 'NONE',  ( 0.0000000000000000000, 0.0000000000000000000, -1.000000000000000000 ) ) ;
#311 = DIRECTION ( 'NONE',  ( 0.0000000000000000000, 0.0000000000000000000, 1.000000000000000000 ) ) ;
#312 = CARTESIAN_POINT ( 'NONE',  ( 0.0000000000000000000, 0.0000000000000000000, 2.500000000000000000 ) ) ;
#313 = COLOUR_RGB ( '',0.7921568627450980005, 0.8196078431372548767, 0.9333333333333333481 ) ;
#314 = FACE_OUTER_BOUND ( 'NONE', #4, .T. ) ;
#315 =( NAMED_UNIT ( * ) SI_UNIT ( $, .STERADIAN. ) SOLID_ANGLE_UNIT ( ) );
#316 = EDGE_CURVE ( 'NONE', #265, #53, #25, .T. ) ;
#317 = APPLICATION_CONTEXT ( 'automotive_design' ) ;
#318 = CARTESIAN_POINT ( 'NONE',  ( 0.1875000000000000278, 0.0000000000000000000, 0.1869999999999999996 ) ) ;
#319 = DIRECTION ( 'NONE',  ( -0.0000000000000000000, -0.0000000000000000000, -1.000000000000000000 ) ) ;
#320 = VECTOR ( 'NONE', #108, 39.37007874015748143 ) ;
#321 = CIRCLE ( 'NONE', #374, 0.1875000000000000278 ) ;
#322 = CYLINDRICAL_SURFACE ( 'NONE', #367, 0.09500000000000008438 ) ;
#323 = ORIENTED_EDGE ( 'NONE', *, *, #22, .T. ) ;
#324 = DIRECTION ( 'NONE',  ( -0.0000000000000000000, -0.0000000000000000000, -1.000000000000000000 ) ) ;
#325 = DIRECTION ( 'NONE',  ( 0.0000000000000000000, 0.0000000000000000000, 1.000000000000000000 ) ) ;
#326 = AXIS2_PLACEMENT_3D ( 'NONE', #318, #6, #148 ) ;
#327 = ORIENTED_EDGE ( 'NONE', *, *, #200, .T. ) ;
#328 = UNCERTAINTY_MEASURE_WITH_UNIT (LENGTH_MEASURE( 1.000000000000000082E-05 ), #356, 'distance_accuracy_value', 'NONE');
#329 = ADVANCED_FACE ( 'NONE', ( #330 ), #282, .T. ) ;
#330 = FACE_OUTER_BOUND ( 'NONE', #17, .T. ) ;
#331 = VERTEX_POINT ( 'NONE', #218 ) ;
#332 = ORIENTED_EDGE ( 'NONE', *, *, #262, .F. ) ;
#333 = UNCERTAINTY_MEASURE_WITH_UNIT (LENGTH_MEASURE( 1.000000000000000082E-05 ), #114, 'distance_accuracy_value', 'NONE');
#334 = CIRCLE ( 'NONE', #90, 0.1875000000000000278 ) ;
#335 = CARTESIAN_POINT ( 'NONE',  ( 0.0000000000000000000, 0.0000000000000000000, 0.0000000000000000000 ) ) ;
#336 = FACE_OUTER_BOUND ( 'NONE', #42, .T. ) ;
#337 = ORIENTED_EDGE ( 'NONE', *, *, #169, .T. ) ;
#338 = DIRECTION ( 'NONE',  ( -0.0000000000000000000, -0.0000000000000000000, -1.000000000000000000 ) ) ;
#339 = DIRECTION ( 'NONE',  ( -0.7071067811865489050, 8.659560562354950115E-17, 0.7071067811865461294 ) ) ;
#340 = FACE_OUTER_BOUND ( 'NONE', #106, .T. ) ;
#341 = EDGE_CURVE ( 'NONE', #184, #165, #198, .T. ) ;
#342 = CARTESIAN_POINT ( 'NONE',  ( 0.0000000000000000000, 0.0000000000000000000, 1.125000000000000222 ) ) ;
#343 = SHAPE_DEFINITION_REPRESENTATION ( #51, #37 ) ;
#344 = AXIS2_PLACEMENT_3D ( 'NONE', #342, #375, #202 ) ;
#345 =( LENGTH_UNIT ( ) NAMED_UNIT ( * ) SI_UNIT ( $, .METRE. ) );
#346 = ADVANCED_FACE ( 'NONE', ( #368 ), #247, .T. ) ;
#347 = PLANE ( 'NONE',  #103 ) ;
#348 = CYLINDRICAL_SURFACE ( 'NONE', #302, 0.1875000000000000278 ) ;
#349 = PRODUCT ( 'Micro_KC-375-1125-187X', 'Micro_KC-375-1125-187X', '', ( #253 ) ) ;
#350 = DIRECTION ( 'NONE',  ( -1.000000000000000000, 0.0000000000000000000, 0.0000000000000000000 ) ) ;
#351 = CIRCLE ( 'NONE', #47, 0.1875000000000000278 ) ;
#352 = VECTOR ( 'NONE', #55, 39.37007874015748854 ) ;
#353 = CARTESIAN_POINT ( 'NONE',  ( 0.0000000000000000000, 0.0000000000000000000, 1.217499999999999583 ) ) ;
#354 = FACE_OUTER_BOUND ( 'NONE', #250, .T. ) ;
#355 = ORIENTED_EDGE ( 'NONE', *, *, #200, .F. ) ;
#356 =( CONVERSION_BASED_UNIT ( 'INCH', #157 ) LENGTH_UNIT ( ) NAMED_UNIT ( #370 ) );
#357 = ORIENTED_EDGE ( 'NONE', *, *, #135, .T. ) ;
#358 = EDGE_CURVE ( 'NONE', #331, #101, #145, .T. ) ;
#359 = VECTOR ( 'NONE', #1, 39.37007874015748143 ) ;
#360 = VECTOR ( 'NONE', #137, 39.37007874015748143 ) ;
#361 =( NAMED_UNIT ( * ) SI_UNIT ( $, .STERADIAN. ) SOLID_ANGLE_UNIT ( ) );
#362 = ORIENTED_EDGE ( 'NONE', *, *, #262, .T. ) ;
#363 = DIRECTION ( 'NONE',  ( 0.0000000000000000000, 0.0000000000000000000, 1.000000000000000000 ) ) ;
#364 = ORIENTED_EDGE ( 'NONE', *, *, #94, .F. ) ;
#365 = DIRECTION ( 'NONE',  ( -1.000000000000000000, 0.0000000000000000000, 0.0000000000000000000 ) ) ;
#366 = ORIENTED_EDGE ( 'NONE', *, *, #207, .F. ) ;
#367 = AXIS2_PLACEMENT_3D ( 'NONE', #131, #125, #350 ) ;
#368 = FACE_OUTER_BOUND ( 'NONE', #234, .T. ) ;
#369 = ORIENTED_EDGE ( 'NONE', *, *, #9, .F. ) ;
#370 = DIMENSIONAL_EXPONENTS ( 1.000000000000000000, 0.0000000000000000000, 0.0000000000000000000, 0.0000000000000000000, 0.0000000000000000000, 0.0000000000000000000, 0.0000000000000000000 ) ;
#371 = LINE ( 'NONE', #227, #352 ) ;
#372 = ADVANCED_FACE ( 'NONE', ( #111 ), #180, .T. ) ;
#373 = CARTESIAN_POINT ( 'NONE',  ( -0.09500000000000015377, 1.729813603795637505E-17, 1.125000000000000222 ) ) ;
#374 = AXIS2_PLACEMENT_3D ( 'NONE', #259, #124, #155 ) ;
#375 = DIRECTION ( 'NONE',  ( -0.0000000000000000000, -0.0000000000000000000, -1.000000000000000000 ) ) ;
#376 = ADVANCED_FACE ( 'NONE', ( #336 ), #295, .F. ) ;
#377 = AXIS2_PLACEMENT_3D ( 'NONE', #353, #324, #40 ) ;
#378 = DIRECTION ( 'NONE',  ( -0.0000000000000000000, -0.0000000000000000000, -1.000000000000000000 ) ) ;
#379 = APPLICATION_CONTEXT ( 'automotive_design' ) ;
ENDSEC;
END-ISO-10303-21;
