ISO-10303-21;
HEADER;
FILE_DESCRIPTION (( 'STEP AP214' ),
    '1' );
FILE_NAME ('Micro_BMR-025-2X.STEP',
    '2021-09-03T13:57:36',
    ( '' ),
    ( '' ),
    'SwSTEP 2.0',
    'SolidWorks 2020',
    '' );
FILE_SCHEMA (( 'AUTOMOTIVE_DESIGN' ));
ENDSEC;

DATA;
#1 = DIRECTION ( 'NONE',  ( 0.0000000000000000000, 0.0000000000000000000, -1.000000000000000000 ) ) ;
#2 = DIRECTION ( 'NONE',  ( 1.000000000000000000, 0.0000000000000000000, -0.0000000000000000000 ) ) ;
#3 = ADVANCED_FACE ( 'NONE', ( #200 ), #273, .T. ) ;
#4 = AXIS2_PLACEMENT_3D ( 'NONE', #45, #48, #136 ) ;
#5 = LINE ( 'NONE', #185, #214 ) ;
#6 = CARTESIAN_POINT ( 'NONE',  ( -0.04750000000000064587, 0.0000000000000000000, 1.500000000000000222 ) ) ;
#7 = ADVANCED_FACE ( 'NONE', ( #74 ), #206, .T. ) ;
#8 = VERTEX_POINT ( 'NONE', #44 ) ;
#9 = FILL_AREA_STYLE ('',( #211 ) ) ;
#10 = DIRECTION ( 'NONE',  ( -1.000000000000000000, 0.0000000000000000000, 1.224646799147353454E-16 ) ) ;
#11 = ORIENTED_EDGE ( 'NONE', *, *, #50, .T. ) ;
#12 = CARTESIAN_POINT ( 'NONE',  ( 0.01248750000000000207, 1.529277690435257475E-18, 0.01248749999999999860 ) ) ;
#13 = EDGE_CURVE ( 'NONE', #226, #311, #97, .T. ) ;
#14 = CARTESIAN_POINT ( 'NONE',  ( 0.01248750000000000901, 0.0000000000000000000, 0.07499999999999999722 ) ) ;
#15 = VERTEX_POINT ( 'NONE', #228 ) ;
#16 = DIMENSIONAL_EXPONENTS ( 1.000000000000000000, 0.0000000000000000000, 0.0000000000000000000, 0.0000000000000000000, 0.0000000000000000000, 0.0000000000000000000, 0.0000000000000000000 ) ;
#17 = EDGE_LOOP ( 'NONE', ( #286, #167, #144, #69 ) ) ;
#18 = FACE_OUTER_BOUND ( 'NONE', #307, .T. ) ;
#19 = DIRECTION ( 'NONE',  ( 0.0000000000000000000, 0.0000000000000000000, -1.000000000000000000 ) ) ;
#20 = SURFACE_SIDE_STYLE ('',( #323 ) ) ;
#21 = CARTESIAN_POINT ( 'NONE',  ( -0.06249999999999997918, 0.0000000000000000000, 0.3586349820036292546 ) ) ;
#22 = LINE ( 'NONE', #91, #102 ) ;
#23 = CARTESIAN_POINT ( 'NONE',  ( 0.0000000000000000000, 0.0000000000000000000, 1.500000000000000222 ) ) ;
#24 = AXIS2_PLACEMENT_3D ( 'NONE', #324, #196, #29 ) ;
#25 = CARTESIAN_POINT ( 'NONE',  ( 0.0000000000000000000, 0.0000000000000000000, 1.500000000000000222 ) ) ;
#26 = DIRECTION ( 'NONE',  ( -1.224646799147353454E-16, -0.0000000000000000000, -1.000000000000000000 ) ) ;
#27 = PRODUCT_DEFINITION_SHAPE ( 'NONE', 'NONE',  #279 ) ;
#28 = ADVANCED_FACE ( 'NONE', ( #225 ), #195, .T. ) ;
#29 = DIRECTION ( 'NONE',  ( 1.000000000000000000, 0.0000000000000000000, 0.0000000000000000000 ) ) ;
#30 = ADVANCED_FACE ( 'NONE', ( #18 ), #250, .T. ) ;
#31 =( NAMED_UNIT ( * ) PLANE_ANGLE_UNIT ( ) SI_UNIT ( $, .RADIAN. ) );
#32 = SURFACE_SIDE_STYLE ('',( #122 ) ) ;
#33 = DIRECTION ( 'NONE',  ( -1.000000000000000000, 1.224646799147353207E-16, 0.0000000000000000000 ) ) ;
#34 = CONICAL_SURFACE ( 'NONE', #4, 0.01248750000000000034, 0.1745329251994338915 ) ;
#35 = CARTESIAN_POINT ( 'NONE',  ( 1.529277690435257668E-18, 0.0000000000000000000, 0.01248750000000000034 ) ) ;
#36 = ORIENTED_EDGE ( 'NONE', *, *, #64, .T. ) ;
#37 = EDGE_LOOP ( 'NONE', ( #83, #297, #291, #217 ) ) ;
#38 = EDGE_CURVE ( 'NONE', #320, #63, #150, .T. ) ;
#39 = DIRECTION ( 'NONE',  ( 1.000000000000000000, 0.0000000000000000000, 0.0000000000000000000 ) ) ;
#40 = CARTESIAN_POINT ( 'NONE',  ( 4.392011827730132361E-17, 0.0000000000000000000, 0.3586349820036292546 ) ) ;
#41 = EDGE_CURVE ( 'NONE', #146, #311, #158, .T. ) ;
#42 = DIRECTION ( 'NONE',  ( 0.0000000000000000000, 0.0000000000000000000, -1.000000000000000000 ) ) ;
#43 = VECTOR ( 'NONE', #125, 39.37007874015748854 ) ;
#44 = CARTESIAN_POINT ( 'NONE',  ( 2.293916535652886598E-18, 0.0000000000000000000, 0.0000000000000000000 ) ) ;
#45 = CARTESIAN_POINT ( 'NONE',  ( 9.184850993605148746E-18, 0.0000000000000000000, 0.07499999999999999722 ) ) ;
#46 = FACE_OUTER_BOUND ( 'NONE', #166, .T. ) ;
#47 = APPLICATION_CONTEXT ( 'automotive_design' ) ;
#48 = DIRECTION ( 'NONE',  ( 1.224646799147353454E-16, 0.0000000000000000000, 1.000000000000000000 ) ) ;
#49 = DIRECTION ( 'NONE',  ( -1.000000000000000000, 0.0000000000000000000, 0.0000000000000000000 ) ) ;
#50 = EDGE_CURVE ( 'NONE', #123, #240, #189, .T. ) ;
#51 = AXIS2_PLACEMENT_3D ( 'NONE', #247, #19, #270 ) ;
#52 = FACE_OUTER_BOUND ( 'NONE', #215, .T. ) ;
#53 =( NAMED_UNIT ( * ) PLANE_ANGLE_UNIT ( ) SI_UNIT ( $, .RADIAN. ) );
#54 = CIRCLE ( 'NONE', #80, 0.04750000000000064587 ) ;
#55 = CARTESIAN_POINT ( 'NONE',  ( 1.529277690435257668E-18, 0.0000000000000000000, 0.01248750000000000034 ) ) ;
#56 = ADVANCED_FACE ( 'NONE', ( #46 ), #62, .T. ) ;
#57 = AXIS2_PLACEMENT_3D ( 'NONE', #81, #109, #298 ) ;
#58 = UNCERTAINTY_MEASURE_WITH_UNIT (LENGTH_MEASURE( 1.000000000000000082E-05 ), #187, 'distance_accuracy_value', 'NONE');
#59 = AXIS2_PLACEMENT_3D ( 'NONE', #35, #229, #1 ) ;
#60 = ORIENTED_EDGE ( 'NONE', *, *, #131, .F. ) ;
#61 = ORIENTED_EDGE ( 'NONE', *, *, #182, .T. ) ;
#62 = SPHERICAL_SURFACE ( 'NONE', #124, 0.01248750000000000034 ) ;
#63 = VERTEX_POINT ( 'NONE', #21 ) ;
#64 = EDGE_CURVE ( 'NONE', #8, #146, #113, .T. ) ;
#65 = ORIENTED_EDGE ( 'NONE', *, *, #41, .T. ) ;
#66 = AXIS2_PLACEMENT_3D ( 'NONE', #156, #248, #321 ) ;
#67 = CARTESIAN_POINT ( 'NONE',  ( 0.0000000000000000000, 0.0000000000000000000, 0.0000000000000000000 ) ) ;
#68 = CARTESIAN_POINT ( 'NONE',  ( -0.01248749999999999166, 4.591660092553109051E-18, 0.07499999999999999722 ) ) ;
#69 = ORIENTED_EDGE ( 'NONE', *, *, #38, .F. ) ;
#70 = ADVANCED_FACE ( 'NONE', ( #114 ), #304, .T. ) ;
#71 = ORIENTED_EDGE ( 'NONE', *, *, #116, .F. ) ;
#72 = ORIENTED_EDGE ( 'NONE', *, *, #180, .T. ) ;
#73 = CARTESIAN_POINT ( 'NONE',  ( 1.529277690435257668E-18, 0.0000000000000000000, 0.01248750000000000034 ) ) ;
#74 = FACE_OUTER_BOUND ( 'NONE', #86, .T. ) ;
#75 = EDGE_CURVE ( 'NONE', #240, #320, #22, .T. ) ;
#76 = LENGTH_MEASURE_WITH_UNIT ( LENGTH_MEASURE( 0.02539999999999999897 ), #205 );
#77 = PRODUCT ( 'Micro_BMR-025-2X', 'Micro_BMR-025-2X', '', ( #137 ) ) ;
#78 = AXIS2_PLACEMENT_3D ( 'NONE', #73, #177, #154 ) ;
#79 = SPHERICAL_SURFACE ( 'NONE', #159, 0.01248750000000000034 ) ;
#80 = AXIS2_PLACEMENT_3D ( 'NONE', #142, #310, #111 ) ;
#81 = CARTESIAN_POINT ( 'NONE',  ( 9.184850993605148746E-18, 0.0000000000000000000, 0.07499999999999999722 ) ) ;
#82 = CIRCLE ( 'NONE', #140, 0.06250000000000002776 ) ;
#83 = ORIENTED_EDGE ( 'NONE', *, *, #295, .F. ) ;
#84 = FACE_OUTER_BOUND ( 'NONE', #257, .T. ) ;
#85 =( GEOMETRIC_REPRESENTATION_CONTEXT ( 3 ) GLOBAL_UNCERTAINTY_ASSIGNED_CONTEXT ( ( #118 ) ) GLOBAL_UNIT_ASSIGNED_CONTEXT ( ( #176, #53, #129 ) ) REPRESENTATION_CONTEXT ( 'NONE', 'WORKASPACE' ) );
#86 = EDGE_LOOP ( 'NONE', ( #191, #210, #72, #60 ) ) ;
#87 = DIRECTION ( 'NONE',  ( -1.000000000000000000, 0.0000000000000000000, 1.709114110150314860E-16 ) ) ;
#88 = SURFACE_STYLE_USAGE ( .BOTH. , #32 ) ;
#89 = ORIENTED_EDGE ( 'NONE', *, *, #75, .T. ) ;
#90 = CARTESIAN_POINT ( 'NONE',  ( 0.01248750000000000901, 0.0000000000000000000, 0.07499999999999999722 ) ) ;
#91 = CARTESIAN_POINT ( 'NONE',  ( 0.06250000000000002776, 7.654042494670959086E-18, 1.500000000000000222 ) ) ;
#92 = ORIENTED_EDGE ( 'NONE', *, *, #106, .T. ) ;
#93 = CYLINDRICAL_SURFACE ( 'NONE', #303, 0.01248750000000000034 ) ;
#94 = VECTOR ( 'NONE', #239, 39.37007874015748143 ) ;
#95 = AXIS2_PLACEMENT_3D ( 'NONE', #23, #134, #2 ) ;
#96 = LINE ( 'NONE', #100, #238 ) ;
#97 = LINE ( 'NONE', #322, #170 ) ;
#98 = DIRECTION ( 'NONE',  ( 1.224646799147353454E-16, 0.0000000000000000000, 1.000000000000000000 ) ) ;
#99 = ORIENTED_EDGE ( 'NONE', *, *, #38, .T. ) ;
#100 = CARTESIAN_POINT ( 'NONE',  ( 0.01248750000000000034, 1.529277690435257475E-18, -1.529277690435257668E-18 ) ) ;
#101 = ORIENTED_EDGE ( 'NONE', *, *, #271, .T. ) ;
#102 = VECTOR ( 'NONE', #168, 39.37007874015748143 ) ;
#103 = STYLED_ITEM ( 'NONE', ( #255 ), #233 ) ;
#104 =( LENGTH_UNIT ( ) NAMED_UNIT ( * ) SI_UNIT ( $, .METRE. ) );
#105 = DIRECTION ( 'NONE',  ( 0.0000000000000000000, 0.0000000000000000000, -1.000000000000000000 ) ) ;
#106 = EDGE_CURVE ( 'NONE', #226, #63, #5, .T. ) ;
#107 = ORIENTED_EDGE ( 'NONE', *, *, #260, .F. ) ;
#108 = DIRECTION ( 'NONE',  ( 0.0000000000000000000, 1.000000000000000000, 0.0000000000000000000 ) ) ;
#109 = DIRECTION ( 'NONE',  ( -1.224646799147353454E-16, -0.0000000000000000000, -1.000000000000000000 ) ) ;
#110 = FILL_AREA_STYLE ('',( #202 ) ) ;
#111 = DIRECTION ( 'NONE',  ( 1.000000000000000000, 0.0000000000000000000, 0.0000000000000000000 ) ) ;
#112 = MECHANICAL_DESIGN_GEOMETRIC_PRESENTATION_REPRESENTATION (  '', ( #164 ), #264 ) ;
#113 = CIRCLE ( 'NONE', #59, 0.01248750000000000034 ) ;
#114 = FACE_OUTER_BOUND ( 'NONE', #169, .T. ) ;
#115 = PLANE ( 'NONE',  #95 ) ;
#116 = EDGE_CURVE ( 'NONE', #123, #63, #284, .T. ) ;
#117 = CARTESIAN_POINT ( 'NONE',  ( 0.0000000000000000000, 0.0000000000000000000, 1.485000000000000764 ) ) ;
#118 = UNCERTAINTY_MEASURE_WITH_UNIT (LENGTH_MEASURE( 1.000000000000000082E-05 ), #176, 'distance_accuracy_value', 'NONE');
#119 = ORIENTED_EDGE ( 'NONE', *, *, #106, .F. ) ;
#120 = LINE ( 'NONE', #90, #252 ) ;
#121 = ORIENTED_EDGE ( 'NONE', *, *, #139, .T. ) ;
#122 = SURFACE_STYLE_FILL_AREA ( #9 ) ;
#123 = VERTEX_POINT ( 'NONE', #261 ) ;
#124 = AXIS2_PLACEMENT_3D ( 'NONE', #219, #108, #201 ) ;
#125 = DIRECTION ( 'NONE',  ( 0.7071067811865462405, 8.659560562354916834E-17, -0.7071067811865486830 ) ) ;
#126 = COLOUR_RGB ( '',0.7921568627450980005, 0.8196078431372548767, 0.9333333333333333481 ) ;
#127 = LINE ( 'NONE', #223, #43 ) ;
#128 = DIRECTION ( 'NONE',  ( -1.224646799147353454E-16, -0.0000000000000000000, -1.000000000000000000 ) ) ;
#129 =( NAMED_UNIT ( * ) SI_UNIT ( $, .STERADIAN. ) SOLID_ANGLE_UNIT ( ) );
#130 = VERTEX_POINT ( 'NONE', #14 ) ;
#131 = EDGE_CURVE ( 'NONE', #240, #123, #275, .T. ) ;
#132 = DIRECTION ( 'NONE',  ( -1.224646799147353454E-16, -0.0000000000000000000, -1.000000000000000000 ) ) ;
#133 = CIRCLE ( 'NONE', #183, 0.01248750000000000034 ) ;
#134 = DIRECTION ( 'NONE',  ( 0.0000000000000000000, 0.0000000000000000000, 1.000000000000000000 ) ) ;
#135 = DIRECTION ( 'NONE',  ( 1.000000000000000000, 0.0000000000000000000, 0.0000000000000000000 ) ) ;
#136 = DIRECTION ( 'NONE',  ( 1.000000000000000000, 0.0000000000000000000, 0.0000000000000000000 ) ) ;
#137 = PRODUCT_CONTEXT ( 'NONE', #47, 'mechanical' ) ;
#138 = MANIFOLD_SOLID_BREP ( 'Fillet1', #289 ) ;
#139 = EDGE_CURVE ( 'NONE', #130, #320, #120, .T. ) ;
#140 = AXIS2_PLACEMENT_3D ( 'NONE', #40, #203, #300 ) ;
#141 = LINE ( 'NONE', #6, #165 ) ;
#142 = CARTESIAN_POINT ( 'NONE',  ( 0.0000000000000000000, 0.0000000000000000000, 1.500000000000000222 ) ) ;
#143 = FACE_OUTER_BOUND ( 'NONE', #316, .T. ) ;
#144 = ORIENTED_EDGE ( 'NONE', *, *, #116, .T. ) ;
#145 = DIRECTION ( 'NONE',  ( 0.0000000000000000000, 0.0000000000000000000, -1.000000000000000000 ) ) ;
#146 = VERTEX_POINT ( 'NONE', #12 ) ;
#147 = ORIENTED_EDGE ( 'NONE', *, *, #207, .T. ) ;
#148 = ORIENTED_EDGE ( 'NONE', *, *, #260, .T. ) ;
#149 = CARTESIAN_POINT ( 'NONE',  ( 1.529277690435257668E-18, 0.0000000000000000000, 0.01248750000000000034 ) ) ;
#150 = CIRCLE ( 'NONE', #162, 0.06250000000000002776 ) ;
#151 = ORIENTED_EDGE ( 'NONE', *, *, #207, .F. ) ;
#152 = AXIS2_PLACEMENT_3D ( 'NONE', #253, #26, #204 ) ;
#153 = CARTESIAN_POINT ( 'NONE',  ( 0.06250000000000006939, 7.654042494670963708E-18, 0.3586349820036292546 ) ) ;
#154 = DIRECTION ( 'NONE',  ( -1.000000000000000000, 0.0000000000000000000, 1.709114110150314860E-16 ) ) ;
#155 = ADVANCED_FACE ( 'NONE', ( #84 ), #93, .T. ) ;
#156 = CARTESIAN_POINT ( 'NONE',  ( 0.0000000000000000000, 0.0000000000000000000, 0.0000000000000000000 ) ) ;
#157 = DIRECTION ( 'NONE',  ( -1.000000000000000000, 0.0000000000000000000, 0.0000000000000000000 ) ) ;
#158 = CIRCLE ( 'NONE', #78, 0.01248750000000000034 ) ;
#159 = AXIS2_PLACEMENT_3D ( 'NONE', #55, #290, #160 ) ;
#160 = DIRECTION ( 'NONE',  ( 1.000000000000000000, 0.0000000000000000000, 0.0000000000000000000 ) ) ;
#161 =( NAMED_UNIT ( * ) PLANE_ANGLE_UNIT ( ) SI_UNIT ( $, .RADIAN. ) );
#162 = AXIS2_PLACEMENT_3D ( 'NONE', #224, #317, #269 ) ;
#163 = EDGE_CURVE ( 'NONE', #8, #311, #172, .T. ) ;
#164 = STYLED_ITEM ( 'NONE', ( #234 ), #138 ) ;
#165 = VECTOR ( 'NONE', #274, 39.37007874015748854 ) ;
#166 = EDGE_LOOP ( 'NONE', ( #237, #36, #288 ) ) ;
#167 = ORIENTED_EDGE ( 'NONE', *, *, #131, .T. ) ;
#168 = DIRECTION ( 'NONE',  ( -0.0000000000000000000, -0.0000000000000000000, -1.000000000000000000 ) ) ;
#169 = EDGE_LOOP ( 'NONE', ( #11, #89, #218, #71 ) ) ;
#170 = VECTOR ( 'NONE', #132, 39.37007874015748143 ) ;
#171 = DIRECTION ( 'NONE',  ( -0.1736481776669311916, 2.126576849575783316E-17, 0.9848077530122080203 ) ) ;
#172 = CIRCLE ( 'NONE', #198, 0.01248750000000000034 ) ;
#173 = DIRECTION ( 'NONE',  ( -1.000000000000000000, 0.0000000000000000000, 1.224646799147353454E-16 ) ) ;
#174 = FACE_OUTER_BOUND ( 'NONE', #186, .T. ) ;
#175 = ORIENTED_EDGE ( 'NONE', *, *, #182, .F. ) ;
#176 =( CONVERSION_BASED_UNIT ( 'INCH', #76 ) LENGTH_UNIT ( ) NAMED_UNIT ( #281 ) );
#177 = DIRECTION ( 'NONE',  ( 1.224646799147353454E-16, 0.0000000000000000000, 1.000000000000000000 ) ) ;
#178 = CARTESIAN_POINT ( 'NONE',  ( 9.184850993605148746E-18, 0.0000000000000000000, 0.07499999999999999722 ) ) ;
#179 = PRESENTATION_LAYER_ASSIGNMENT (  '', '', ( #103 ) ) ;
#180 = EDGE_CURVE ( 'NONE', #15, #123, #141, .T. ) ;
#181 = CARTESIAN_POINT ( 'NONE',  ( 0.0000000000000000000, 0.0000000000000000000, 1.500000000000000222 ) ) ;
#182 = EDGE_CURVE ( 'NONE', #130, #226, #190, .T. ) ;
#183 = AXIS2_PLACEMENT_3D ( 'NONE', #149, #98, #87 ) ;
#184 = CARTESIAN_POINT ( 'NONE',  ( 1.529277690435257668E-18, 0.0000000000000000000, 0.01248750000000000034 ) ) ;
#185 = CARTESIAN_POINT ( 'NONE',  ( -0.01248749999999999166, 1.529277690435257475E-18, 0.07499999999999999722 ) ) ;
#186 = EDGE_LOOP ( 'NONE', ( #119, #175, #121, #99 ) ) ;
#187 =( CONVERSION_BASED_UNIT ( 'INCH', #305 ) LENGTH_UNIT ( ) NAMED_UNIT ( #258 ) );
#188 = ADVANCED_FACE ( 'NONE', ( #52 ), #115, .T. ) ;
#189 = CIRCLE ( 'NONE', #51, 0.06250000000000002776 ) ;
#190 = CIRCLE ( 'NONE', #57, 0.01248750000000000034 ) ;
#191 = ORIENTED_EDGE ( 'NONE', *, *, #266, .F. ) ;
#192 = DIRECTION ( 'NONE',  ( -1.224646799147353454E-16, -0.0000000000000000000, -1.000000000000000000 ) ) ;
#193 = ORIENTED_EDGE ( 'NONE', *, *, #295, .T. ) ;
#194 = PRODUCT_RELATED_PRODUCT_CATEGORY ( 'part', '', ( #77 ) ) ;
#195 = CYLINDRICAL_SURFACE ( 'NONE', #208, 0.06250000000000002776 ) ;
#196 = DIRECTION ( 'NONE',  ( 0.0000000000000000000, 0.0000000000000000000, 1.000000000000000000 ) ) ;
#197 = ORIENTED_EDGE ( 'NONE', *, *, #216, .T. ) ;
#198 = AXIS2_PLACEMENT_3D ( 'NONE', #184, #280, #33 ) ;
#199 = CARTESIAN_POINT ( 'NONE',  ( -0.01248749999999999860, 0.0000000000000000000, 0.01248750000000000207 ) ) ;
#200 = FACE_OUTER_BOUND ( 'NONE', #221, .T. ) ;
#201 = DIRECTION ( 'NONE',  ( 1.000000000000000000, 0.0000000000000000000, 0.0000000000000000000 ) ) ;
#202 = FILL_AREA_STYLE_COLOUR ( '', #126 ) ;
#203 = DIRECTION ( 'NONE',  ( -1.224646799147353454E-16, -0.0000000000000000000, -1.000000000000000000 ) ) ;
#204 = DIRECTION ( 'NONE',  ( -1.000000000000000000, 0.0000000000000000000, 0.0000000000000000000 ) ) ;
#205 =( LENGTH_UNIT ( ) NAMED_UNIT ( * ) SI_UNIT ( $, .METRE. ) );
#206 = CONICAL_SURFACE ( 'NONE', #292, 0.04750000000000064587, 0.7853981633974466137 ) ;
#207 = EDGE_CURVE ( 'NONE', #226, #130, #209, .T. ) ;
#208 = AXIS2_PLACEMENT_3D ( 'NONE', #25, #246, #157 ) ;
#209 = CIRCLE ( 'NONE', #152, 0.01248750000000000034 ) ;
#210 = ORIENTED_EDGE ( 'NONE', *, *, #216, .F. ) ;
#211 = FILL_AREA_STYLE_COLOUR ( '', #302 ) ;
#212 = ORIENTED_EDGE ( 'NONE', *, *, #13, .F. ) ;
#213 = DIRECTION ( 'NONE',  ( -0.0000000000000000000, -0.0000000000000000000, -1.000000000000000000 ) ) ;
#214 = VECTOR ( 'NONE', #171, 39.37007874015747433 ) ;
#215 = EDGE_LOOP ( 'NONE', ( #197, #193 ) ) ;
#216 = EDGE_CURVE ( 'NONE', #15, #265, #54, .T. ) ;
#217 = ORIENTED_EDGE ( 'NONE', *, *, #180, .F. ) ;
#218 = ORIENTED_EDGE ( 'NONE', *, *, #227, .F. ) ;
#219 = CARTESIAN_POINT ( 'NONE',  ( 1.529277690435257668E-18, 0.0000000000000000000, 0.01248750000000000034 ) ) ;
#220 = PRODUCT_DEFINITION_FORMATION_WITH_SPECIFIED_SOURCE ( 'ANY', '', #77, .NOT_KNOWN. ) ;
#221 = EDGE_LOOP ( 'NONE', ( #147, #148, #65, #212 ) ) ;
#222 = PRODUCT_DEFINITION_CONTEXT ( 'detailed design', #242, 'design' ) ;
#223 = CARTESIAN_POINT ( 'NONE',  ( 0.04750000000000064587, 5.817072295950006528E-18, 1.500000000000000222 ) ) ;
#224 = CARTESIAN_POINT ( 'NONE',  ( 4.392011827730132361E-17, 0.0000000000000000000, 0.3586349820036292546 ) ) ;
#225 = FACE_OUTER_BOUND ( 'NONE', #17, .T. ) ;
#226 = VERTEX_POINT ( 'NONE', #68 ) ;
#227 = EDGE_CURVE ( 'NONE', #63, #320, #82, .T. ) ;
#228 = CARTESIAN_POINT ( 'NONE',  ( -0.04750000000000064587, 0.0000000000000000000, 1.500000000000000222 ) ) ;
#229 = DIRECTION ( 'NONE',  ( 0.0000000000000000000, -1.000000000000000000, 0.0000000000000000000 ) ) ;
#230 = AXIS2_PLACEMENT_3D ( 'NONE', #117, #145, #39 ) ;
#231 = ADVANCED_FACE ( 'NONE', ( #325 ), #232, .T. ) ;
#232 = CONICAL_SURFACE ( 'NONE', #276, 0.04750000000000064587, 0.7853981633974466137 ) ;
#233 = ADVANCED_BREP_SHAPE_REPRESENTATION ( 'Micro_BMR-025-2X', ( #138, #66 ), #308 ) ;
#234 = PRESENTATION_STYLE_ASSIGNMENT (( #88 ) ) ;
#235 = ORIENTED_EDGE ( 'NONE', *, *, #227, .T. ) ;
#236 = DIRECTION ( 'NONE',  ( -1.224646799147353454E-16, -0.0000000000000000000, -1.000000000000000000 ) ) ;
#237 = ORIENTED_EDGE ( 'NONE', *, *, #163, .F. ) ;
#238 = VECTOR ( 'NONE', #192, 39.37007874015748143 ) ;
#239 = DIRECTION ( 'NONE',  ( -0.0000000000000000000, -0.0000000000000000000, -1.000000000000000000 ) ) ;
#240 = VERTEX_POINT ( 'NONE', #315 ) ;
#241 = CARTESIAN_POINT ( 'NONE',  ( -0.06250000000000002776, 0.0000000000000000000, 1.500000000000000222 ) ) ;
#242 = APPLICATION_CONTEXT ( 'automotive_design' ) ;
#243 = ORIENTED_EDGE ( 'NONE', *, *, #139, .F. ) ;
#244 = AXIS2_PLACEMENT_3D ( 'NONE', #181, #213, #309 ) ;
#245 = PRESENTATION_LAYER_ASSIGNMENT (  '', '', ( #164 ) ) ;
#246 = DIRECTION ( 'NONE',  ( -0.0000000000000000000, -0.0000000000000000000, -1.000000000000000000 ) ) ;
#247 = CARTESIAN_POINT ( 'NONE',  ( 0.0000000000000000000, 0.0000000000000000000, 1.485000000000000764 ) ) ;
#248 = DIRECTION ( 'NONE',  ( 0.0000000000000000000, 0.0000000000000000000, 1.000000000000000000 ) ) ;
#249 = ORIENTED_EDGE ( 'NONE', *, *, #41, .F. ) ;
#250 = CONICAL_SURFACE ( 'NONE', #285, 0.01248750000000000034, 0.1745329251994338915 ) ;
#251 = DIRECTION ( 'NONE',  ( 1.224646799147353454E-16, 0.0000000000000000000, 1.000000000000000000 ) ) ;
#252 = VECTOR ( 'NONE', #263, 39.37007874015748143 ) ;
#253 = CARTESIAN_POINT ( 'NONE',  ( 9.184850993605148746E-18, 0.0000000000000000000, 0.07499999999999999722 ) ) ;
#254 =( NAMED_UNIT ( * ) SI_UNIT ( $, .STERADIAN. ) SOLID_ANGLE_UNIT ( ) );
#255 = PRESENTATION_STYLE_ASSIGNMENT (( #299 ) ) ;
#256 =( NAMED_UNIT ( * ) SI_UNIT ( $, .STERADIAN. ) SOLID_ANGLE_UNIT ( ) );
#257 = EDGE_LOOP ( 'NONE', ( #107, #61, #313, #101 ) ) ;
#258 = DIMENSIONAL_EXPONENTS ( 1.000000000000000000, 0.0000000000000000000, 0.0000000000000000000, 0.0000000000000000000, 0.0000000000000000000, 0.0000000000000000000, 0.0000000000000000000 ) ;
#259 = UNCERTAINTY_MEASURE_WITH_UNIT (LENGTH_MEASURE( 1.000000000000000082E-05 ), #268, 'distance_accuracy_value', 'NONE');
#260 = EDGE_CURVE ( 'NONE', #130, #146, #96, .T. ) ;
#261 = CARTESIAN_POINT ( 'NONE',  ( -0.06250000000000002776, 0.0000000000000000000, 1.485000000000000764 ) ) ;
#262 = AXIS2_PLACEMENT_3D ( 'NONE', #296, #128, #173 ) ;
#263 = DIRECTION ( 'NONE',  ( 0.1736481776669313859, 0.0000000000000000000, 0.9848077530122077983 ) ) ;
#264 =( GEOMETRIC_REPRESENTATION_CONTEXT ( 3 ) GLOBAL_UNCERTAINTY_ASSIGNED_CONTEXT ( ( #58 ) ) GLOBAL_UNIT_ASSIGNED_CONTEXT ( ( #187, #31, #256 ) ) REPRESENTATION_CONTEXT ( 'NONE', 'WORKASPACE' ) );
#265 = VERTEX_POINT ( 'NONE', #287 ) ;
#266 = EDGE_CURVE ( 'NONE', #265, #240, #127, .T. ) ;
#267 = CARTESIAN_POINT ( 'NONE',  ( 0.0000000000000000000, 0.0000000000000000000, 1.500000000000000222 ) ) ;
#268 =( CONVERSION_BASED_UNIT ( 'INCH', #301 ) LENGTH_UNIT ( ) NAMED_UNIT ( #16 ) );
#269 = DIRECTION ( 'NONE',  ( 1.000000000000000000, 0.0000000000000000000, 0.0000000000000000000 ) ) ;
#270 = DIRECTION ( 'NONE',  ( 1.000000000000000000, 0.0000000000000000000, 0.0000000000000000000 ) ) ;
#271 = EDGE_CURVE ( 'NONE', #311, #146, #133, .T. ) ;
#272 = APPLICATION_PROTOCOL_DEFINITION ( 'draft international standard', 'automotive_design', 1998, #242 ) ;
#273 = CYLINDRICAL_SURFACE ( 'NONE', #262, 0.01248750000000000034 ) ;
#274 = DIRECTION ( 'NONE',  ( -0.7071067811865462405, 0.0000000000000000000, -0.7071067811865486830 ) ) ;
#275 = CIRCLE ( 'NONE', #230, 0.06250000000000002776 ) ;
#276 = AXIS2_PLACEMENT_3D ( 'NONE', #294, #105, #312 ) ;
#277 = ADVANCED_FACE ( 'NONE', ( #143 ), #79, .T. ) ;
#278 = MECHANICAL_DESIGN_GEOMETRIC_PRESENTATION_REPRESENTATION (  '', ( #103 ), #85 ) ;
#279 = PRODUCT_DEFINITION ( 'UNKNOWN', '', #220, #222 ) ;
#280 = DIRECTION ( 'NONE',  ( 1.224646799147353207E-16, 1.000000000000000000, -0.0000000000000000000 ) ) ;
#281 = DIMENSIONAL_EXPONENTS ( 1.000000000000000000, 0.0000000000000000000, 0.0000000000000000000, 0.0000000000000000000, 0.0000000000000000000, 0.0000000000000000000, 0.0000000000000000000 ) ;
#282 = ORIENTED_EDGE ( 'NONE', *, *, #163, .T. ) ;
#283 = ORIENTED_EDGE ( 'NONE', *, *, #64, .F. ) ;
#284 = LINE ( 'NONE', #241, #94 ) ;
#285 = AXIS2_PLACEMENT_3D ( 'NONE', #178, #251, #135 ) ;
#286 = ORIENTED_EDGE ( 'NONE', *, *, #75, .F. ) ;
#287 = CARTESIAN_POINT ( 'NONE',  ( 0.04750000000000064587, 6.735557395310483192E-18, 1.500000000000000222 ) ) ;
#288 = ORIENTED_EDGE ( 'NONE', *, *, #271, .F. ) ;
#289 = CLOSED_SHELL ( 'NONE', ( #277, #3, #30, #231, #70, #28, #188, #7, #318, #155, #56 ) ) ;
#290 = DIRECTION ( 'NONE',  ( 0.0000000000000000000, 1.000000000000000000, 0.0000000000000000000 ) ) ;
#291 = ORIENTED_EDGE ( 'NONE', *, *, #50, .F. ) ;
#292 = AXIS2_PLACEMENT_3D ( 'NONE', #267, #42, #49 ) ;
#293 = SHAPE_DEFINITION_REPRESENTATION ( #27, #233 ) ;
#294 = CARTESIAN_POINT ( 'NONE',  ( 0.0000000000000000000, 0.0000000000000000000, 1.500000000000000222 ) ) ;
#295 = EDGE_CURVE ( 'NONE', #265, #15, #314, .T. ) ;
#296 = CARTESIAN_POINT ( 'NONE',  ( 0.0000000000000000000, 0.0000000000000000000, 0.0000000000000000000 ) ) ;
#297 = ORIENTED_EDGE ( 'NONE', *, *, #266, .T. ) ;
#298 = DIRECTION ( 'NONE',  ( -1.000000000000000000, 0.0000000000000000000, 0.0000000000000000000 ) ) ;
#299 = SURFACE_STYLE_USAGE ( .BOTH. , #20 ) ;
#300 = DIRECTION ( 'NONE',  ( 1.000000000000000000, 0.0000000000000000000, 0.0000000000000000000 ) ) ;
#301 = LENGTH_MEASURE_WITH_UNIT ( LENGTH_MEASURE( 0.02539999999999999897 ), #104 );
#302 = COLOUR_RGB ( '',0.7921568627450980005, 0.8196078431372548767, 0.9333333333333333481 ) ;
#303 = AXIS2_PLACEMENT_3D ( 'NONE', #67, #236, #10 ) ;
#304 = CYLINDRICAL_SURFACE ( 'NONE', #244, 0.06250000000000002776 ) ;
#305 = LENGTH_MEASURE_WITH_UNIT ( LENGTH_MEASURE( 0.02539999999999999897 ), #306 );
#306 =( LENGTH_UNIT ( ) NAMED_UNIT ( * ) SI_UNIT ( $, .METRE. ) );
#307 = EDGE_LOOP ( 'NONE', ( #151, #92, #235, #243 ) ) ;
#308 =( GEOMETRIC_REPRESENTATION_CONTEXT ( 3 ) GLOBAL_UNCERTAINTY_ASSIGNED_CONTEXT ( ( #259 ) ) GLOBAL_UNIT_ASSIGNED_CONTEXT ( ( #268, #161, #254 ) ) REPRESENTATION_CONTEXT ( 'NONE', 'WORKASPACE' ) );
#309 = DIRECTION ( 'NONE',  ( -1.000000000000000000, 0.0000000000000000000, 0.0000000000000000000 ) ) ;
#310 = DIRECTION ( 'NONE',  ( 0.0000000000000000000, 0.0000000000000000000, 1.000000000000000000 ) ) ;
#311 = VERTEX_POINT ( 'NONE', #199 ) ;
#312 = DIRECTION ( 'NONE',  ( -1.000000000000000000, 0.0000000000000000000, 0.0000000000000000000 ) ) ;
#313 = ORIENTED_EDGE ( 'NONE', *, *, #13, .T. ) ;
#314 = CIRCLE ( 'NONE', #24, 0.04750000000000064587 ) ;
#315 = CARTESIAN_POINT ( 'NONE',  ( 0.06250000000000002776, 7.654042494670959086E-18, 1.485000000000000764 ) ) ;
#316 = EDGE_LOOP ( 'NONE', ( #283, #282, #249 ) ) ;
#317 = DIRECTION ( 'NONE',  ( -1.224646799147353454E-16, -0.0000000000000000000, -1.000000000000000000 ) ) ;
#318 = ADVANCED_FACE ( 'NONE', ( #174 ), #34, .T. ) ;
#319 = APPLICATION_PROTOCOL_DEFINITION ( 'draft international standard', 'automotive_design', 1998, #47 ) ;
#320 = VERTEX_POINT ( 'NONE', #153 ) ;
#321 = DIRECTION ( 'NONE',  ( 1.000000000000000000, 0.0000000000000000000, 0.0000000000000000000 ) ) ;
#322 = CARTESIAN_POINT ( 'NONE',  ( -0.01248750000000000034, 0.0000000000000000000, 1.529277690435257668E-18 ) ) ;
#323 = SURFACE_STYLE_FILL_AREA ( #110 ) ;
#324 = CARTESIAN_POINT ( 'NONE',  ( 0.0000000000000000000, 0.0000000000000000000, 1.500000000000000222 ) ) ;
#325 = FACE_OUTER_BOUND ( 'NONE', #37, .T. ) ;
ENDSEC;
END-ISO-10303-21;
