ISO-10303-21;
HEADER;
FILE_DESCRIPTION (( 'STEP AP214' ),
    '1' );
FILE_NAME ('49420.STEP',
    '2023-06-30T22:03:05',
    ( '' ),
    ( '' ),
    'SwSTEP 2.0',
    'SolidWorks 2023',
    '' );
FILE_SCHEMA (( 'AUTOMOTIVE_DESIGN' ));
ENDSEC;

DATA;
#1 = UNCERTAINTY_MEASURE_WITH_UNIT (LENGTH_MEASURE( 1.000000000000000082E-05 ), #186, 'distance_accuracy_value', 'NONE');
#2 = DIRECTION ( 'NONE',  ( 0.000000000000000000, -0.000000000000000000, 1.000000000000000000 ) ) ;
#3 = CIRCLE ( 'NONE', #264, 0.3749999999999998890 ) ;
#4 = EDGE_CURVE ( 'NONE', #56, #202, #3, .T. ) ;
#5 = PRESENTATION_LAYER_ASSIGNMENT (  '', '', ( #308 ) ) ;
#6 = SURFACE_STYLE_USAGE ( .BOTH. , #255 ) ;
#7 = ORIENTED_EDGE ( 'NONE', *, *, #246, .F. ) ;
#8 = LENGTH_MEASURE_WITH_UNIT ( LENGTH_MEASURE( 0.02539999999999999897 ), #54 );
#9 = CARTESIAN_POINT ( 'NONE',  ( 0.000000000000000000, 0.3750000000000001110, 0.000000000000000000 ) ) ;
#10 = LENGTH_MEASURE_WITH_UNIT ( LENGTH_MEASURE( 0.02539999999999999897 ), #324 );
#11 = PRESENTATION_STYLE_ASSIGNMENT (( #321 ) ) ;
#12 = ORIENTED_EDGE ( 'NONE', *, *, #353, .T. ) ;
#13 = PRODUCT_RELATED_PRODUCT_CATEGORY ( 'part', '', ( #156 ) ) ;
#14 = AXIS2_PLACEMENT_3D ( 'NONE', #372, #197, #221 ) ;
#15 = ORIENTED_EDGE ( 'NONE', *, *, #103, .T. ) ;
#16 = FILL_AREA_STYLE_COLOUR ( '', #106 ) ;
#17 = DIRECTION ( 'NONE',  ( -1.224646799147353207E-16, 1.000000000000000000, -0.000000000000000000 ) ) ;
#18 = FILL_AREA_STYLE ('',( #16 ) ) ;
#19 = CARTESIAN_POINT ( 'NONE',  ( -4.592425496802575451E-17, 0.3750000000000000555, 0.000000000000000000 ) ) ;
#20 = ADVANCED_FACE ( 'NONE', ( #145 ), #254, .F. ) ;
#21 = CARTESIAN_POINT ( 'NONE',  ( -0.3749999999999993339, 2.250000000000000444, 0.000000000000000000 ) ) ;
#22 = DIRECTION ( 'NONE',  ( 0.000000000000000000, 0.000000000000000000, -1.000000000000000000 ) ) ;
#23 = FACE_OUTER_BOUND ( 'NONE', #24, .T. ) ;
#24 = EDGE_LOOP ( 'NONE', ( #256, #31, #171, #284 ) ) ;
#25 = PRESENTATION_STYLE_ASSIGNMENT (( #220 ) ) ;
#26 = VERTEX_POINT ( 'NONE', #21 ) ;
#27 = COLOUR_RGB ( '',1.000000000000000000, 0.000000000000000000, 0.000000000000000000 ) ;
#28 = ORIENTED_EDGE ( 'NONE', *, *, #162, .F. ) ;
#29 = EDGE_CURVE ( 'NONE', #113, #196, #49, .T. ) ;
#30 = DIRECTION ( 'NONE',  ( 0.000000000000000000, 0.000000000000000000, 1.000000000000000000 ) ) ;
#31 = ORIENTED_EDGE ( 'NONE', *, *, #266, .T. ) ;
#32 =( CONVERSION_BASED_UNIT ( 'INCH', #288 ) LENGTH_UNIT ( ) NAMED_UNIT ( #317 ) );
#33 = ORIENTED_EDGE ( 'NONE', *, *, #366, .T. ) ;
#34 = DIMENSIONAL_EXPONENTS ( 1.000000000000000000, 0.000000000000000000, 0.000000000000000000, 0.000000000000000000, 0.000000000000000000, 0.000000000000000000, 0.000000000000000000 ) ;
#35 = FILL_AREA_STYLE ('',( #354 ) ) ;
#36 = AXIS2_PLACEMENT_3D ( 'NONE', #239, #59, #179 ) ;
#37 =( GEOMETRIC_REPRESENTATION_CONTEXT ( 3 ) GLOBAL_UNCERTAINTY_ASSIGNED_CONTEXT ( ( #1 ) ) GLOBAL_UNIT_ASSIGNED_CONTEXT ( ( #186, #370, #242 ) ) REPRESENTATION_CONTEXT ( 'NONE', 'WORKASPACE' ) );
#38 = CARTESIAN_POINT ( 'NONE',  ( 0.3749999999999995559, 5.000000000000000000, 4.592425496802570521E-17 ) ) ;
#39 = UNCERTAINTY_MEASURE_WITH_UNIT (LENGTH_MEASURE( 1.000000000000000082E-05 ), #227, 'distance_accuracy_value', 'NONE');
#40 = FACE_OUTER_BOUND ( 'NONE', #53, .T. ) ;
#41 = DIRECTION ( 'NONE',  ( 0.000000000000000000, 0.000000000000000000, -1.000000000000000000 ) ) ;
#42 = CLOSED_SHELL ( 'NONE', ( #286, #97, #328, #305, #217 ) ) ;
#43 = CARTESIAN_POINT ( 'NONE',  ( -0.3750000000000000555, 5.000000000000000000, 0.000000000000000000 ) ) ;
#44 = SURFACE_STYLE_FILL_AREA ( #18 ) ;
#45 = COLOUR_RGB ( '',1.000000000000000000, 0.000000000000000000, 0.000000000000000000 ) ;
#46 = AXIS2_PLACEMENT_3D ( 'NONE', #121, #99, #57 ) ;
#47 = DIRECTION ( 'NONE',  ( 0.000000000000000000, 0.000000000000000000, -1.000000000000000000 ) ) ;
#48 = CARTESIAN_POINT ( 'NONE',  ( -1.224646799147353207E-16, 5.000000000000000000, 0.000000000000000000 ) ) ;
#49 = CIRCLE ( 'NONE', #275, 0.3749999999999998890 ) ;
#50 = AXIS2_PLACEMENT_3D ( 'NONE', #346, #249, #2 ) ;
#51 = VERTEX_POINT ( 'NONE', #66 ) ;
#52 = FACE_OUTER_BOUND ( 'NONE', #90, .T. ) ;
#53 = EDGE_LOOP ( 'NONE', ( #15, #226, #355, #277, #28 ) ) ;
#54 =( LENGTH_UNIT ( ) NAMED_UNIT ( * ) SI_UNIT ( $, .METRE. ) );
#55 =( NAMED_UNIT ( * ) PLANE_ANGLE_UNIT ( ) SI_UNIT ( $, .RADIAN. ) );
#56 = VERTEX_POINT ( 'NONE', #263 ) ;
#57 = DIRECTION ( 'NONE',  ( 0.000000000000000000, 0.000000000000000000, -1.000000000000000000 ) ) ;
#58 = DIRECTION ( 'NONE',  ( 1.224646799147353207E-16, -1.000000000000000000, 0.000000000000000000 ) ) ;
#59 = DIRECTION ( 'NONE',  ( -0.000000000000000000, -1.000000000000000000, -0.000000000000000000 ) ) ;
#60 = SURFACE_STYLE_USAGE ( .BOTH. , #149 ) ;
#61 = DIRECTION ( 'NONE',  ( -1.000000000000000000, 0.000000000000000000, 0.000000000000000000 ) ) ;
#62 = UNCERTAINTY_MEASURE_WITH_UNIT (LENGTH_MEASURE( 1.000000000000000082E-05 ), #32, 'distance_accuracy_value', 'NONE');
#63 = DIRECTION ( 'NONE',  ( -0.000000000000000000, -1.000000000000000000, -0.000000000000000000 ) ) ;
#64 = CARTESIAN_POINT ( 'NONE',  ( -1.224646799147353207E-16, 5.000000000000000000, 0.000000000000000000 ) ) ;
#65 = EDGE_CURVE ( 'NONE', #26, #311, #359, .T. ) ;
#66 = CARTESIAN_POINT ( 'NONE',  ( 0.000000000000000000, 2.250000000000000000, -0.3749999999999997780 ) ) ;
#67 = MECHANICAL_DESIGN_GEOMETRIC_PRESENTATION_REPRESENTATION (  '', ( #351 ), #188 ) ;
#68 = SURFACE_STYLE_FILL_AREA ( #35 ) ;
#69 = DIRECTION ( 'NONE',  ( -1.000000000000000000, -1.224646799147353207E-16, 0.000000000000000000 ) ) ;
#70 = DIRECTION ( 'NONE',  ( -0.000000000000000000, -1.000000000000000000, -0.000000000000000000 ) ) ;
#71 = FILL_AREA_STYLE ('',( #129 ) ) ;
#72 = LENGTH_MEASURE_WITH_UNIT ( LENGTH_MEASURE( 0.02539999999999999897 ), #105 );
#73 = AXIS2_PLACEMENT_3D ( 'NONE', #87, #58, #358 ) ;
#74 = ADVANCED_FACE ( 'NONE', ( #361 ), #291, .T. ) ;
#75 = STYLED_ITEM ( 'NONE', ( #331 ), #350 ) ;
#76 = CARTESIAN_POINT ( 'NONE',  ( 2.143131898507867804E-16, 2.250000000000000444, 0.000000000000000000 ) ) ;
#77 = SURFACE_STYLE_FILL_AREA ( #315 ) ;
#78 = CARTESIAN_POINT ( 'NONE',  ( -2.296212748401288342E-17, 6.829619984160658046E-17, 0.000000000000000000 ) ) ;
#79 = CARTESIAN_POINT ( 'NONE',  ( 0.000000000000000000, 0.000000000000000000, 0.000000000000000000 ) ) ;
#80 = VECTOR ( 'NONE', #122, 39.37007874015748143 ) ;
#81 =( GEOMETRIC_REPRESENTATION_CONTEXT ( 3 ) GLOBAL_UNCERTAINTY_ASSIGNED_CONTEXT ( ( #206 ) ) GLOBAL_UNIT_ASSIGNED_CONTEXT ( ( #229, #282, #82 ) ) REPRESENTATION_CONTEXT ( 'NONE', 'WORKASPACE' ) );
#82 =( NAMED_UNIT ( * ) SI_UNIT ( $, .STERADIAN. ) SOLID_ANGLE_UNIT ( ) );
#83 = ORIENTED_EDGE ( 'NONE', *, *, #4, .T. ) ;
#84 = CARTESIAN_POINT ( 'NONE',  ( -4.592425496802575451E-17, 0.3750000000000000555, 0.000000000000000000 ) ) ;
#85 = ORIENTED_EDGE ( 'NONE', *, *, #132, .F. ) ;
#86 = ORIENTED_EDGE ( 'NONE', *, *, #337, .T. ) ;
#87 = CARTESIAN_POINT ( 'NONE',  ( 0.3749999999999997780, 5.000000000000000000, 0.000000000000000000 ) ) ;
#88 = LENGTH_MEASURE_WITH_UNIT ( LENGTH_MEASURE( 0.02539999999999999897 ), #119 );
#89 = APPLICATION_CONTEXT ( 'automotive_design' ) ;
#90 = EDGE_LOOP ( 'NONE', ( #287, #86, #142, #248, #7 ) ) ;
#91 = ADVANCED_BREP_SHAPE_REPRESENTATION ( '49420', ( #344, #350, #300 ), #167 ) ;
#92 = DIRECTION ( 'NONE',  ( 0.000000000000000000, 0.000000000000000000, -1.000000000000000000 ) ) ;
#93 = EDGE_CURVE ( 'NONE', #199, #202, #325, .T. ) ;
#94 = DIRECTION ( 'NONE',  ( -1.224646799147353207E-16, 1.000000000000000000, -0.000000000000000000 ) ) ;
#95 = AXIS2_PLACEMENT_3D ( 'NONE', #218, #211, #368 ) ;
#96 = CARTESIAN_POINT ( 'NONE',  ( 0.000000000000000000, 0.000000000000000000, 0.000000000000000000 ) ) ;
#97 = ADVANCED_FACE ( 'NONE', ( #40 ), #126, .T. ) ;
#98 = SURFACE_SIDE_STYLE ('',( #155 ) ) ;
#99 = DIRECTION ( 'NONE',  ( -0.000000000000000000, -1.000000000000000000, -0.000000000000000000 ) ) ;
#100 = AXIS2_PLACEMENT_3D ( 'NONE', #207, #261, #209 ) ;
#101 = DIRECTION ( 'NONE',  ( 1.224646799147353207E-16, -0.000000000000000000, 1.000000000000000000 ) ) ;
#102 = MECHANICAL_DESIGN_GEOMETRIC_PRESENTATION_REPRESENTATION (  '', ( #236 ), #365 ) ;
#103 = EDGE_CURVE ( 'NONE', #51, #199, #166, .T. ) ;
#104 = DIRECTION ( 'NONE',  ( 1.000000000000000000, 0.000000000000000000, 0.000000000000000000 ) ) ;
#105 =( LENGTH_UNIT ( ) NAMED_UNIT ( * ) SI_UNIT ( $, .METRE. ) );
#106 = COLOUR_RGB ( '',0.7921568627450980005, 0.8196078431372548767, 0.9333333333333333481 ) ;
#107 =( CONVERSION_BASED_UNIT ( 'INCH', #8 ) LENGTH_UNIT ( ) NAMED_UNIT ( #191 ) );
#108 = DIRECTION ( 'NONE',  ( -1.000000000000000000, 0.000000000000000000, 0.000000000000000000 ) ) ;
#109 = CYLINDRICAL_SURFACE ( 'NONE', #14, 0.3749999999999998335 ) ;
#110 = PRODUCT_DEFINITION_CONTEXT ( 'detailed design', #89, 'design' ) ;
#111 = ORIENTED_EDGE ( 'NONE', *, *, #29, .T. ) ;
#112 = COLOUR_RGB ( '',1.000000000000000000, 0.000000000000000000, 0.000000000000000000 ) ;
#113 = VERTEX_POINT ( 'NONE', #357 ) ;
#114 =( LENGTH_UNIT ( ) NAMED_UNIT ( * ) SI_UNIT ( $, .METRE. ) );
#115 = ORIENTED_EDGE ( 'NONE', *, *, #260, .T. ) ;
#116 = DIRECTION ( 'NONE',  ( -1.000000000000000000, 0.000000000000000000, 0.000000000000000000 ) ) ;
#117 = VERTEX_POINT ( 'NONE', #329 ) ;
#118 = CIRCLE ( 'NONE', #295, 0.3749999999999995559 ) ;
#119 =( LENGTH_UNIT ( ) NAMED_UNIT ( * ) SI_UNIT ( $, .METRE. ) );
#120 = APPLICATION_CONTEXT ( 'automotive_design' ) ;
#121 = CARTESIAN_POINT ( 'NONE',  ( 0.000000000000000000, 0.3750000000000001110, 0.000000000000000000 ) ) ;
#122 = DIRECTION ( 'NONE',  ( -1.224646799147353207E-16, 1.000000000000000000, -0.000000000000000000 ) ) ;
#123 = PRESENTATION_LAYER_ASSIGNMENT (  '', '', ( #75 ) ) ;
#124 = EDGE_CURVE ( 'NONE', #232, #319, #307, .T. ) ;
#125 = AXIS2_PLACEMENT_3D ( 'NONE', #159, #22, #116 ) ;
#126 = CYLINDRICAL_SURFACE ( 'NONE', #174, 0.3749999999999998335 ) ;
#127 =( LENGTH_UNIT ( ) NAMED_UNIT ( * ) SI_UNIT ( $, .METRE. ) );
#128 = VECTOR ( 'NONE', #369, 39.37007874015748143 ) ;
#129 = FILL_AREA_STYLE_COLOUR ( '', #45 ) ;
#130 = MECHANICAL_DESIGN_GEOMETRIC_PRESENTATION_REPRESENTATION (  '', ( #75 ), #216 ) ;
#131 =( NAMED_UNIT ( * ) SI_UNIT ( $, .STERADIAN. ) SOLID_ANGLE_UNIT ( ) );
#132 = EDGE_CURVE ( 'NONE', #26, #196, #294, .T. ) ;
#133 = SURFACE_SIDE_STYLE ('',( #184 ) ) ;
#134 = FACE_OUTER_BOUND ( 'NONE', #352, .T. ) ;
#135 = FACE_OUTER_BOUND ( 'NONE', #204, .T. ) ;
#136 = EDGE_CURVE ( 'NONE', #117, #56, #194, .T. ) ;
#137 =( GEOMETRIC_REPRESENTATION_CONTEXT ( 3 ) GLOBAL_UNCERTAINTY_ASSIGNED_CONTEXT ( ( #339 ) ) GLOBAL_UNIT_ASSIGNED_CONTEXT ( ( #107, #222, #304 ) ) REPRESENTATION_CONTEXT ( 'NONE', 'WORKASPACE' ) );
#138 = ORIENTED_EDGE ( 'NONE', *, *, #266, .F. ) ;
#139 = FILL_AREA_STYLE_COLOUR ( '', #342 ) ;
#140 = AXIS2_PLACEMENT_3D ( 'NONE', #205, #296, #61 ) ;
#141 = EDGE_CURVE ( 'NONE', #311, #113, #330, .T. ) ;
#142 = ORIENTED_EDGE ( 'NONE', *, *, #162, .T. ) ;
#143 = UNCERTAINTY_MEASURE_WITH_UNIT (LENGTH_MEASURE( 1.000000000000000082E-05 ), #178, 'distance_accuracy_value', 'NONE');
#144 = LENGTH_MEASURE_WITH_UNIT ( LENGTH_MEASURE( 0.02539999999999999897 ), #312 );
#145 = FACE_OUTER_BOUND ( 'NONE', #228, .T. ) ;
#146 = SPHERICAL_SURFACE ( 'NONE', #269, 0.3749999999999999445 ) ;
#147 = ORIENTED_EDGE ( 'NONE', *, *, #366, .F. ) ;
#148 = VECTOR ( 'NONE', #94, 39.37007874015748143 ) ;
#149 = SURFACE_SIDE_STYLE ('',( #68 ) ) ;
#150 = DIMENSIONAL_EXPONENTS ( 1.000000000000000000, 0.000000000000000000, 0.000000000000000000, 0.000000000000000000, 0.000000000000000000, 0.000000000000000000, 0.000000000000000000 ) ;
#151 = PRESENTATION_LAYER_ASSIGNMENT (  '', '', ( #231 ) ) ;
#152 = LINE ( 'NONE', #259, #128 ) ;
#153 =( NAMED_UNIT ( * ) PLANE_ANGLE_UNIT ( ) SI_UNIT ( $, .RADIAN. ) );
#154 =( NAMED_UNIT ( * ) SI_UNIT ( $, .STERADIAN. ) SOLID_ANGLE_UNIT ( ) );
#155 = SURFACE_STYLE_FILL_AREA ( #293 ) ;
#156 = PRODUCT ( '49420', '49420', '', ( #272 ) ) ;
#157 = CARTESIAN_POINT ( 'NONE',  ( -0.3749999999999998335, 5.000000000000000000, 0.000000000000000000 ) ) ;
#158 = DIRECTION ( 'NONE',  ( -1.224646799147353207E-16, 1.000000000000000000, -0.000000000000000000 ) ) ;
#159 = CARTESIAN_POINT ( 'NONE',  ( -4.592425496802575451E-17, 0.3750000000000000555, 0.000000000000000000 ) ) ;
#160 = PRODUCT_DEFINITION_SHAPE ( 'NONE', 'NONE',  #314 ) ;
#161 = CARTESIAN_POINT ( 'NONE',  ( 0.000000000000000000, 2.250000000000000000, 0.000000000000000000 ) ) ;
#162 = EDGE_CURVE ( 'NONE', #51, #117, #152, .T. ) ;
#163 = CLOSED_SHELL ( 'NONE', ( #74, #172, #189, #20 ) ) ;
#164 = MECHANICAL_DESIGN_GEOMETRIC_PRESENTATION_REPRESENTATION (  '', ( #308 ), #37 ) ;
#165 = FACE_OUTER_BOUND ( 'NONE', #173, .T. ) ;
#166 = CIRCLE ( 'NONE', #100, 0.3749999999999997780 ) ;
#167 =( GEOMETRIC_REPRESENTATION_CONTEXT ( 3 ) GLOBAL_UNCERTAINTY_ASSIGNED_CONTEXT ( ( #62 ) ) GLOBAL_UNIT_ASSIGNED_CONTEXT ( ( #32, #214, #131 ) ) REPRESENTATION_CONTEXT ( 'NONE', 'WORKASPACE' ) );
#168 = DIMENSIONAL_EXPONENTS ( 1.000000000000000000, 0.000000000000000000, 0.000000000000000000, 0.000000000000000000, 0.000000000000000000, 0.000000000000000000, 0.000000000000000000 ) ;
#169 = FILL_AREA_STYLE ('',( #253 ) ) ;
#170 = ORIENTED_EDGE ( 'NONE', *, *, #141, .T. ) ;
#171 = ORIENTED_EDGE ( 'NONE', *, *, #132, .T. ) ;
#172 = ADVANCED_FACE ( 'NONE', ( #134 ), #245, .F. ) ;
#173 = EDGE_LOOP ( 'NONE', ( #345, #12, #177, #33 ) ) ;
#174 = AXIS2_PLACEMENT_3D ( 'NONE', #96, #208, #41 ) ;
#175 = DIRECTION ( 'NONE',  ( 1.000000000000000000, 0.000000000000000000, 0.000000000000000000 ) ) ;
#176 = ORIENTED_EDGE ( 'NONE', *, *, #103, .F. ) ;
#177 = ORIENTED_EDGE ( 'NONE', *, *, #136, .T. ) ;
#178 =( CONVERSION_BASED_UNIT ( 'INCH', #10 ) LENGTH_UNIT ( ) NAMED_UNIT ( #341 ) );
#179 = DIRECTION ( 'NONE',  ( 0.000000000000000000, 0.000000000000000000, -1.000000000000000000 ) ) ;
#180 = AXIS2_PLACEMENT_3D ( 'NONE', #48, #371, #108 ) ;
#181 = FILL_AREA_STYLE_COLOUR ( '', #27 ) ;
#182 = AXIS2_PLACEMENT_3D ( 'NONE', #187, #301, #47 ) ;
#183 = DIRECTION ( 'NONE',  ( -1.000000000000000000, 0.000000000000000000, 0.000000000000000000 ) ) ;
#184 = SURFACE_STYLE_FILL_AREA ( #71 ) ;
#185 =( NAMED_UNIT ( * ) SI_UNIT ( $, .STERADIAN. ) SOLID_ANGLE_UNIT ( ) );
#186 =( CONVERSION_BASED_UNIT ( 'INCH', #72 ) LENGTH_UNIT ( ) NAMED_UNIT ( #168 ) );
#187 = CARTESIAN_POINT ( 'NONE',  ( 0.000000000000000000, 0.3750000000000001110, 0.000000000000000000 ) ) ;
#188 =( GEOMETRIC_REPRESENTATION_CONTEXT ( 3 ) GLOBAL_UNCERTAINTY_ASSIGNED_CONTEXT ( ( #39 ) ) GLOBAL_UNIT_ASSIGNED_CONTEXT ( ( #227, #55, #247 ) ) REPRESENTATION_CONTEXT ( 'NONE', 'WORKASPACE' ) );
#189 = ADVANCED_FACE ( 'NONE', ( #23 ), #334, .T. ) ;
#190 = CARTESIAN_POINT ( 'NONE',  ( 2.143131898507868051E-16, 2.250000000000000000, 0.000000000000000000 ) ) ;
#191 = DIMENSIONAL_EXPONENTS ( 1.000000000000000000, 0.000000000000000000, 0.000000000000000000, 0.000000000000000000, 0.000000000000000000, 0.000000000000000000, 0.000000000000000000 ) ;
#192 = CARTESIAN_POINT ( 'NONE',  ( -1.224646799147353207E-16, 5.000000000000000000, 0.000000000000000000 ) ) ;
#193 = FACE_OUTER_BOUND ( 'NONE', #289, .T. ) ;
#194 = CIRCLE ( 'NONE', #36, 0.3749999999999998890 ) ;
#195 = CIRCLE ( 'NONE', #360, 0.3749999999999997780 ) ;
#196 = VERTEX_POINT ( 'NONE', #43 ) ;
#197 = DIRECTION ( 'NONE',  ( -0.000000000000000000, -1.000000000000000000, -0.000000000000000000 ) ) ;
#198 = ORIENTED_EDGE ( 'NONE', *, *, #337, .F. ) ;
#199 = VERTEX_POINT ( 'NONE', #268 ) ;
#200 = PRESENTATION_LAYER_ASSIGNMENT (  '', '', ( #351 ) ) ;
#201 =( LENGTH_UNIT ( ) NAMED_UNIT ( * ) SI_UNIT ( $, .METRE. ) );
#202 = VERTEX_POINT ( 'NONE', #336 ) ;
#203 = UNCERTAINTY_MEASURE_WITH_UNIT (LENGTH_MEASURE( 1.000000000000000082E-05 ), #349, 'distance_accuracy_value', 'NONE');
#204 = EDGE_LOOP ( 'NONE', ( #373, #251, #147, #83 ) ) ;
#205 = CARTESIAN_POINT ( 'NONE',  ( -1.224646799147353207E-16, 5.000000000000000000, 0.000000000000000000 ) ) ;
#206 = UNCERTAINTY_MEASURE_WITH_UNIT (LENGTH_MEASURE( 1.000000000000000082E-05 ), #229, 'distance_accuracy_value', 'NONE');
#207 = CARTESIAN_POINT ( 'NONE',  ( 0.000000000000000000, 2.250000000000000000, 0.000000000000000000 ) ) ;
#208 = DIRECTION ( 'NONE',  ( -0.000000000000000000, -1.000000000000000000, -0.000000000000000000 ) ) ;
#209 = DIRECTION ( 'NONE',  ( 0.000000000000000000, 0.000000000000000000, -1.000000000000000000 ) ) ;
#210 = PRESENTATION_LAYER_ASSIGNMENT (  '', '', ( #326 ) ) ;
#211 = DIRECTION ( 'NONE',  ( 0.000000000000000000, 0.000000000000000000, 1.000000000000000000 ) ) ;
#212 = APPLICATION_PROTOCOL_DEFINITION ( 'draft international standard', 'automotive_design', 1998, #120 ) ;
#213 = CARTESIAN_POINT ( 'NONE',  ( -0.3749999999999999445, 0.3750000000000001110, 4.592425496802572986E-17 ) ) ;
#214 =( NAMED_UNIT ( * ) PLANE_ANGLE_UNIT ( ) SI_UNIT ( $, .RADIAN. ) );
#215 = AXIS2_PLACEMENT_3D ( 'NONE', #19, #101, #323 ) ;
#216 =( GEOMETRIC_REPRESENTATION_CONTEXT ( 3 ) GLOBAL_UNCERTAINTY_ASSIGNED_CONTEXT ( ( #143 ) ) GLOBAL_UNIT_ASSIGNED_CONTEXT ( ( #178, #153, #185 ) ) REPRESENTATION_CONTEXT ( 'NONE', 'WORKASPACE' ) );
#217 = ADVANCED_FACE ( 'NONE', ( #165 ), #270, .T. ) ;
#218 = CARTESIAN_POINT ( 'NONE',  ( -4.592425496802575451E-17, 0.3750000000000000555, 0.000000000000000000 ) ) ;
#219 = DIMENSIONAL_EXPONENTS ( 1.000000000000000000, 0.000000000000000000, 0.000000000000000000, 0.000000000000000000, 0.000000000000000000, 0.000000000000000000, 0.000000000000000000 ) ;
#220 = SURFACE_STYLE_USAGE ( .BOTH. , #340 ) ;
#221 = DIRECTION ( 'NONE',  ( 0.000000000000000000, 0.000000000000000000, -1.000000000000000000 ) ) ;
#222 =( NAMED_UNIT ( * ) PLANE_ANGLE_UNIT ( ) SI_UNIT ( $, .RADIAN. ) );
#223 = AXIS2_PLACEMENT_3D ( 'NONE', #190, #271, #69 ) ;
#224 = AXIS2_PLACEMENT_3D ( 'NONE', #192, #306, #367 ) ;
#225 = SURFACE_STYLE_FILL_AREA ( #310 ) ;
#226 = ORIENTED_EDGE ( 'NONE', *, *, #93, .T. ) ;
#227 =( CONVERSION_BASED_UNIT ( 'INCH', #316 ) LENGTH_UNIT ( ) NAMED_UNIT ( #285 ) );
#228 = EDGE_LOOP ( 'NONE', ( #115, #111 ) ) ;
#229 =( CONVERSION_BASED_UNIT ( 'INCH', #144 ) LENGTH_UNIT ( ) NAMED_UNIT ( #34 ) );
#230 = EDGE_LOOP ( 'NONE', ( #347, #170, #313, #85 ) ) ;
#231 = STYLED_ITEM ( 'NONE', ( #252 ), #305 ) ;
#232 = VERTEX_POINT ( 'NONE', #213 ) ;
#233 = DIRECTION ( 'NONE',  ( -1.000000000000000000, 0.000000000000000000, 0.000000000000000000 ) ) ;
#234 = SURFACE_STYLE_USAGE ( .BOTH. , #98 ) ;
#235 = STYLED_ITEM ( 'NONE', ( #362 ), #97 ) ;
#236 = STYLED_ITEM ( 'NONE', ( #290 ), #344 ) ;
#237 = PRODUCT_DEFINITION_FORMATION_WITH_SPECIFIED_SOURCE ( 'ANY', '', #156, .NOT_KNOWN. ) ;
#238 =( NAMED_UNIT ( * ) PLANE_ANGLE_UNIT ( ) SI_UNIT ( $, .RADIAN. ) );
#239 = CARTESIAN_POINT ( 'NONE',  ( 0.000000000000000000, 0.3750000000000001110, 0.000000000000000000 ) ) ;
#240 = MECHANICAL_DESIGN_GEOMETRIC_PRESENTATION_REPRESENTATION (  '', ( #231 ), #81 ) ;
#241 = CIRCLE ( 'NONE', #125, 0.3749999999999999445 ) ;
#242 =( NAMED_UNIT ( * ) SI_UNIT ( $, .STERADIAN. ) SOLID_ANGLE_UNIT ( ) );
#243 = SURFACE_STYLE_USAGE ( .BOTH. , #133 ) ;
#244 = COLOUR_RGB ( '',1.000000000000000000, 0.000000000000000000, 0.000000000000000000 ) ;
#245 = PLANE ( 'NONE',  #223 ) ;
#246 = EDGE_CURVE ( 'NONE', #202, #232, #250, .T. ) ;
#247 =( NAMED_UNIT ( * ) SI_UNIT ( $, .STERADIAN. ) SOLID_ANGLE_UNIT ( ) );
#248 = ORIENTED_EDGE ( 'NONE', *, *, #353, .F. ) ;
#249 = DIRECTION ( 'NONE',  ( 0.000000000000000000, 1.000000000000000000, 0.000000000000000000 ) ) ;
#250 = CIRCLE ( 'NONE', #182, 0.3749999999999998890 ) ;
#251 = ORIENTED_EDGE ( 'NONE', *, *, #124, .T. ) ;
#252 = PRESENTATION_STYLE_ASSIGNMENT (( #6 ) ) ;
#253 = FILL_AREA_STYLE_COLOUR ( '', #244 ) ;
#254 = PLANE ( 'NONE',  #73 ) ;
#255 = SURFACE_SIDE_STYLE ('',( #343 ) ) ;
#256 = ORIENTED_EDGE ( 'NONE', *, *, #141, .F. ) ;
#257 = AXIS2_PLACEMENT_3D ( 'NONE', #267, #17, #183 ) ;
#258 = PRESENTATION_LAYER_ASSIGNMENT (  '', '', ( #236 ) ) ;
#259 = CARTESIAN_POINT ( 'NONE',  ( 0.000000000000000000, 0.000000000000000000, -0.3749999999999998335 ) ) ;
#260 = EDGE_CURVE ( 'NONE', #196, #113, #318, .T. ) ;
#261 = DIRECTION ( 'NONE',  ( -0.000000000000000000, -1.000000000000000000, -0.000000000000000000 ) ) ;
#262 = FILL_AREA_STYLE_COLOUR ( '', #112 ) ;
#263 = CARTESIAN_POINT ( 'NONE',  ( 0.3749999999999998890, 0.3750000000000001110, 0.000000000000000000 ) ) ;
#264 = AXIS2_PLACEMENT_3D ( 'NONE', #9, #348, #281 ) ;
#265 = CIRCLE ( 'NONE', #46, 0.3749999999999998890 ) ;
#266 = EDGE_CURVE ( 'NONE', #311, #26, #118, .T. ) ;
#267 = CARTESIAN_POINT ( 'NONE',  ( 2.143131898507867804E-16, 2.250000000000000444, 0.000000000000000000 ) ) ;
#268 = CARTESIAN_POINT ( 'NONE',  ( 4.592425496802571754E-17, 2.250000000000000000, 0.3749999999999997780 ) ) ;
#269 = AXIS2_PLACEMENT_3D ( 'NONE', #84, #30, #175 ) ;
#270 = SPHERICAL_SURFACE ( 'NONE', #95, 0.3749999999999999445 ) ;
#271 = DIRECTION ( 'NONE',  ( -1.224646799147353207E-16, 1.000000000000000000, 0.000000000000000000 ) ) ;
#272 = PRODUCT_CONTEXT ( 'NONE', #120, 'mechanical' ) ;
#273 = DIRECTION ( 'NONE',  ( -1.000000000000000000, 0.000000000000000000, 0.000000000000000000 ) ) ;
#274 = SHAPE_DEFINITION_REPRESENTATION ( #160, #91 ) ;
#275 = AXIS2_PLACEMENT_3D ( 'NONE', #64, #158, #233 ) ;
#276 = COLOUR_RGB ( '',0.7921568627450980005, 0.8196078431372548767, 0.9333333333333333481 ) ;
#277 = ORIENTED_EDGE ( 'NONE', *, *, #136, .F. ) ;
#278 = UNCERTAINTY_MEASURE_WITH_UNIT (LENGTH_MEASURE( 1.000000000000000082E-05 ), #327, 'distance_accuracy_value', 'NONE');
#279 = PLANE ( 'NONE',  #50 ) ;
#280 = SURFACE_SIDE_STYLE ('',( #225 ) ) ;
#281 = DIRECTION ( 'NONE',  ( 0.000000000000000000, 0.000000000000000000, -1.000000000000000000 ) ) ;
#282 =( NAMED_UNIT ( * ) PLANE_ANGLE_UNIT ( ) SI_UNIT ( $, .RADIAN. ) );
#283 = MECHANICAL_DESIGN_GEOMETRIC_PRESENTATION_REPRESENTATION (  '', ( #235 ), #335 ) ;
#284 = ORIENTED_EDGE ( 'NONE', *, *, #29, .F. ) ;
#285 = DIMENSIONAL_EXPONENTS ( 1.000000000000000000, 0.000000000000000000, 0.000000000000000000, 0.000000000000000000, 0.000000000000000000, 0.000000000000000000, 0.000000000000000000 ) ;
#286 = ADVANCED_FACE ( 'NONE', ( #135 ), #146, .T. ) ;
#287 = ORIENTED_EDGE ( 'NONE', *, *, #93, .F. ) ;
#288 = LENGTH_MEASURE_WITH_UNIT ( LENGTH_MEASURE( 0.02539999999999999897 ), #201 );
#289 = EDGE_LOOP ( 'NONE', ( #176, #198 ) ) ;
#290 = PRESENTATION_STYLE_ASSIGNMENT (( #364 ) ) ;
#291 = CYLINDRICAL_SURFACE ( 'NONE', #140, 0.3749999999999996669 ) ;
#292 = LENGTH_MEASURE_WITH_UNIT ( LENGTH_MEASURE( 0.02539999999999999897 ), #127 );
#293 = FILL_AREA_STYLE ('',( #181 ) ) ;
#294 = LINE ( 'NONE', #157, #148 ) ;
#295 = AXIS2_PLACEMENT_3D ( 'NONE', #76, #302, #273 ) ;
#296 = DIRECTION ( 'NONE',  ( -1.224646799147353207E-16, 1.000000000000000000, -0.000000000000000000 ) ) ;
#297 = PRESENTATION_STYLE_ASSIGNMENT (( #243 ) ) ;
#298 = VECTOR ( 'NONE', #63, 39.37007874015748143 ) ;
#299 = MECHANICAL_DESIGN_GEOMETRIC_PRESENTATION_REPRESENTATION (  '', ( #326 ), #137 ) ;
#300 = AXIS2_PLACEMENT_3D ( 'NONE', #79, #303, #104 ) ;
#301 = DIRECTION ( 'NONE',  ( -0.000000000000000000, -1.000000000000000000, -0.000000000000000000 ) ) ;
#302 = DIRECTION ( 'NONE',  ( -1.224646799147353207E-16, 1.000000000000000000, -0.000000000000000000 ) ) ;
#303 = DIRECTION ( 'NONE',  ( 0.000000000000000000, 0.000000000000000000, 1.000000000000000000 ) ) ;
#304 =( NAMED_UNIT ( * ) SI_UNIT ( $, .STERADIAN. ) SOLID_ANGLE_UNIT ( ) );
#305 = ADVANCED_FACE ( 'NONE', ( #52 ), #109, .T. ) ;
#306 = DIRECTION ( 'NONE',  ( -1.224646799147353207E-16, 1.000000000000000000, -0.000000000000000000 ) ) ;
#307 = CIRCLE ( 'NONE', #215, 0.3749999999999999445 ) ;
#308 = STYLED_ITEM ( 'NONE', ( #297 ), #217 ) ;
#309 = APPLICATION_PROTOCOL_DEFINITION ( 'draft international standard', 'automotive_design', 1998, #89 ) ;
#310 = FILL_AREA_STYLE ('',( #139 ) ) ;
#311 = VERTEX_POINT ( 'NONE', #338 ) ;
#312 =( LENGTH_UNIT ( ) NAMED_UNIT ( * ) SI_UNIT ( $, .METRE. ) );
#313 = ORIENTED_EDGE ( 'NONE', *, *, #260, .F. ) ;
#314 = PRODUCT_DEFINITION ( 'UNKNOWN', '', #237, #110 ) ;
#315 = FILL_AREA_STYLE ('',( #262 ) ) ;
#316 = LENGTH_MEASURE_WITH_UNIT ( LENGTH_MEASURE( 0.02539999999999999897 ), #114 );
#317 = DIMENSIONAL_EXPONENTS ( 1.000000000000000000, 0.000000000000000000, 0.000000000000000000, 0.000000000000000000, 0.000000000000000000, 0.000000000000000000, 0.000000000000000000 ) ;
#318 = CIRCLE ( 'NONE', #224, 0.3749999999999998890 ) ;
#319 = VERTEX_POINT ( 'NONE', #78 ) ;
#320 = SURFACE_SIDE_STYLE ('',( #44 ) ) ;
#321 = SURFACE_STYLE_USAGE ( .BOTH. , #280 ) ;
#322 = ORIENTED_EDGE ( 'NONE', *, *, #65, .F. ) ;
#323 = DIRECTION ( 'NONE',  ( 1.000000000000000000, 0.000000000000000000, -1.224646799147353207E-16 ) ) ;
#324 =( LENGTH_UNIT ( ) NAMED_UNIT ( * ) SI_UNIT ( $, .METRE. ) );
#325 = LINE ( 'NONE', #363, #298 ) ;
#326 = STYLED_ITEM ( 'NONE', ( #25 ), #328 ) ;
#327 =( CONVERSION_BASED_UNIT ( 'INCH', #292 ) LENGTH_UNIT ( ) NAMED_UNIT ( #150 ) );
#328 = ADVANCED_FACE ( 'NONE', ( #193 ), #279, .T. ) ;
#329 = CARTESIAN_POINT ( 'NONE',  ( 0.000000000000000000, 0.3750000000000001110, -0.3749999999999998890 ) ) ;
#330 = LINE ( 'NONE', #38, #80 ) ;
#331 = PRESENTATION_STYLE_ASSIGNMENT (( #60 ) ) ;
#332 = PRESENTATION_LAYER_ASSIGNMENT (  '', '', ( #235 ) ) ;
#333 =( NAMED_UNIT ( * ) SI_UNIT ( $, .STERADIAN. ) SOLID_ANGLE_UNIT ( ) );
#334 = CYLINDRICAL_SURFACE ( 'NONE', #180, 0.3749999999999996669 ) ;
#335 =( GEOMETRIC_REPRESENTATION_CONTEXT ( 3 ) GLOBAL_UNCERTAINTY_ASSIGNED_CONTEXT ( ( #278 ) ) GLOBAL_UNIT_ASSIGNED_CONTEXT ( ( #327, #238, #154 ) ) REPRESENTATION_CONTEXT ( 'NONE', 'WORKASPACE' ) );
#336 = CARTESIAN_POINT ( 'NONE',  ( 4.592425496802572986E-17, 0.3750000000000001110, 0.3749999999999998890 ) ) ;
#337 = EDGE_CURVE ( 'NONE', #199, #51, #195, .T. ) ;
#338 = CARTESIAN_POINT ( 'NONE',  ( 0.3749999999999997780, 2.250000000000000444, 4.592425496802571754E-17 ) ) ;
#339 = UNCERTAINTY_MEASURE_WITH_UNIT (LENGTH_MEASURE( 1.000000000000000082E-05 ), #107, 'distance_accuracy_value', 'NONE');
#340 = SURFACE_SIDE_STYLE ('',( #77 ) ) ;
#341 = DIMENSIONAL_EXPONENTS ( 1.000000000000000000, 0.000000000000000000, 0.000000000000000000, 0.000000000000000000, 0.000000000000000000, 0.000000000000000000, 0.000000000000000000 ) ;
#342 = COLOUR_RGB ( '',1.000000000000000000, 0.000000000000000000, 0.000000000000000000 ) ;
#343 = SURFACE_STYLE_FILL_AREA ( #169 ) ;
#344 = MANIFOLD_SOLID_BREP ( 'Revolve - Cutting Edge', #42 ) ;
#345 = ORIENTED_EDGE ( 'NONE', *, *, #124, .F. ) ;
#346 = CARTESIAN_POINT ( 'NONE',  ( 0.000000000000000000, 2.250000000000000000, 0.000000000000000000 ) ) ;
#347 = ORIENTED_EDGE ( 'NONE', *, *, #65, .T. ) ;
#348 = DIRECTION ( 'NONE',  ( -0.000000000000000000, -1.000000000000000000, -0.000000000000000000 ) ) ;
#349 =( CONVERSION_BASED_UNIT ( 'INCH', #88 ) LENGTH_UNIT ( ) NAMED_UNIT ( #219 ) );
#350 = MANIFOLD_SOLID_BREP ( 'Revolve - Tool Body (Straight Shanked)', #163 ) ;
#351 = STYLED_ITEM ( 'NONE', ( #11 ), #286 ) ;
#352 = EDGE_LOOP ( 'NONE', ( #322, #138 ) ) ;
#353 = EDGE_CURVE ( 'NONE', #232, #117, #265, .T. ) ;
#354 = FILL_AREA_STYLE_COLOUR ( '', #276 ) ;
#355 = ORIENTED_EDGE ( 'NONE', *, *, #4, .F. ) ;
#356 =( NAMED_UNIT ( * ) PLANE_ANGLE_UNIT ( ) SI_UNIT ( $, .RADIAN. ) );
#357 = CARTESIAN_POINT ( 'NONE',  ( 0.3749999999999997780, 5.000000000000000000, 4.592425496802571754E-17 ) ) ;
#358 = DIRECTION ( 'NONE',  ( 1.000000000000000000, 1.224646799147353207E-16, 0.000000000000000000 ) ) ;
#359 = CIRCLE ( 'NONE', #257, 0.3749999999999995559 ) ;
#360 = AXIS2_PLACEMENT_3D ( 'NONE', #161, #70, #92 ) ;
#361 = FACE_OUTER_BOUND ( 'NONE', #230, .T. ) ;
#362 = PRESENTATION_STYLE_ASSIGNMENT (( #234 ) ) ;
#363 = CARTESIAN_POINT ( 'NONE',  ( 4.592425496802572370E-17, 0.000000000000000000, 0.3749999999999998335 ) ) ;
#364 = SURFACE_STYLE_USAGE ( .BOTH. , #320 ) ;
#365 =( GEOMETRIC_REPRESENTATION_CONTEXT ( 3 ) GLOBAL_UNCERTAINTY_ASSIGNED_CONTEXT ( ( #203 ) ) GLOBAL_UNIT_ASSIGNED_CONTEXT ( ( #349, #356, #333 ) ) REPRESENTATION_CONTEXT ( 'NONE', 'WORKASPACE' ) );
#366 = EDGE_CURVE ( 'NONE', #56, #319, #241, .T. ) ;
#367 = DIRECTION ( 'NONE',  ( -1.000000000000000000, 0.000000000000000000, 0.000000000000000000 ) ) ;
#368 = DIRECTION ( 'NONE',  ( 1.000000000000000000, 0.000000000000000000, 0.000000000000000000 ) ) ;
#369 = DIRECTION ( 'NONE',  ( -0.000000000000000000, -1.000000000000000000, -0.000000000000000000 ) ) ;
#370 =( NAMED_UNIT ( * ) PLANE_ANGLE_UNIT ( ) SI_UNIT ( $, .RADIAN. ) );
#371 = DIRECTION ( 'NONE',  ( -1.224646799147353207E-16, 1.000000000000000000, -0.000000000000000000 ) ) ;
#372 = CARTESIAN_POINT ( 'NONE',  ( 0.000000000000000000, 0.000000000000000000, 0.000000000000000000 ) ) ;
#373 = ORIENTED_EDGE ( 'NONE', *, *, #246, .T. ) ;
ENDSEC;
END-ISO-10303-21;
