ISO-10303-21;
HEADER;
FILE_DESCRIPTION (( 'STEP AP214' ),
    '1' );
FILE_NAME ('59744.STEP',
    '2023-07-24T15:55:37',
    ( '' ),
    ( '' ),
    'SwSTEP 2.0',
    'SolidWorks 2023',
    '' );
FILE_SCHEMA (( 'AUTOMOTIVE_DESIGN' ));
ENDSEC;

DATA;
#1 = DIRECTION ( 'NONE',  ( -2.881521880346713429E-17, 1.000000000000000000, -0.000000000000000000 ) ) ;
#2 = ORIENTED_EDGE ( 'NONE', *, *, #205, .F. ) ;
#3 =( NAMED_UNIT ( * ) PLANE_ANGLE_UNIT ( ) SI_UNIT ( $, .RADIAN. ) );
#4 = AXIS2_PLACEMENT_3D ( 'NONE', #248, #133, #21 ) ;
#5 = CIRCLE ( 'NONE', #221, 6.000000000000001776 ) ;
#6 = CIRCLE ( 'NONE', #61, 6.000000000000000000 ) ;
#7 = SURFACE_STYLE_FILL_AREA ( #275 ) ;
#8 =( NAMED_UNIT ( * ) SI_UNIT ( $, .STERADIAN. ) SOLID_ANGLE_UNIT ( ) );
#9 = PRESENTATION_STYLE_ASSIGNMENT (( #279 ) ) ;
#10 =( NAMED_UNIT ( * ) SI_UNIT ( $, .STERADIAN. ) SOLID_ANGLE_UNIT ( ) );
#11 = APPLICATION_CONTEXT ( 'automotive_design' ) ;
#12 = SURFACE_SIDE_STYLE ('',( #243 ) ) ;
#13 = EDGE_LOOP ( 'NONE', ( #171, #58 ) ) ;
#14 = COLOUR_RGB ( '',0.7921568627450980005, 0.8196078431372548767, 0.9333333333333333481 ) ;
#15 =( GEOMETRIC_REPRESENTATION_CONTEXT ( 3 ) GLOBAL_UNCERTAINTY_ASSIGNED_CONTEXT ( ( #156 ) ) GLOBAL_UNIT_ASSIGNED_CONTEXT ( ( #57, #151, #131 ) ) REPRESENTATION_CONTEXT ( 'NONE', 'WORKASPACE' ) );
#16 = UNCERTAINTY_MEASURE_WITH_UNIT (LENGTH_MEASURE( 1.000000000000000082E-05 ), #54, 'distance_accuracy_value', 'NONE');
#17 = VERTEX_POINT ( 'NONE', #182 ) ;
#18 = ORIENTED_EDGE ( 'NONE', *, *, #124, .F. ) ;
#19 = ADVANCED_FACE ( 'NONE', ( #39 ), #160, .T. ) ;
#20 = CARTESIAN_POINT ( 'NONE',  ( 0.000000000000000000, 24.00000000000000000, 0.000000000000000000 ) ) ;
#21 = DIRECTION ( 'NONE',  ( -1.000000000000000000, 0.000000000000000000, 0.000000000000000000 ) ) ;
#22 = CARTESIAN_POINT ( 'NONE',  ( 0.000000000000000000, 0.000000000000000000, 0.000000000000000000 ) ) ;
#23 = FILL_AREA_STYLE_COLOUR ( '', #14 ) ;
#24 = FACE_OUTER_BOUND ( 'NONE', #208, .T. ) ;
#25 = EDGE_CURVE ( 'NONE', #87, #127, #44, .T. ) ;
#26 = SURFACE_STYLE_FILL_AREA ( #109 ) ;
#27 = CARTESIAN_POINT ( 'NONE',  ( -6.000000000000003553, 75.00000000000000000, 0.000000000000000000 ) ) ;
#28 = FACE_OUTER_BOUND ( 'NONE', #150, .T. ) ;
#29 = AXIS2_PLACEMENT_3D ( 'NONE', #191, #33, #65 ) ;
#30 = SURFACE_STYLE_USAGE ( .BOTH. , #255 ) ;
#31 =( NAMED_UNIT ( * ) SI_UNIT ( $, .STERADIAN. ) SOLID_ANGLE_UNIT ( ) );
#32 = DIRECTION ( 'NONE',  ( 0.000000000000000000, 0.000000000000000000, 1.000000000000000000 ) ) ;
#33 = DIRECTION ( 'NONE',  ( -0.000000000000000000, -1.000000000000000000, -0.000000000000000000 ) ) ;
#34 = SURFACE_STYLE_FILL_AREA ( #126 ) ;
#35 = PRESENTATION_LAYER_ASSIGNMENT (  '', '', ( #202 ) ) ;
#36 = DIRECTION ( 'NONE',  ( 0.000000000000000000, 1.000000000000000000, 0.000000000000000000 ) ) ;
#37 =( NAMED_UNIT ( * ) PLANE_ANGLE_UNIT ( ) SI_UNIT ( $, .RADIAN. ) );
#38 = ORIENTED_EDGE ( 'NONE', *, *, #78, .T. ) ;
#39 = FACE_OUTER_BOUND ( 'NONE', #95, .T. ) ;
#40 = MECHANICAL_DESIGN_GEOMETRIC_PRESENTATION_REPRESENTATION (  '', ( #77 ), #53 ) ;
#41 = SURFACE_STYLE_USAGE ( .BOTH. , #200 ) ;
#42 = DIRECTION ( 'NONE',  ( -2.881521880346713429E-17, 1.000000000000000000, -0.000000000000000000 ) ) ;
#43 = EDGE_CURVE ( 'NONE', #127, #87, #278, .T. ) ;
#44 = CIRCLE ( 'NONE', #268, 6.000000000000000000 ) ;
#45 = AXIS2_PLACEMENT_3D ( 'NONE', #204, #267, #68 ) ;
#46 =( GEOMETRIC_REPRESENTATION_CONTEXT ( 3 ) GLOBAL_UNCERTAINTY_ASSIGNED_CONTEXT ( ( #219 ) ) GLOBAL_UNIT_ASSIGNED_CONTEXT ( ( #123, #3, #10 ) ) REPRESENTATION_CONTEXT ( 'NONE', 'WORKASPACE' ) );
#47 = CARTESIAN_POINT ( 'NONE',  ( -1.469576158976823750E-15, 75.00000000000000000, 0.000000000000000000 ) ) ;
#48 = LINE ( 'NONE', #76, #172 ) ;
#49 = DIRECTION ( 'NONE',  ( 0.000000000000000000, -1.000000000000000000, -0.000000000000000000 ) ) ;
#50 = PRODUCT_RELATED_PRODUCT_CATEGORY ( 'part', '', ( #132 ) ) ;
#51 = CARTESIAN_POINT ( 'NONE',  ( 0.000000000000000000, 0.000000000000000000, 0.000000000000000000 ) ) ;
#52 = CIRCLE ( 'NONE', #168, 6.000000000000001776 ) ;
#53 =( GEOMETRIC_REPRESENTATION_CONTEXT ( 3 ) GLOBAL_UNCERTAINTY_ASSIGNED_CONTEXT ( ( #251 ) ) GLOBAL_UNIT_ASSIGNED_CONTEXT ( ( #272, #215, #8 ) ) REPRESENTATION_CONTEXT ( 'NONE', 'WORKASPACE' ) );
#54 =( LENGTH_UNIT ( ) NAMED_UNIT ( * ) SI_UNIT ( .MILLI., .METRE. ) );
#55 =( GEOMETRIC_REPRESENTATION_CONTEXT ( 3 ) GLOBAL_UNCERTAINTY_ASSIGNED_CONTEXT ( ( #113 ) ) GLOBAL_UNIT_ASSIGNED_CONTEXT ( ( #197, #105, #83 ) ) REPRESENTATION_CONTEXT ( 'NONE', 'WORKASPACE' ) );
#56 = CARTESIAN_POINT ( 'NONE',  ( 0.000000000000000000, 24.00000000000000000, 0.000000000000000000 ) ) ;
#57 =( LENGTH_UNIT ( ) NAMED_UNIT ( * ) SI_UNIT ( .MILLI., .METRE. ) );
#58 = ORIENTED_EDGE ( 'NONE', *, *, #25, .T. ) ;
#59 = SURFACE_SIDE_STYLE ('',( #128 ) ) ;
#60 = VERTEX_POINT ( 'NONE', #90 ) ;
#61 = AXIS2_PLACEMENT_3D ( 'NONE', #120, #213, #98 ) ;
#62 = PRODUCT_DEFINITION_FORMATION_WITH_SPECIFIED_SOURCE ( 'ANY', '', #132, .NOT_KNOWN. ) ;
#63 = FILL_AREA_STYLE_COLOUR ( '', #265 ) ;
#64 = MANIFOLD_SOLID_BREP ( 'Revolve - Tool Body (Straight Shanked)', #187 ) ;
#65 = DIRECTION ( 'NONE',  ( 0.000000000000000000, 0.000000000000000000, -1.000000000000000000 ) ) ;
#66 = UNCERTAINTY_MEASURE_WITH_UNIT (LENGTH_MEASURE( 1.000000000000000082E-05 ), #85, 'distance_accuracy_value', 'NONE');
#67 = VECTOR ( 'NONE', #1, 1000.000000000000000 ) ;
#68 = DIRECTION ( 'NONE',  ( 0.000000000000000000, 0.000000000000000000, -1.000000000000000000 ) ) ;
#69 = DIRECTION ( 'NONE',  ( 1.000000000000000000, 2.881521880346713429E-17, 0.000000000000000000 ) ) ;
#70 =( GEOMETRIC_REPRESENTATION_CONTEXT ( 3 ) GLOBAL_UNCERTAINTY_ASSIGNED_CONTEXT ( ( #66 ) ) GLOBAL_UNIT_ASSIGNED_CONTEXT ( ( #85, #37, #262 ) ) REPRESENTATION_CONTEXT ( 'NONE', 'WORKASPACE' ) );
#71 = ADVANCED_FACE ( 'NONE', ( #24 ), #88, .F. ) ;
#72 = PRESENTATION_STYLE_ASSIGNMENT (( #30 ) ) ;
#73 = FILL_AREA_STYLE_COLOUR ( '', #288 ) ;
#74 = EDGE_LOOP ( 'NONE', ( #240, #282, #284, #86 ) ) ;
#75 = DIRECTION ( 'NONE',  ( -1.000000000000000000, -2.881521880346713429E-17, 0.000000000000000000 ) ) ;
#76 = CARTESIAN_POINT ( 'NONE',  ( 0.000000000000000000, 0.000000000000000000, -6.000000000000000000 ) ) ;
#77 = STYLED_ITEM ( 'NONE', ( #237 ), #286 ) ;
#78 = EDGE_CURVE ( 'NONE', #60, #174, #246, .T. ) ;
#79 = EDGE_LOOP ( 'NONE', ( #125, #195 ) ) ;
#80 = PRESENTATION_STYLE_ASSIGNMENT (( #277 ) ) ;
#81 = CARTESIAN_POINT ( 'NONE',  ( 7.347880794884119736E-16, 24.00000000000000000, 6.000000000000000000 ) ) ;
#82 = SURFACE_STYLE_USAGE ( .BOTH. , #12 ) ;
#83 =( NAMED_UNIT ( * ) SI_UNIT ( $, .STERADIAN. ) SOLID_ANGLE_UNIT ( ) );
#84 = COLOUR_RGB ( '',1.000000000000000000, 0.000000000000000000, 0.000000000000000000 ) ;
#85 =( LENGTH_UNIT ( ) NAMED_UNIT ( * ) SI_UNIT ( .MILLI., .METRE. ) );
#86 = ORIENTED_EDGE ( 'NONE', *, *, #283, .F. ) ;
#87 = VERTEX_POINT ( 'NONE', #270 ) ;
#88 = PLANE ( 'NONE',  #241 ) ;
#89 = COLOUR_RGB ( '',1.000000000000000000, 0.000000000000000000, 0.000000000000000000 ) ;
#90 = CARTESIAN_POINT ( 'NONE',  ( 6.000000000000000000, 24.00000000000000000, 7.347880794884120722E-16 ) ) ;
#91 = ADVANCED_FACE ( 'NONE', ( #165 ), #163, .T. ) ;
#92 = CARTESIAN_POINT ( 'NONE',  ( 0.000000000000000000, 0.000000000000000000, 0.000000000000000000 ) ) ;
#93 = PRESENTATION_STYLE_ASSIGNMENT (( #41 ) ) ;
#94 = CARTESIAN_POINT ( 'NONE',  ( -6.000000000000002665, 75.00000000000000000, 0.000000000000000000 ) ) ;
#95 = EDGE_LOOP ( 'NONE', ( #192, #38, #186, #260 ) ) ;
#96 = APPLICATION_PROTOCOL_DEFINITION ( 'draft international standard', 'automotive_design', 1998, #11 ) ;
#97 = DIRECTION ( 'NONE',  ( -0.000000000000000000, -1.000000000000000000, -0.000000000000000000 ) ) ;
#98 = DIRECTION ( 'NONE',  ( -1.000000000000000000, 0.000000000000000000, 0.000000000000000000 ) ) ;
#99 = CYLINDRICAL_SURFACE ( 'NONE', #29, 6.000000000000000000 ) ;
#100 = CARTESIAN_POINT ( 'NONE',  ( 0.000000000000000000, 0.000000000000000000, 0.000000000000000000 ) ) ;
#101 = VERTEX_POINT ( 'NONE', #222 ) ;
#102 = STYLED_ITEM ( 'NONE', ( #93 ), #64 ) ;
#103 = PRESENTATION_LAYER_ASSIGNMENT (  '', '', ( #162 ) ) ;
#104 = FILL_AREA_STYLE_COLOUR ( '', #111 ) ;
#105 =( NAMED_UNIT ( * ) PLANE_ANGLE_UNIT ( ) SI_UNIT ( $, .RADIAN. ) );
#106 = DIRECTION ( 'NONE',  ( 0.000000000000000000, -0.000000000000000000, 1.000000000000000000 ) ) ;
#107 = ORIENTED_EDGE ( 'NONE', *, *, #108, .T. ) ;
#108 = EDGE_CURVE ( 'NONE', #101, #258, #184, .T. ) ;
#109 = FILL_AREA_STYLE ('',( #23 ) ) ;
#110 = DIRECTION ( 'NONE',  ( 0.000000000000000000, 0.000000000000000000, -1.000000000000000000 ) ) ;
#111 = COLOUR_RGB ( '',1.000000000000000000, 0.000000000000000000, 0.000000000000000000 ) ;
#112 = CARTESIAN_POINT ( 'NONE',  ( 5.999999999999999112, 75.00000000000000000, 7.347880794884120722E-16 ) ) ;
#113 = UNCERTAINTY_MEASURE_WITH_UNIT (LENGTH_MEASURE( 1.000000000000000082E-05 ), #197, 'distance_accuracy_value', 'NONE');
#114 = DIRECTION ( 'NONE',  ( -1.000000000000000000, 0.000000000000000000, 0.000000000000000000 ) ) ;
#115 = AXIS2_PLACEMENT_3D ( 'NONE', #20, #36, #106 ) ;
#116 = CARTESIAN_POINT ( 'NONE',  ( -1.469576158976823750E-15, 75.00000000000000000, 0.000000000000000000 ) ) ;
#117 = DIRECTION ( 'NONE',  ( -2.881521880346713429E-17, 1.000000000000000000, 0.000000000000000000 ) ) ;
#118 =( NAMED_UNIT ( * ) PLANE_ANGLE_UNIT ( ) SI_UNIT ( $, .RADIAN. ) );
#119 = ADVANCED_FACE ( 'NONE', ( #28 ), #122, .T. ) ;
#120 = CARTESIAN_POINT ( 'NONE',  ( 0.000000000000000000, 24.00000000000000000, 0.000000000000000000 ) ) ;
#121 = LINE ( 'NONE', #94, #67 ) ;
#122 = CYLINDRICAL_SURFACE ( 'NONE', #206, 6.000000000000000000 ) ;
#123 =( LENGTH_UNIT ( ) NAMED_UNIT ( * ) SI_UNIT ( .MILLI., .METRE. ) );
#124 = EDGE_CURVE ( 'NONE', #101, #127, #48, .T. ) ;
#125 = ORIENTED_EDGE ( 'NONE', *, *, #148, .F. ) ;
#126 = FILL_AREA_STYLE ('',( #104 ) ) ;
#127 = VERTEX_POINT ( 'NONE', #141 ) ;
#128 = SURFACE_STYLE_FILL_AREA ( #261 ) ;
#129 =( GEOMETRIC_REPRESENTATION_CONTEXT ( 3 ) GLOBAL_UNCERTAINTY_ASSIGNED_CONTEXT ( ( #158 ) ) GLOBAL_UNIT_ASSIGNED_CONTEXT ( ( #134, #201, #203 ) ) REPRESENTATION_CONTEXT ( 'NONE', 'WORKASPACE' ) );
#130 = DIRECTION ( 'NONE',  ( -1.000000000000000000, 0.000000000000000000, 0.000000000000000000 ) ) ;
#131 =( NAMED_UNIT ( * ) SI_UNIT ( $, .STERADIAN. ) SOLID_ANGLE_UNIT ( ) );
#132 = PRODUCT ( '59744', '59744', '', ( #231 ) ) ;
#133 = DIRECTION ( 'NONE',  ( -2.881521880346713429E-17, 1.000000000000000000, -0.000000000000000000 ) ) ;
#134 =( LENGTH_UNIT ( ) NAMED_UNIT ( * ) SI_UNIT ( .MILLI., .METRE. ) );
#135 = AXIS2_PLACEMENT_3D ( 'NONE', #250, #180, #114 ) ;
#136 = MECHANICAL_DESIGN_GEOMETRIC_PRESENTATION_REPRESENTATION (  '', ( #162 ), #15 ) ;
#137 = DIRECTION ( 'NONE',  ( -1.000000000000000000, 0.000000000000000000, 0.000000000000000000 ) ) ;
#138 = CARTESIAN_POINT ( 'NONE',  ( 6.000000000000000000, 75.00000000000000000, 7.347880794884120722E-16 ) ) ;
#139 = PRODUCT_DEFINITION_SHAPE ( 'NONE', 'NONE',  #161 ) ;
#140 = PRESENTATION_LAYER_ASSIGNMENT (  '', '', ( #102 ) ) ;
#141 = CARTESIAN_POINT ( 'NONE',  ( 0.000000000000000000, 0.000000000000000000, -6.000000000000000000 ) ) ;
#142 = APPLICATION_PROTOCOL_DEFINITION ( 'draft international standard', 'automotive_design', 1998, #177 ) ;
#143 = EDGE_CURVE ( 'NONE', #17, #276, #121, .T. ) ;
#144 = FACE_OUTER_BOUND ( 'NONE', #13, .T. ) ;
#145 = DIRECTION ( 'NONE',  ( 1.000000000000000000, 0.000000000000000000, 0.000000000000000000 ) ) ;
#146 = PLANE ( 'NONE',  #207 ) ;
#147 = DIRECTION ( 'NONE',  ( -1.000000000000000000, 0.000000000000000000, 0.000000000000000000 ) ) ;
#148 = EDGE_CURVE ( 'NONE', #17, #60, #6, .T. ) ;
#149 = MECHANICAL_DESIGN_GEOMETRIC_PRESENTATION_REPRESENTATION (  '', ( #271 ), #70 ) ;
#150 = EDGE_LOOP ( 'NONE', ( #107, #173, #225, #18 ) ) ;
#151 =( NAMED_UNIT ( * ) PLANE_ANGLE_UNIT ( ) SI_UNIT ( $, .RADIAN. ) );
#152 = ORIENTED_EDGE ( 'NONE', *, *, #179, .T. ) ;
#153 = SURFACE_STYLE_USAGE ( .BOTH. , #59 ) ;
#154 = PRESENTATION_STYLE_ASSIGNMENT (( #82 ) ) ;
#155 = STYLED_ITEM ( 'NONE', ( #9 ), #238 ) ;
#156 = UNCERTAINTY_MEASURE_WITH_UNIT (LENGTH_MEASURE( 1.000000000000000082E-05 ), #57, 'distance_accuracy_value', 'NONE');
#157 = SURFACE_SIDE_STYLE ('',( #259 ) ) ;
#158 = UNCERTAINTY_MEASURE_WITH_UNIT (LENGTH_MEASURE( 1.000000000000000082E-05 ), #134, 'distance_accuracy_value', 'NONE');
#159 = FILL_AREA_STYLE ('',( #63 ) ) ;
#160 = CYLINDRICAL_SURFACE ( 'NONE', #4, 6.000000000000000888 ) ;
#161 = PRODUCT_DEFINITION ( 'UNKNOWN', '', #62, #285 ) ;
#162 = STYLED_ITEM ( 'NONE', ( #80 ), #263 ) ;
#163 = CYLINDRICAL_SURFACE ( 'NONE', #135, 6.000000000000000888 ) ;
#164 =( GEOMETRIC_REPRESENTATION_CONTEXT ( 3 ) GLOBAL_UNCERTAINTY_ASSIGNED_CONTEXT ( ( #16 ) ) GLOBAL_UNIT_ASSIGNED_CONTEXT ( ( #54, #118, #31 ) ) REPRESENTATION_CONTEXT ( 'NONE', 'WORKASPACE' ) );
#165 = FACE_OUTER_BOUND ( 'NONE', #74, .T. ) ;
#166 = DIRECTION ( 'NONE',  ( -0.000000000000000000, -1.000000000000000000, -0.000000000000000000 ) ) ;
#167 = DIRECTION ( 'NONE',  ( -2.881521880346713429E-17, 1.000000000000000000, -0.000000000000000000 ) ) ;
#168 = AXIS2_PLACEMENT_3D ( 'NONE', #47, #167, #137 ) ;
#169 = DIRECTION ( 'NONE',  ( 0.000000000000000000, 0.000000000000000000, -1.000000000000000000 ) ) ;
#170 = CARTESIAN_POINT ( 'NONE',  ( 2.490950504075057843E-33, 24.00000000000000000, 0.000000000000000000 ) ) ;
#171 = ORIENTED_EDGE ( 'NONE', *, *, #43, .T. ) ;
#172 = VECTOR ( 'NONE', #166, 1000.000000000000000 ) ;
#173 = ORIENTED_EDGE ( 'NONE', *, *, #205, .T. ) ;
#174 = VERTEX_POINT ( 'NONE', #138 ) ;
#175 = PLANE ( 'NONE',  #181 ) ;
#176 = VECTOR ( 'NONE', #230, 1000.000000000000000 ) ;
#177 = APPLICATION_CONTEXT ( 'automotive_design' ) ;
#178 = ORIENTED_EDGE ( 'NONE', *, *, #283, .T. ) ;
#179 = EDGE_CURVE ( 'NONE', #258, #101, #274, .T. ) ;
#180 = DIRECTION ( 'NONE',  ( -2.881521880346713429E-17, 1.000000000000000000, -0.000000000000000000 ) ) ;
#181 = AXIS2_PLACEMENT_3D ( 'NONE', #170, #117, #75 ) ;
#182 = CARTESIAN_POINT ( 'NONE',  ( -6.000000000000000000, 24.00000000000000000, 0.000000000000000000 ) ) ;
#183 = DIRECTION ( 'NONE',  ( -0.000000000000000000, -1.000000000000000000, -0.000000000000000000 ) ) ;
#184 = CIRCLE ( 'NONE', #45, 6.000000000000000000 ) ;
#185 = DIRECTION ( 'NONE',  ( -2.881521880346713429E-17, 1.000000000000000000, -0.000000000000000000 ) ) ;
#186 = ORIENTED_EDGE ( 'NONE', *, *, #190, .F. ) ;
#187 = CLOSED_SHELL ( 'NONE', ( #19, #273, #91, #71 ) ) ;
#188 = AXIS2_PLACEMENT_3D ( 'NONE', #56, #214, #130 ) ;
#189 = DIRECTION ( 'NONE',  ( -0.000000000000000000, -1.000000000000000000, -0.000000000000000000 ) ) ;
#190 = EDGE_CURVE ( 'NONE', #276, #174, #5, .T. ) ;
#191 = CARTESIAN_POINT ( 'NONE',  ( 0.000000000000000000, 0.000000000000000000, 0.000000000000000000 ) ) ;
#192 = ORIENTED_EDGE ( 'NONE', *, *, #148, .T. ) ;
#193 = MECHANICAL_DESIGN_GEOMETRIC_PRESENTATION_REPRESENTATION (  '', ( #102 ), #129 ) ;
#194 = AXIS2_PLACEMENT_3D ( 'NONE', #100, #32, #145 ) ;
#195 = ORIENTED_EDGE ( 'NONE', *, *, #217, .F. ) ;
#196 = ORIENTED_EDGE ( 'NONE', *, *, #108, .F. ) ;
#197 =( LENGTH_UNIT ( ) NAMED_UNIT ( * ) SI_UNIT ( .MILLI., .METRE. ) );
#198 = EDGE_LOOP ( 'NONE', ( #2, #152, #236, #199 ) ) ;
#199 = ORIENTED_EDGE ( 'NONE', *, *, #25, .F. ) ;
#200 = SURFACE_SIDE_STYLE ('',( #26 ) ) ;
#201 =( NAMED_UNIT ( * ) PLANE_ANGLE_UNIT ( ) SI_UNIT ( $, .RADIAN. ) );
#202 = STYLED_ITEM ( 'NONE', ( #72 ), #119 ) ;
#203 =( NAMED_UNIT ( * ) SI_UNIT ( $, .STERADIAN. ) SOLID_ANGLE_UNIT ( ) );
#204 = CARTESIAN_POINT ( 'NONE',  ( 0.000000000000000000, 24.00000000000000000, 0.000000000000000000 ) ) ;
#205 = EDGE_CURVE ( 'NONE', #258, #87, #234, .T. ) ;
#206 = AXIS2_PLACEMENT_3D ( 'NONE', #51, #97, #169 ) ;
#207 = AXIS2_PLACEMENT_3D ( 'NONE', #209, #49, #227 ) ;
#208 = EDGE_LOOP ( 'NONE', ( #242, #178 ) ) ;
#209 = CARTESIAN_POINT ( 'NONE',  ( 0.000000000000000000, 0.000000000000000000, 0.000000000000000000 ) ) ;
#210 = SHAPE_DEFINITION_REPRESENTATION ( #139, #280 ) ;
#211 = CARTESIAN_POINT ( 'NONE',  ( 7.347880794884119736E-16, 0.000000000000000000, 6.000000000000000000 ) ) ;
#212 = MECHANICAL_DESIGN_GEOMETRIC_PRESENTATION_REPRESENTATION (  '', ( #155 ), #55 ) ;
#213 = DIRECTION ( 'NONE',  ( -2.881521880346713429E-17, 1.000000000000000000, -0.000000000000000000 ) ) ;
#214 = DIRECTION ( 'NONE',  ( -2.881521880346713429E-17, 1.000000000000000000, -0.000000000000000000 ) ) ;
#215 =( NAMED_UNIT ( * ) PLANE_ANGLE_UNIT ( ) SI_UNIT ( $, .RADIAN. ) );
#216 = FACE_OUTER_BOUND ( 'NONE', #264, .T. ) ;
#217 = EDGE_CURVE ( 'NONE', #60, #17, #245, .T. ) ;
#218 = FILL_AREA_STYLE_COLOUR ( '', #89 ) ;
#219 = UNCERTAINTY_MEASURE_WITH_UNIT (LENGTH_MEASURE( 1.000000000000000082E-05 ), #123, 'distance_accuracy_value', 'NONE');
#220 = FACE_OUTER_BOUND ( 'NONE', #198, .T. ) ;
#221 = AXIS2_PLACEMENT_3D ( 'NONE', #116, #185, #147 ) ;
#222 = CARTESIAN_POINT ( 'NONE',  ( 0.000000000000000000, 24.00000000000000000, -6.000000000000000000 ) ) ;
#223 = DIRECTION ( 'NONE',  ( -0.000000000000000000, -1.000000000000000000, -0.000000000000000000 ) ) ;
#224 = FILL_AREA_STYLE_COLOUR ( '', #84 ) ;
#225 = ORIENTED_EDGE ( 'NONE', *, *, #43, .F. ) ;
#226 = CARTESIAN_POINT ( 'NONE',  ( 0.000000000000000000, 24.00000000000000000, 0.000000000000000000 ) ) ;
#227 = DIRECTION ( 'NONE',  ( 0.000000000000000000, 0.000000000000000000, -1.000000000000000000 ) ) ;
#228 = AXIS2_PLACEMENT_3D ( 'NONE', #92, #223, #110 ) ;
#229 = PRESENTATION_LAYER_ASSIGNMENT (  '', '', ( #155 ) ) ;
#230 = DIRECTION ( 'NONE',  ( -0.000000000000000000, -1.000000000000000000, -0.000000000000000000 ) ) ;
#231 = PRODUCT_CONTEXT ( 'NONE', #177, 'mechanical' ) ;
#232 = CLOSED_SHELL ( 'NONE', ( #119, #235, #238, #286 ) ) ;
#233 = MECHANICAL_DESIGN_GEOMETRIC_PRESENTATION_REPRESENTATION (  '', ( #202 ), #164 ) ;
#234 = LINE ( 'NONE', #211, #176 ) ;
#235 = ADVANCED_FACE ( 'NONE', ( #216 ), #266, .T. ) ;
#236 = ORIENTED_EDGE ( 'NONE', *, *, #124, .T. ) ;
#237 = PRESENTATION_STYLE_ASSIGNMENT (( #153 ) ) ;
#238 = ADVANCED_FACE ( 'NONE', ( #220 ), #99, .T. ) ;
#239 = FILL_AREA_STYLE ('',( #218 ) ) ;
#240 = ORIENTED_EDGE ( 'NONE', *, *, #78, .F. ) ;
#241 = AXIS2_PLACEMENT_3D ( 'NONE', #269, #247, #69 ) ;
#242 = ORIENTED_EDGE ( 'NONE', *, *, #190, .T. ) ;
#243 = SURFACE_STYLE_FILL_AREA ( #239 ) ;
#244 = ORIENTED_EDGE ( 'NONE', *, *, #179, .F. ) ;
#245 = CIRCLE ( 'NONE', #188, 6.000000000000000000 ) ;
#246 = LINE ( 'NONE', #112, #253 ) ;
#247 = DIRECTION ( 'NONE',  ( 2.881521880346713429E-17, -1.000000000000000000, 0.000000000000000000 ) ) ;
#248 = CARTESIAN_POINT ( 'NONE',  ( -1.469576158976823750E-15, 75.00000000000000000, 0.000000000000000000 ) ) ;
#249 = AXIS2_PLACEMENT_3D ( 'NONE', #226, #189, #256 ) ;
#250 = CARTESIAN_POINT ( 'NONE',  ( -1.469576158976823750E-15, 75.00000000000000000, 0.000000000000000000 ) ) ;
#251 = UNCERTAINTY_MEASURE_WITH_UNIT (LENGTH_MEASURE( 1.000000000000000082E-05 ), #272, 'distance_accuracy_value', 'NONE');
#252 = FACE_OUTER_BOUND ( 'NONE', #79, .T. ) ;
#253 = VECTOR ( 'NONE', #42, 1000.000000000000000 ) ;
#254 = PRESENTATION_LAYER_ASSIGNMENT (  '', '', ( #77 ) ) ;
#255 = SURFACE_SIDE_STYLE ('',( #7 ) ) ;
#256 = DIRECTION ( 'NONE',  ( 0.000000000000000000, 0.000000000000000000, -1.000000000000000000 ) ) ;
#257 = PRESENTATION_LAYER_ASSIGNMENT (  '', '', ( #271 ) ) ;
#258 = VERTEX_POINT ( 'NONE', #81 ) ;
#259 = SURFACE_STYLE_FILL_AREA ( #159 ) ;
#260 = ORIENTED_EDGE ( 'NONE', *, *, #143, .F. ) ;
#261 = FILL_AREA_STYLE ('',( #224 ) ) ;
#262 =( NAMED_UNIT ( * ) SI_UNIT ( $, .STERADIAN. ) SOLID_ANGLE_UNIT ( ) );
#263 = MANIFOLD_SOLID_BREP ( 'Revolve - Cutting Edge', #232 ) ;
#264 = EDGE_LOOP ( 'NONE', ( #196, #244 ) ) ;
#265 = COLOUR_RGB ( '',0.7921568627450980005, 0.8196078431372548767, 0.9333333333333333481 ) ;
#266 = PLANE ( 'NONE',  #115 ) ;
#267 = DIRECTION ( 'NONE',  ( -0.000000000000000000, -1.000000000000000000, -0.000000000000000000 ) ) ;
#268 = AXIS2_PLACEMENT_3D ( 'NONE', #22, #183, #287 ) ;
#269 = CARTESIAN_POINT ( 'NONE',  ( 6.000000000000000000, 75.00000000000000000, 0.000000000000000000 ) ) ;
#270 = CARTESIAN_POINT ( 'NONE',  ( 7.347880794884119736E-16, 0.000000000000000000, 6.000000000000000000 ) ) ;
#271 = STYLED_ITEM ( 'NONE', ( #154 ), #235 ) ;
#272 =( LENGTH_UNIT ( ) NAMED_UNIT ( * ) SI_UNIT ( .MILLI., .METRE. ) );
#273 = ADVANCED_FACE ( 'NONE', ( #252 ), #175, .F. ) ;
#274 = CIRCLE ( 'NONE', #249, 6.000000000000000000 ) ;
#275 = FILL_AREA_STYLE ('',( #73 ) ) ;
#276 = VERTEX_POINT ( 'NONE', #27 ) ;
#277 = SURFACE_STYLE_USAGE ( .BOTH. , #157 ) ;
#278 = CIRCLE ( 'NONE', #228, 6.000000000000000000 ) ;
#279 = SURFACE_STYLE_USAGE ( .BOTH. , #281 ) ;
#280 = ADVANCED_BREP_SHAPE_REPRESENTATION ( '59744', ( #263, #64, #194 ), #46 ) ;
#281 = SURFACE_SIDE_STYLE ('',( #34 ) ) ;
#282 = ORIENTED_EDGE ( 'NONE', *, *, #217, .T. ) ;
#283 = EDGE_CURVE ( 'NONE', #174, #276, #52, .T. ) ;
#284 = ORIENTED_EDGE ( 'NONE', *, *, #143, .T. ) ;
#285 = PRODUCT_DEFINITION_CONTEXT ( 'detailed design', #11, 'design' ) ;
#286 = ADVANCED_FACE ( 'NONE', ( #144 ), #146, .T. ) ;
#287 = DIRECTION ( 'NONE',  ( 0.000000000000000000, 0.000000000000000000, -1.000000000000000000 ) ) ;
#288 = COLOUR_RGB ( '',1.000000000000000000, 0.000000000000000000, 0.000000000000000000 ) ;
ENDSEC;
END-ISO-10303-21;
