ISO-10303-21;
HEADER;
FILE_DESCRIPTION (( 'STEP AP214' ),
    '1' );
FILE_NAME ('17467.STEP',
    '2023-06-30T21:54:13',
    ( '' ),
    ( '' ),
    'SwSTEP 2.0',
    'SolidWorks 2023',
    '' );
FILE_SCHEMA (( 'AUTOMOTIVE_DESIGN' ));
ENDSEC;

DATA;
#1 = DIRECTION ( 'NONE',  ( -0.000000000000000000, -1.000000000000000000, -0.000000000000000000 ) ) ;
#2 = VERTEX_POINT ( 'NONE', #141 ) ;
#3 = DIRECTION ( 'NONE',  ( -1.224646799147353454E-16, 1.000000000000000000, -0.000000000000000000 ) ) ;
#4 = ORIENTED_EDGE ( 'NONE', *, *, #85, .T. ) ;
#5 = ORIENTED_EDGE ( 'NONE', *, *, #308, .T. ) ;
#6 = FACE_OUTER_BOUND ( 'NONE', #284, .T. ) ;
#7 = CIRCLE ( 'NONE', #274, 0.2500000000000000000 ) ;
#8 =( CONVERSION_BASED_UNIT ( 'INCH', #100 ) LENGTH_UNIT ( ) NAMED_UNIT ( #191 ) );
#9 = DIRECTION ( 'NONE',  ( 1.000000000000000000, 0.000000000000000000, -1.224646799147353207E-16 ) ) ;
#10 = PRODUCT_DEFINITION_SHAPE ( 'NONE', 'NONE',  #306 ) ;
#11 = SURFACE_STYLE_USAGE ( .BOTH. , #131 ) ;
#12 = CARTESIAN_POINT ( 'NONE',  ( 3.061616997868382402E-17, 0.000000000000000000, 0.2499999999999999167 ) ) ;
#13 = AXIS2_PLACEMENT_3D ( 'NONE', #135, #34, #75 ) ;
#14 =( NAMED_UNIT ( * ) SI_UNIT ( $, .STERADIAN. ) SOLID_ANGLE_UNIT ( ) );
#15 =( GEOMETRIC_REPRESENTATION_CONTEXT ( 3 ) GLOBAL_UNCERTAINTY_ASSIGNED_CONTEXT ( ( #133 ) ) GLOBAL_UNIT_ASSIGNED_CONTEXT ( ( #155, #275, #330 ) ) REPRESENTATION_CONTEXT ( 'NONE', 'WORKASPACE' ) );
#16 = DIMENSIONAL_EXPONENTS ( 1.000000000000000000, 0.000000000000000000, 0.000000000000000000, 0.000000000000000000, 0.000000000000000000, 0.000000000000000000, 0.000000000000000000 ) ;
#17 =( GEOMETRIC_REPRESENTATION_CONTEXT ( 3 ) GLOBAL_UNCERTAINTY_ASSIGNED_CONTEXT ( ( #281 ) ) GLOBAL_UNIT_ASSIGNED_CONTEXT ( ( #208, #266, #95 ) ) REPRESENTATION_CONTEXT ( 'NONE', 'WORKASPACE' ) );
#18 = DIRECTION ( 'NONE',  ( 1.224646799147353454E-16, -1.000000000000000000, 0.000000000000000000 ) ) ;
#19 = LENGTH_MEASURE_WITH_UNIT ( LENGTH_MEASURE( 0.02539999999999999897 ), #82 );
#20 = APPLICATION_CONTEXT ( 'automotive_design' ) ;
#21 = PRESENTATION_LAYER_ASSIGNMENT (  '', '', ( #252 ) ) ;
#22 = COLOUR_RGB ( '',0.7921568627450980005, 0.8196078431372548767, 0.9333333333333333481 ) ;
#23 = PRESENTATION_STYLE_ASSIGNMENT (( #134 ) ) ;
#24 = EDGE_CURVE ( 'NONE', #316, #373, #290, .T. ) ;
#25 = ORIENTED_EDGE ( 'NONE', *, *, #54, .F. ) ;
#26 = EDGE_LOOP ( 'NONE', ( #164, #92 ) ) ;
#27 = FACE_OUTER_BOUND ( 'NONE', #30, .T. ) ;
#28 = DIRECTION ( 'NONE',  ( -1.000000000000000000, 0.000000000000000000, 0.000000000000000000 ) ) ;
#29 = PRODUCT_CONTEXT ( 'NONE', #20, 'mechanical' ) ;
#30 = EDGE_LOOP ( 'NONE', ( #62, #198, #234, #253 ) ) ;
#31 = CARTESIAN_POINT ( 'NONE',  ( -3.061616997868383018E-17, 0.2500000000000000000, 0.000000000000000000 ) ) ;
#32 = COLOUR_RGB ( '',1.000000000000000000, 0.000000000000000000, 0.000000000000000000 ) ;
#33 = CARTESIAN_POINT ( 'NONE',  ( -3.061616997868383018E-17, 0.2500000000000000000, 0.000000000000000000 ) ) ;
#34 = DIRECTION ( 'NONE',  ( 0.000000000000000000, 0.000000000000000000, 1.000000000000000000 ) ) ;
#35 = LINE ( 'NONE', #356, #40 ) ;
#36 =( LENGTH_UNIT ( ) NAMED_UNIT ( * ) SI_UNIT ( $, .METRE. ) );
#37 = AXIS2_PLACEMENT_3D ( 'NONE', #348, #65, #324 ) ;
#38 =( LENGTH_UNIT ( ) NAMED_UNIT ( * ) SI_UNIT ( $, .METRE. ) );
#39 = CARTESIAN_POINT ( 'NONE',  ( -0.2499999999999995837, 1.250000000000000000, 0.000000000000000000 ) ) ;
#40 = VECTOR ( 'NONE', #78, 39.37007874015748143 ) ;
#41 =( LENGTH_UNIT ( ) NAMED_UNIT ( * ) SI_UNIT ( $, .METRE. ) );
#42 = DIRECTION ( 'NONE',  ( -1.000000000000000000, 0.000000000000000000, 0.000000000000000000 ) ) ;
#43 = CARTESIAN_POINT ( 'NONE',  ( -3.061616997868383018E-17, 0.2500000000000000000, 0.000000000000000000 ) ) ;
#44 = CARTESIAN_POINT ( 'NONE',  ( -0.2500000000000000000, 3.000000000000000444, 0.000000000000000000 ) ) ;
#45 = APPLICATION_CONTEXT ( 'automotive_design' ) ;
#46 = CIRCLE ( 'NONE', #139, 0.2500000000000000000 ) ;
#47 =( CONVERSION_BASED_UNIT ( 'INCH', #254 ) LENGTH_UNIT ( ) NAMED_UNIT ( #271 ) );
#48 = ORIENTED_EDGE ( 'NONE', *, *, #308, .F. ) ;
#49 = UNCERTAINTY_MEASURE_WITH_UNIT (LENGTH_MEASURE( 1.000000000000000082E-05 ), #47, 'distance_accuracy_value', 'NONE');
#50 = SPHERICAL_SURFACE ( 'NONE', #228, 0.2500000000000000000 ) ;
#51 = ORIENTED_EDGE ( 'NONE', *, *, #210, .F. ) ;
#52 = MECHANICAL_DESIGN_GEOMETRIC_PRESENTATION_REPRESENTATION (  '', ( #218 ), #17 ) ;
#53 = EDGE_CURVE ( 'NONE', #319, #194, #7, .T. ) ;
#54 = EDGE_CURVE ( 'NONE', #319, #229, #46, .T. ) ;
#55 = LENGTH_MEASURE_WITH_UNIT ( LENGTH_MEASURE( 0.02539999999999999897 ), #36 );
#56 = APPLICATION_PROTOCOL_DEFINITION ( 'draft international standard', 'automotive_design', 1998, #20 ) ;
#57 = ORIENTED_EDGE ( 'NONE', *, *, #117, .T. ) ;
#58 = CARTESIAN_POINT ( 'NONE',  ( 3.061616997868381785E-17, 1.250000000000000000, 0.2499999999999998612 ) ) ;
#59 = APPLICATION_PROTOCOL_DEFINITION ( 'draft international standard', 'automotive_design', 1998, #45 ) ;
#60 = COLOUR_RGB ( '',1.000000000000000000, 0.000000000000000000, 0.000000000000000000 ) ;
#61 = FILL_AREA_STYLE_COLOUR ( '', #355 ) ;
#62 = ORIENTED_EDGE ( 'NONE', *, *, #367, .F. ) ;
#63 = PLANE ( 'NONE',  #237 ) ;
#64 = DIRECTION ( 'NONE',  ( 0.000000000000000000, 0.000000000000000000, -1.000000000000000000 ) ) ;
#65 = DIRECTION ( 'NONE',  ( -0.000000000000000000, -1.000000000000000000, -0.000000000000000000 ) ) ;
#66 = AXIS2_PLACEMENT_3D ( 'NONE', #190, #334, #249 ) ;
#67 = DIMENSIONAL_EXPONENTS ( 1.000000000000000000, 0.000000000000000000, 0.000000000000000000, 0.000000000000000000, 0.000000000000000000, 0.000000000000000000, 0.000000000000000000 ) ;
#68 = CARTESIAN_POINT ( 'NONE',  ( 0.000000000000000000, 1.250000000000000000, -0.2499999999999998612 ) ) ;
#69 =( NAMED_UNIT ( * ) PLANE_ANGLE_UNIT ( ) SI_UNIT ( $, .RADIAN. ) );
#70 = ORIENTED_EDGE ( 'NONE', *, *, #294, .F. ) ;
#71 =( CONVERSION_BASED_UNIT ( 'INCH', #159 ) LENGTH_UNIT ( ) NAMED_UNIT ( #187 ) );
#72 = FILL_AREA_STYLE_COLOUR ( '', #358 ) ;
#73 = DIMENSIONAL_EXPONENTS ( 1.000000000000000000, 0.000000000000000000, 0.000000000000000000, 0.000000000000000000, 0.000000000000000000, 0.000000000000000000, 0.000000000000000000 ) ;
#74 = FACE_OUTER_BOUND ( 'NONE', #206, .T. ) ;
#75 = DIRECTION ( 'NONE',  ( 1.000000000000000000, 0.000000000000000000, 0.000000000000000000 ) ) ;
#76 = STYLED_ITEM ( 'NONE', ( #212 ), #331 ) ;
#77 = CARTESIAN_POINT ( 'NONE',  ( -6.123233995736772199E-17, 3.000000000000000444, 0.000000000000000000 ) ) ;
#78 = DIRECTION ( 'NONE',  ( -1.224646799147353454E-16, 1.000000000000000000, -0.000000000000000000 ) ) ;
#79 = COLOUR_RGB ( '',1.000000000000000000, 0.000000000000000000, 0.000000000000000000 ) ;
#80 = FACE_OUTER_BOUND ( 'NONE', #344, .T. ) ;
#81 = ADVANCED_FACE ( 'NONE', ( #213 ), #320, .T. ) ;
#82 =( LENGTH_UNIT ( ) NAMED_UNIT ( * ) SI_UNIT ( $, .METRE. ) );
#83 =( GEOMETRIC_REPRESENTATION_CONTEXT ( 3 ) GLOBAL_UNCERTAINTY_ASSIGNED_CONTEXT ( ( #158 ) ) GLOBAL_UNIT_ASSIGNED_CONTEXT ( ( #244, #364, #161 ) ) REPRESENTATION_CONTEXT ( 'NONE', 'WORKASPACE' ) );
#84 = ORIENTED_EDGE ( 'NONE', *, *, #189, .F. ) ;
#85 = EDGE_CURVE ( 'NONE', #143, #173, #360, .T. ) ;
#86 = CIRCLE ( 'NONE', #285, 0.2499999999999999167 ) ;
#87 = ORIENTED_EDGE ( 'NONE', *, *, #24, .T. ) ;
#88 = CARTESIAN_POINT ( 'NONE',  ( 1.530808498934191571E-16, 1.250000000000000000, 0.000000000000000000 ) ) ;
#89 = EDGE_CURVE ( 'NONE', #288, #2, #295, .T. ) ;
#90 = CIRCLE ( 'NONE', #270, 0.2500000000000000000 ) ;
#91 = DIRECTION ( 'NONE',  ( -1.224646799147353454E-16, 1.000000000000000000, -0.000000000000000000 ) ) ;
#92 = ORIENTED_EDGE ( 'NONE', *, *, #279, .F. ) ;
#93 = FILL_AREA_STYLE ('',( #350 ) ) ;
#94 =( NAMED_UNIT ( * ) SI_UNIT ( $, .STERADIAN. ) SOLID_ANGLE_UNIT ( ) );
#95 =( NAMED_UNIT ( * ) SI_UNIT ( $, .STERADIAN. ) SOLID_ANGLE_UNIT ( ) );
#96 = CARTESIAN_POINT ( 'NONE',  ( 0.000000000000000000, 1.250000000000000000, 0.000000000000000000 ) ) ;
#97 = PRODUCT ( '17467', '17467', '', ( #29 ) ) ;
#98 =( NAMED_UNIT ( * ) SI_UNIT ( $, .STERADIAN. ) SOLID_ANGLE_UNIT ( ) );
#99 = FILL_AREA_STYLE ('',( #152 ) ) ;
#100 = LENGTH_MEASURE_WITH_UNIT ( LENGTH_MEASURE( 0.02539999999999999897 ), #38 );
#101 =( NAMED_UNIT ( * ) PLANE_ANGLE_UNIT ( ) SI_UNIT ( $, .RADIAN. ) );
#102 =( LENGTH_UNIT ( ) NAMED_UNIT ( * ) SI_UNIT ( $, .METRE. ) );
#103 = DIMENSIONAL_EXPONENTS ( 1.000000000000000000, 0.000000000000000000, 0.000000000000000000, 0.000000000000000000, 0.000000000000000000, 0.000000000000000000, 0.000000000000000000 ) ;
#104 = CLOSED_SHELL ( 'NONE', ( #157, #363, #331, #81, #201 ) ) ;
#105 = DIRECTION ( 'NONE',  ( 1.000000000000000000, 0.000000000000000000, 0.000000000000000000 ) ) ;
#106 = CARTESIAN_POINT ( 'NONE',  ( -1.530808498934191509E-17, 0.000000000000000000, 0.000000000000000000 ) ) ;
#107 = LINE ( 'NONE', #286, #278 ) ;
#108 = CIRCLE ( 'NONE', #368, 0.2499999999999997224 ) ;
#109 = VERTEX_POINT ( 'NONE', #361 ) ;
#110 = STYLED_ITEM ( 'NONE', ( #172 ), #81 ) ;
#111 = AXIS2_PLACEMENT_3D ( 'NONE', #219, #329, #188 ) ;
#112 = AXIS2_PLACEMENT_3D ( 'NONE', #145, #91, #269 ) ;
#113 = ORIENTED_EDGE ( 'NONE', *, *, #250, .F. ) ;
#114 = AXIS2_PLACEMENT_3D ( 'NONE', #261, #293, #243 ) ;
#115 = ORIENTED_EDGE ( 'NONE', *, *, #53, .T. ) ;
#116 = DIRECTION ( 'NONE',  ( -1.000000000000000000, 0.000000000000000000, 0.000000000000000000 ) ) ;
#117 = EDGE_CURVE ( 'NONE', #173, #143, #86, .T. ) ;
#118 = EDGE_LOOP ( 'NONE', ( #370, #167, #257, #263 ) ) ;
#119 = SURFACE_STYLE_FILL_AREA ( #93 ) ;
#120 = ORIENTED_EDGE ( 'NONE', *, *, #301, .F. ) ;
#121 = SPHERICAL_SURFACE ( 'NONE', #185, 0.2500000000000000000 ) ;
#122 = EDGE_LOOP ( 'NONE', ( #195, #346, #225, #25, #113 ) ) ;
#123 =( NAMED_UNIT ( * ) PLANE_ANGLE_UNIT ( ) SI_UNIT ( $, .RADIAN. ) );
#124 = CARTESIAN_POINT ( 'NONE',  ( 0.2499999999999998612, 3.000000000000000444, 0.000000000000000000 ) ) ;
#125 =( NAMED_UNIT ( * ) PLANE_ANGLE_UNIT ( ) SI_UNIT ( $, .RADIAN. ) );
#126 = ADVANCED_FACE ( 'NONE', ( #272 ), #63, .F. ) ;
#127 =( LENGTH_UNIT ( ) NAMED_UNIT ( * ) SI_UNIT ( $, .METRE. ) );
#128 = FILL_AREA_STYLE_COLOUR ( '', #32 ) ;
#129 = CIRCLE ( 'NONE', #66, 0.2499999999999998612 ) ;
#130 = SURFACE_SIDE_STYLE ('',( #184 ) ) ;
#131 = SURFACE_SIDE_STYLE ('',( #302 ) ) ;
#132 = CLOSED_SHELL ( 'NONE', ( #241, #339, #287, #126 ) ) ;
#133 = UNCERTAINTY_MEASURE_WITH_UNIT (LENGTH_MEASURE( 1.000000000000000082E-05 ), #155, 'distance_accuracy_value', 'NONE');
#134 = SURFACE_STYLE_USAGE ( .BOTH. , #166 ) ;
#135 = CARTESIAN_POINT ( 'NONE',  ( 0.000000000000000000, 0.000000000000000000, 0.000000000000000000 ) ) ;
#136 = ORIENTED_EDGE ( 'NONE', *, *, #250, .T. ) ;
#137 = CIRCLE ( 'NONE', #347, 0.2500000000000000000 ) ;
#138 = CYLINDRICAL_SURFACE ( 'NONE', #114, 0.2499999999999998335 ) ;
#139 = AXIS2_PLACEMENT_3D ( 'NONE', #354, #1, #352 ) ;
#140 = EDGE_LOOP ( 'NONE', ( #57, #4 ) ) ;
#141 = CARTESIAN_POINT ( 'NONE',  ( 3.061616997868383018E-17, 0.2500000000000000000, 0.2500000000000000000 ) ) ;
#142 = CIRCLE ( 'NONE', #303, 0.2499999999999998612 ) ;
#143 = VERTEX_POINT ( 'NONE', #273 ) ;
#144 = DIRECTION ( 'NONE',  ( 0.000000000000000000, 0.000000000000000000, 1.000000000000000000 ) ) ;
#145 = CARTESIAN_POINT ( 'NONE',  ( -6.123233995736772199E-17, 3.000000000000000444, 0.000000000000000000 ) ) ;
#146 =( GEOMETRIC_REPRESENTATION_CONTEXT ( 3 ) GLOBAL_UNCERTAINTY_ASSIGNED_CONTEXT ( ( #313 ) ) GLOBAL_UNIT_ASSIGNED_CONTEXT ( ( #151, #326, #94 ) ) REPRESENTATION_CONTEXT ( 'NONE', 'WORKASPACE' ) );
#147 = DIRECTION ( 'NONE',  ( -1.224646799147353454E-16, 1.000000000000000000, -0.000000000000000000 ) ) ;
#148 = DIRECTION ( 'NONE',  ( 1.224646799147353207E-16, -0.000000000000000000, 1.000000000000000000 ) ) ;
#149 = LENGTH_MEASURE_WITH_UNIT ( LENGTH_MEASURE( 0.02539999999999999897 ), #41 );
#150 = LENGTH_MEASURE_WITH_UNIT ( LENGTH_MEASURE( 0.02539999999999999897 ), #102 );
#151 =( CONVERSION_BASED_UNIT ( 'INCH', #351 ) LENGTH_UNIT ( ) NAMED_UNIT ( #16 ) );
#152 = FILL_AREA_STYLE_COLOUR ( '', #79 ) ;
#153 =( GEOMETRIC_REPRESENTATION_CONTEXT ( 3 ) GLOBAL_UNCERTAINTY_ASSIGNED_CONTEXT ( ( #49 ) ) GLOBAL_UNIT_ASSIGNED_CONTEXT ( ( #47, #69, #224 ) ) REPRESENTATION_CONTEXT ( 'NONE', 'WORKASPACE' ) );
#154 = DIRECTION ( 'NONE',  ( -1.224646799147353454E-16, 1.000000000000000000, -0.000000000000000000 ) ) ;
#155 =( CONVERSION_BASED_UNIT ( 'INCH', #19 ) LENGTH_UNIT ( ) NAMED_UNIT ( #73 ) );
#156 = SURFACE_STYLE_FILL_AREA ( #186 ) ;
#157 = ADVANCED_FACE ( 'NONE', ( #80 ), #50, .T. ) ;
#158 = UNCERTAINTY_MEASURE_WITH_UNIT (LENGTH_MEASURE( 1.000000000000000082E-05 ), #244, 'distance_accuracy_value', 'NONE');
#159 = LENGTH_MEASURE_WITH_UNIT ( LENGTH_MEASURE( 0.02539999999999999897 ), #127 );
#160 = STYLED_ITEM ( 'NONE', ( #333 ), #165 ) ;
#161 =( NAMED_UNIT ( * ) SI_UNIT ( $, .STERADIAN. ) SOLID_ANGLE_UNIT ( ) );
#162 = CARTESIAN_POINT ( 'NONE',  ( -3.061616997868383018E-17, 0.2500000000000000000, 0.000000000000000000 ) ) ;
#163 = EDGE_CURVE ( 'NONE', #322, #288, #129, .T. ) ;
#164 = ORIENTED_EDGE ( 'NONE', *, *, #24, .F. ) ;
#165 = MANIFOLD_SOLID_BREP ( 'Revolve - Cutting Edge', #104 ) ;
#166 = SURFACE_SIDE_STYLE ('',( #280 ) ) ;
#167 = ORIENTED_EDGE ( 'NONE', *, *, #54, .T. ) ;
#168 = FILL_AREA_STYLE_COLOUR ( '', #60 ) ;
#169 = PRODUCT_RELATED_PRODUCT_CATEGORY ( 'part', '', ( #97 ) ) ;
#170 =( CONVERSION_BASED_UNIT ( 'INCH', #55 ) LENGTH_UNIT ( ) NAMED_UNIT ( #103 ) );
#171 = CARTESIAN_POINT ( 'NONE',  ( 0.000000000000000000, 0.2500000000000000000, -0.2500000000000000000 ) ) ;
#172 = PRESENTATION_STYLE_ASSIGNMENT (( #177 ) ) ;
#173 = VERTEX_POINT ( 'NONE', #44 ) ;
#174 = DIRECTION ( 'NONE',  ( -0.000000000000000000, -1.000000000000000000, -0.000000000000000000 ) ) ;
#175 = DIRECTION ( 'NONE',  ( -0.000000000000000000, -1.000000000000000000, -0.000000000000000000 ) ) ;
#176 = CARTESIAN_POINT ( 'NONE',  ( -6.123233995736772199E-17, 3.000000000000000444, 0.000000000000000000 ) ) ;
#177 = SURFACE_STYLE_USAGE ( .BOTH. , #207 ) ;
#178 = DIRECTION ( 'NONE',  ( -1.000000000000000000, -1.224646799147353454E-16, 0.000000000000000000 ) ) ;
#179 = PRESENTATION_LAYER_ASSIGNMENT (  '', '', ( #298 ) ) ;
#180 = DIRECTION ( 'NONE',  ( 0.000000000000000000, 0.000000000000000000, -1.000000000000000000 ) ) ;
#181 = PLANE ( 'NONE',  #342 ) ;
#182 = DIRECTION ( 'NONE',  ( 0.000000000000000000, 1.000000000000000000, 0.000000000000000000 ) ) ;
#183 = SURFACE_STYLE_FILL_AREA ( #236 ) ;
#184 = SURFACE_STYLE_FILL_AREA ( #328 ) ;
#185 = AXIS2_PLACEMENT_3D ( 'NONE', #33, #144, #230 ) ;
#186 = FILL_AREA_STYLE ('',( #128 ) ) ;
#187 = DIMENSIONAL_EXPONENTS ( 1.000000000000000000, 0.000000000000000000, 0.000000000000000000, 0.000000000000000000, 0.000000000000000000, 0.000000000000000000, 0.000000000000000000 ) ;
#188 = DIRECTION ( 'NONE',  ( 0.000000000000000000, 0.000000000000000000, -1.000000000000000000 ) ) ;
#189 = EDGE_CURVE ( 'NONE', #322, #229, #357, .T. ) ;
#190 = CARTESIAN_POINT ( 'NONE',  ( 0.000000000000000000, 1.250000000000000000, 0.000000000000000000 ) ) ;
#191 = DIMENSIONAL_EXPONENTS ( 1.000000000000000000, 0.000000000000000000, 0.000000000000000000, 0.000000000000000000, 0.000000000000000000, 0.000000000000000000, 0.000000000000000000 ) ;
#192 = SURFACE_STYLE_USAGE ( .BOTH. , #311 ) ;
#193 = FILL_AREA_STYLE ('',( #168 ) ) ;
#194 = VERTEX_POINT ( 'NONE', #106 ) ;
#195 = ORIENTED_EDGE ( 'NONE', *, *, #89, .F. ) ;
#196 = DIRECTION ( 'NONE',  ( -0.000000000000000000, -1.000000000000000000, -0.000000000000000000 ) ) ;
#197 = CIRCLE ( 'NONE', #262, 0.2500000000000000000 ) ;
#198 = ORIENTED_EDGE ( 'NONE', *, *, #279, .T. ) ;
#199 = DIRECTION ( 'NONE',  ( 0.000000000000000000, 0.000000000000000000, -1.000000000000000000 ) ) ;
#200 = MECHANICAL_DESIGN_GEOMETRIC_PRESENTATION_REPRESENTATION (  '', ( #252 ), #153 ) ;
#201 = ADVANCED_FACE ( 'NONE', ( #312 ), #121, .T. ) ;
#202 = CARTESIAN_POINT ( 'NONE',  ( 0.000000000000000000, 0.000000000000000000, 0.000000000000000000 ) ) ;
#203 = ORIENTED_EDGE ( 'NONE', *, *, #163, .F. ) ;
#204 = DIRECTION ( 'NONE',  ( -0.000000000000000000, -1.000000000000000000, -0.000000000000000000 ) ) ;
#205 = DIRECTION ( 'NONE',  ( -1.224646799147353454E-16, 1.000000000000000000, -0.000000000000000000 ) ) ;
#206 = EDGE_LOOP ( 'NONE', ( #203, #246 ) ) ;
#207 = SURFACE_SIDE_STYLE ('',( #183 ) ) ;
#208 =( CONVERSION_BASED_UNIT ( 'INCH', #149 ) LENGTH_UNIT ( ) NAMED_UNIT ( #220 ) );
#209 = CYLINDRICAL_SURFACE ( 'NONE', #256, 0.2499999999999998335 ) ;
#210 = EDGE_CURVE ( 'NONE', #229, #109, #197, .T. ) ;
#211 = CARTESIAN_POINT ( 'NONE',  ( 1.530808498934191571E-16, 1.250000000000000000, 0.000000000000000000 ) ) ;
#212 = PRESENTATION_STYLE_ASSIGNMENT (( #238 ) ) ;
#213 = FACE_OUTER_BOUND ( 'NONE', #122, .T. ) ;
#214 = MECHANICAL_DESIGN_GEOMETRIC_PRESENTATION_REPRESENTATION (  '', ( #160 ), #15 ) ;
#215 = CARTESIAN_POINT ( 'NONE',  ( 0.000000000000000000, 1.250000000000000000, 0.000000000000000000 ) ) ;
#216 = CYLINDRICAL_SURFACE ( 'NONE', #353, 0.2499999999999999167 ) ;
#217 = FILL_AREA_STYLE ('',( #359 ) ) ;
#218 = STYLED_ITEM ( 'NONE', ( #248 ), #363 ) ;
#219 = CARTESIAN_POINT ( 'NONE',  ( 0.000000000000000000, 0.2500000000000000000, 0.000000000000000000 ) ) ;
#220 = DIMENSIONAL_EXPONENTS ( 1.000000000000000000, 0.000000000000000000, 0.000000000000000000, 0.000000000000000000, 0.000000000000000000, 0.000000000000000000, 0.000000000000000000 ) ;
#221 = MECHANICAL_DESIGN_GEOMETRIC_PRESENTATION_REPRESENTATION (  '', ( #110 ), #146 ) ;
#222 = DIRECTION ( 'NONE',  ( 0.000000000000000000, 0.000000000000000000, 1.000000000000000000 ) ) ;
#223 = PRODUCT_DEFINITION_FORMATION_WITH_SPECIFIED_SOURCE ( 'ANY', '', #97, .NOT_KNOWN. ) ;
#224 =( NAMED_UNIT ( * ) SI_UNIT ( $, .STERADIAN. ) SOLID_ANGLE_UNIT ( ) );
#225 = ORIENTED_EDGE ( 'NONE', *, *, #189, .T. ) ;
#226 = VECTOR ( 'NONE', #369, 39.37007874015748143 ) ;
#227 = UNCERTAINTY_MEASURE_WITH_UNIT (LENGTH_MEASURE( 1.000000000000000082E-05 ), #8, 'distance_accuracy_value', 'NONE');
#228 = AXIS2_PLACEMENT_3D ( 'NONE', #162, #222, #105 ) ;
#229 = VERTEX_POINT ( 'NONE', #171 ) ;
#230 = DIRECTION ( 'NONE',  ( 1.000000000000000000, 0.000000000000000000, 0.000000000000000000 ) ) ;
#231 =( LENGTH_UNIT ( ) NAMED_UNIT ( * ) SI_UNIT ( $, .METRE. ) );
#232 = CIRCLE ( 'NONE', #111, 0.2500000000000000000 ) ;
#233 =( GEOMETRIC_REPRESENTATION_CONTEXT ( 3 ) GLOBAL_UNCERTAINTY_ASSIGNED_CONTEXT ( ( #337 ) ) GLOBAL_UNIT_ASSIGNED_CONTEXT ( ( #170, #125, #321 ) ) REPRESENTATION_CONTEXT ( 'NONE', 'WORKASPACE' ) );
#234 = ORIENTED_EDGE ( 'NONE', *, *, #294, .T. ) ;
#235 = DIRECTION ( 'NONE',  ( -1.000000000000000000, 0.000000000000000000, 0.000000000000000000 ) ) ;
#236 = FILL_AREA_STYLE ('',( #61 ) ) ;
#237 = AXIS2_PLACEMENT_3D ( 'NONE', #124, #18, #366 ) ;
#238 = SURFACE_STYLE_USAGE ( .BOTH. , #297 ) ;
#239 = PRESENTATION_STYLE_ASSIGNMENT (( #317 ) ) ;
#240 = CARTESIAN_POINT ( 'NONE',  ( 1.530808498934191571E-16, 1.250000000000000000, 0.000000000000000000 ) ) ;
#241 = ADVANCED_FACE ( 'NONE', ( #6 ), #138, .T. ) ;
#242 = DIRECTION ( 'NONE',  ( 0.000000000000000000, -0.000000000000000000, 1.000000000000000000 ) ) ;
#243 = DIRECTION ( 'NONE',  ( -1.000000000000000000, 0.000000000000000000, 0.000000000000000000 ) ) ;
#244 =( CONVERSION_BASED_UNIT ( 'INCH', #150 ) LENGTH_UNIT ( ) NAMED_UNIT ( #67 ) );
#245 =( GEOMETRIC_REPRESENTATION_CONTEXT ( 3 ) GLOBAL_UNCERTAINTY_ASSIGNED_CONTEXT ( ( #227 ) ) GLOBAL_UNIT_ASSIGNED_CONTEXT ( ( #8, #123, #98 ) ) REPRESENTATION_CONTEXT ( 'NONE', 'WORKASPACE' ) );
#246 = ORIENTED_EDGE ( 'NONE', *, *, #265, .F. ) ;
#247 = AXIS2_PLACEMENT_3D ( 'NONE', #240, #268, #116 ) ;
#248 = PRESENTATION_STYLE_ASSIGNMENT (( #299 ) ) ;
#249 = DIRECTION ( 'NONE',  ( 0.000000000000000000, 0.000000000000000000, -1.000000000000000000 ) ) ;
#250 = EDGE_CURVE ( 'NONE', #2, #319, #90, .T. ) ;
#251 = VECTOR ( 'NONE', #175, 39.37007874015748143 ) ;
#252 = STYLED_ITEM ( 'NONE', ( #23 ), #201 ) ;
#253 = ORIENTED_EDGE ( 'NONE', *, *, #85, .F. ) ;
#254 = LENGTH_MEASURE_WITH_UNIT ( LENGTH_MEASURE( 0.02539999999999999897 ), #335 );
#255 = SHAPE_DEFINITION_REPRESENTATION ( #10, #258 ) ;
#256 = AXIS2_PLACEMENT_3D ( 'NONE', #176, #147, #28 ) ;
#257 = ORIENTED_EDGE ( 'NONE', *, *, #210, .T. ) ;
#258 = ADVANCED_BREP_SHAPE_REPRESENTATION ( '17467', ( #165, #292, #13 ), #83 ) ;
#259 = PRESENTATION_LAYER_ASSIGNMENT (  '', '', ( #110 ) ) ;
#260 = ORIENTED_EDGE ( 'NONE', *, *, #163, .T. ) ;
#261 = CARTESIAN_POINT ( 'NONE',  ( -6.123233995736772199E-17, 3.000000000000000444, 0.000000000000000000 ) ) ;
#262 = AXIS2_PLACEMENT_3D ( 'NONE', #314, #264, #64 ) ;
#263 = ORIENTED_EDGE ( 'NONE', *, *, #301, .T. ) ;
#264 = DIRECTION ( 'NONE',  ( -0.000000000000000000, -1.000000000000000000, -0.000000000000000000 ) ) ;
#265 = EDGE_CURVE ( 'NONE', #288, #322, #142, .T. ) ;
#266 =( NAMED_UNIT ( * ) PLANE_ANGLE_UNIT ( ) SI_UNIT ( $, .RADIAN. ) );
#267 = PLANE ( 'NONE',  #327 ) ;
#268 = DIRECTION ( 'NONE',  ( -1.224646799147353454E-16, 1.000000000000000000, -0.000000000000000000 ) ) ;
#269 = DIRECTION ( 'NONE',  ( -1.000000000000000000, 0.000000000000000000, 0.000000000000000000 ) ) ;
#270 = AXIS2_PLACEMENT_3D ( 'NONE', #289, #204, #345 ) ;
#271 = DIMENSIONAL_EXPONENTS ( 1.000000000000000000, 0.000000000000000000, 0.000000000000000000, 0.000000000000000000, 0.000000000000000000, 0.000000000000000000, 0.000000000000000000 ) ;
#272 = FACE_OUTER_BOUND ( 'NONE', #140, .T. ) ;
#273 = CARTESIAN_POINT ( 'NONE',  ( 0.2499999999999998612, 3.000000000000000444, 3.061616997868381785E-17 ) ) ;
#274 = AXIS2_PLACEMENT_3D ( 'NONE', #31, #148, #9 ) ;
#275 =( NAMED_UNIT ( * ) PLANE_ANGLE_UNIT ( ) SI_UNIT ( $, .RADIAN. ) );
#276 = FACE_OUTER_BOUND ( 'NONE', #26, .T. ) ;
#277 = CARTESIAN_POINT ( 'NONE',  ( 0.000000000000000000, 0.000000000000000000, -0.2499999999999999167 ) ) ;
#278 = VECTOR ( 'NONE', #205, 39.37007874015748143 ) ;
#279 = EDGE_CURVE ( 'NONE', #373, #316, #108, .T. ) ;
#280 = SURFACE_STYLE_FILL_AREA ( #193 ) ;
#281 = UNCERTAINTY_MEASURE_WITH_UNIT (LENGTH_MEASURE( 1.000000000000000082E-05 ), #208, 'distance_accuracy_value', 'NONE');
#282 = SURFACE_STYLE_FILL_AREA ( #217 ) ;
#283 = MECHANICAL_DESIGN_GEOMETRIC_PRESENTATION_REPRESENTATION (  '', ( #76 ), #245 ) ;
#284 = EDGE_LOOP ( 'NONE', ( #87, #291, #349, #70 ) ) ;
#285 = AXIS2_PLACEMENT_3D ( 'NONE', #77, #154, #310 ) ;
#286 = CARTESIAN_POINT ( 'NONE',  ( 0.2499999999999997502, 3.000000000000000444, 3.061616997868380553E-17 ) ) ;
#287 = ADVANCED_FACE ( 'NONE', ( #27 ), #209, .T. ) ;
#288 = VERTEX_POINT ( 'NONE', #58 ) ;
#289 = CARTESIAN_POINT ( 'NONE',  ( 0.000000000000000000, 0.2500000000000000000, 0.000000000000000000 ) ) ;
#290 = CIRCLE ( 'NONE', #247, 0.2499999999999997224 ) ;
#291 = ORIENTED_EDGE ( 'NONE', *, *, #367, .T. ) ;
#292 = MANIFOLD_SOLID_BREP ( 'Revolve - Tool Body (Straight Shanked)', #132 ) ;
#293 = DIRECTION ( 'NONE',  ( -1.224646799147353454E-16, 1.000000000000000000, -0.000000000000000000 ) ) ;
#294 = EDGE_CURVE ( 'NONE', #316, #173, #35, .T. ) ;
#295 = LINE ( 'NONE', #12, #251 ) ;
#296 = PRESENTATION_LAYER_ASSIGNMENT (  '', '', ( #218 ) ) ;
#297 = SURFACE_SIDE_STYLE ('',( #156 ) ) ;
#298 = STYLED_ITEM ( 'NONE', ( #307 ), #157 ) ;
#299 = SURFACE_STYLE_USAGE ( .BOTH. , #130 ) ;
#300 = DIRECTION ( 'NONE',  ( -1.224646799147353454E-16, 1.000000000000000000, 0.000000000000000000 ) ) ;
#301 = EDGE_CURVE ( 'NONE', #109, #194, #137, .T. ) ;
#302 = SURFACE_STYLE_FILL_AREA ( #99 ) ;
#303 = AXIS2_PLACEMENT_3D ( 'NONE', #96, #174, #199 ) ;
#304 = FACE_OUTER_BOUND ( 'NONE', #341, .T. ) ;
#305 = CARTESIAN_POINT ( 'NONE',  ( -0.2500000000000000000, 0.2500000000000000000, 3.061616997868382402E-17 ) ) ;
#306 = PRODUCT_DEFINITION ( 'UNKNOWN', '', #223, #362 ) ;
#307 = PRESENTATION_STYLE_ASSIGNMENT (( #11 ) ) ;
#308 = EDGE_CURVE ( 'NONE', #109, #2, #232, .T. ) ;
#309 = PRESENTATION_LAYER_ASSIGNMENT (  '', '', ( #365 ) ) ;
#310 = DIRECTION ( 'NONE',  ( -1.000000000000000000, 0.000000000000000000, 0.000000000000000000 ) ) ;
#311 = SURFACE_SIDE_STYLE ('',( #282 ) ) ;
#312 = FACE_OUTER_BOUND ( 'NONE', #118, .T. ) ;
#313 = UNCERTAINTY_MEASURE_WITH_UNIT (LENGTH_MEASURE( 1.000000000000000082E-05 ), #151, 'distance_accuracy_value', 'NONE');
#314 = CARTESIAN_POINT ( 'NONE',  ( 0.000000000000000000, 0.2500000000000000000, 0.000000000000000000 ) ) ;
#315 = DIRECTION ( 'NONE',  ( 0.000000000000000000, 0.000000000000000000, -1.000000000000000000 ) ) ;
#316 = VERTEX_POINT ( 'NONE', #39 ) ;
#317 = SURFACE_STYLE_USAGE ( .BOTH. , #371 ) ;
#318 = MECHANICAL_DESIGN_GEOMETRIC_PRESENTATION_REPRESENTATION (  '', ( #365 ), #233 ) ;
#319 = VERTEX_POINT ( 'NONE', #305 ) ;
#320 = CYLINDRICAL_SURFACE ( 'NONE', #37, 0.2499999999999999167 ) ;
#321 =( NAMED_UNIT ( * ) SI_UNIT ( $, .STERADIAN. ) SOLID_ANGLE_UNIT ( ) );
#322 = VERTEX_POINT ( 'NONE', #68 ) ;
#323 = PRESENTATION_LAYER_ASSIGNMENT (  '', '', ( #76 ) ) ;
#324 = DIRECTION ( 'NONE',  ( 0.000000000000000000, 0.000000000000000000, -1.000000000000000000 ) ) ;
#325 =( GEOMETRIC_REPRESENTATION_CONTEXT ( 3 ) GLOBAL_UNCERTAINTY_ASSIGNED_CONTEXT ( ( #332 ) ) GLOBAL_UNIT_ASSIGNED_CONTEXT ( ( #71, #101, #14 ) ) REPRESENTATION_CONTEXT ( 'NONE', 'WORKASPACE' ) );
#326 =( NAMED_UNIT ( * ) PLANE_ANGLE_UNIT ( ) SI_UNIT ( $, .RADIAN. ) );
#327 = AXIS2_PLACEMENT_3D ( 'NONE', #215, #182, #242 ) ;
#328 = FILL_AREA_STYLE ('',( #72 ) ) ;
#329 = DIRECTION ( 'NONE',  ( -0.000000000000000000, -1.000000000000000000, -0.000000000000000000 ) ) ;
#330 =( NAMED_UNIT ( * ) SI_UNIT ( $, .STERADIAN. ) SOLID_ANGLE_UNIT ( ) );
#331 = ADVANCED_FACE ( 'NONE', ( #74 ), #267, .T. ) ;
#332 = UNCERTAINTY_MEASURE_WITH_UNIT (LENGTH_MEASURE( 1.000000000000000082E-05 ), #71, 'distance_accuracy_value', 'NONE');
#333 = PRESENTATION_STYLE_ASSIGNMENT (( #192 ) ) ;
#334 = DIRECTION ( 'NONE',  ( -0.000000000000000000, -1.000000000000000000, -0.000000000000000000 ) ) ;
#335 =( LENGTH_UNIT ( ) NAMED_UNIT ( * ) SI_UNIT ( $, .METRE. ) );
#336 = ORIENTED_EDGE ( 'NONE', *, *, #89, .T. ) ;
#337 = UNCERTAINTY_MEASURE_WITH_UNIT (LENGTH_MEASURE( 1.000000000000000082E-05 ), #170, 'distance_accuracy_value', 'NONE');
#338 = CARTESIAN_POINT ( 'NONE',  ( 0.2499999999999998612, 1.250000000000000000, 3.061616997868381785E-17 ) ) ;
#339 = ADVANCED_FACE ( 'NONE', ( #276 ), #181, .F. ) ;
#340 = COLOUR_RGB ( '',0.7921568627450980005, 0.8196078431372548767, 0.9333333333333333481 ) ;
#341 = EDGE_LOOP ( 'NONE', ( #260, #336, #48, #51, #84 ) ) ;
#342 = AXIS2_PLACEMENT_3D ( 'NONE', #211, #300, #178 ) ;
#343 = MECHANICAL_DESIGN_GEOMETRIC_PRESENTATION_REPRESENTATION (  '', ( #298 ), #325 ) ;
#344 = EDGE_LOOP ( 'NONE', ( #136, #115, #120, #5 ) ) ;
#345 = DIRECTION ( 'NONE',  ( 0.000000000000000000, 0.000000000000000000, -1.000000000000000000 ) ) ;
#346 = ORIENTED_EDGE ( 'NONE', *, *, #265, .T. ) ;
#347 = AXIS2_PLACEMENT_3D ( 'NONE', #43, #180, #42 ) ;
#348 = CARTESIAN_POINT ( 'NONE',  ( 0.000000000000000000, 0.000000000000000000, 0.000000000000000000 ) ) ;
#349 = ORIENTED_EDGE ( 'NONE', *, *, #117, .F. ) ;
#350 = FILL_AREA_STYLE_COLOUR ( '', #22 ) ;
#351 = LENGTH_MEASURE_WITH_UNIT ( LENGTH_MEASURE( 0.02539999999999999897 ), #231 );
#352 = DIRECTION ( 'NONE',  ( 0.000000000000000000, 0.000000000000000000, -1.000000000000000000 ) ) ;
#353 = AXIS2_PLACEMENT_3D ( 'NONE', #202, #196, #315 ) ;
#354 = CARTESIAN_POINT ( 'NONE',  ( 0.000000000000000000, 0.2500000000000000000, 0.000000000000000000 ) ) ;
#355 = COLOUR_RGB ( '',1.000000000000000000, 0.000000000000000000, 0.000000000000000000 ) ;
#356 = CARTESIAN_POINT ( 'NONE',  ( -0.2499999999999998890, 3.000000000000000444, 0.000000000000000000 ) ) ;
#357 = LINE ( 'NONE', #277, #226 ) ;
#358 = COLOUR_RGB ( '',1.000000000000000000, 0.000000000000000000, 0.000000000000000000 ) ;
#359 = FILL_AREA_STYLE_COLOUR ( '', #340 ) ;
#360 = CIRCLE ( 'NONE', #112, 0.2499999999999999167 ) ;
#361 = CARTESIAN_POINT ( 'NONE',  ( 0.2500000000000000000, 0.2500000000000000000, 0.000000000000000000 ) ) ;
#362 = PRODUCT_DEFINITION_CONTEXT ( 'detailed design', #45, 'design' ) ;
#363 = ADVANCED_FACE ( 'NONE', ( #304 ), #216, .T. ) ;
#364 =( NAMED_UNIT ( * ) PLANE_ANGLE_UNIT ( ) SI_UNIT ( $, .RADIAN. ) );
#365 = STYLED_ITEM ( 'NONE', ( #239 ), #292 ) ;
#366 = DIRECTION ( 'NONE',  ( 1.000000000000000000, 1.224646799147353454E-16, 0.000000000000000000 ) ) ;
#367 = EDGE_CURVE ( 'NONE', #373, #143, #107, .T. ) ;
#368 = AXIS2_PLACEMENT_3D ( 'NONE', #88, #3, #235 ) ;
#369 = DIRECTION ( 'NONE',  ( -0.000000000000000000, -1.000000000000000000, -0.000000000000000000 ) ) ;
#370 = ORIENTED_EDGE ( 'NONE', *, *, #53, .F. ) ;
#371 = SURFACE_SIDE_STYLE ('',( #119 ) ) ;
#372 = PRESENTATION_LAYER_ASSIGNMENT (  '', '', ( #160 ) ) ;
#373 = VERTEX_POINT ( 'NONE', #338 ) ;
ENDSEC;
END-ISO-10303-21;
