ISO-10303-21;
HEADER;
FILE_DESCRIPTION (( 'STEP AP214' ),
    '1' );
FILE_NAME ('Micro_BEMM-040-2.STEP',
    '2021-09-03T13:23:19',
    ( '' ),
    ( '' ),
    'SwSTEP 2.0',
    'SolidWorks 2020',
    '' );
FILE_SCHEMA (( 'AUTOMOTIVE_DESIGN' ));
ENDSEC;

DATA;
#1 = AXIS2_PLACEMENT_3D ( 'NONE', #276, #236, #212 ) ;
#2 = ORIENTED_EDGE ( 'NONE', *, *, #294, .F. ) ;
#3 = CARTESIAN_POINT ( 'NONE',  ( 9.633226027589770864E-18, 0.0000000000000000000, 0.07866125999999999674 ) ) ;
#4 = EDGE_LOOP ( 'NONE', ( #103, #210, #81, #20 ) ) ;
#5 = EDGE_CURVE ( 'NONE', #197, #177, #181, .T. ) ;
#6 = CARTESIAN_POINT ( 'NONE',  ( 9.633226027589770864E-18, 0.0000000000000000000, 0.07866125999999999674 ) ) ;
#7 = VECTOR ( 'NONE', #242, 39.37007874015748143 ) ;
#8 = LENGTH_MEASURE_WITH_UNIT ( LENGTH_MEASURE( 0.02539999999999999897 ), #245 );
#9 = EDGE_CURVE ( 'NONE', #24, #261, #272, .T. ) ;
#10 = UNCERTAINTY_MEASURE_WITH_UNIT (LENGTH_MEASURE( 1.000000000000000082E-05 ), #67, 'distance_accuracy_value', 'NONE');
#11 = EDGE_LOOP ( 'NONE', ( #138, #98, #85, #322 ) ) ;
#12 = SURFACE_STYLE_USAGE ( .BOTH. , #41 ) ;
#13 = EDGE_CURVE ( 'NONE', #230, #24, #46, .T. ) ;
#14 = CIRCLE ( 'NONE', #235, 0.07866125999999999674 ) ;
#15 = SURFACE_STYLE_USAGE ( .BOTH. , #19 ) ;
#16 = DIRECTION ( 'NONE',  ( 0.0000000000000000000, 0.0000000000000000000, -1.000000000000000000 ) ) ;
#17 = FILL_AREA_STYLE_COLOUR ( '', #299 ) ;
#18 = ORIENTED_EDGE ( 'NONE', *, *, #13, .F. ) ;
#19 = SURFACE_SIDE_STYLE ('',( #146 ) ) ;
#20 = ORIENTED_EDGE ( 'NONE', *, *, #5, .F. ) ;
#21 = AXIS2_PLACEMENT_3D ( 'NONE', #313, #16, #25 ) ;
#22 = CIRCLE ( 'NONE', #280, 0.07866125999999999674 ) ;
#23 = ORIENTED_EDGE ( 'NONE', *, *, #211, .T. ) ;
#24 = VERTEX_POINT ( 'NONE', #268 ) ;
#25 = DIRECTION ( 'NONE',  ( 1.000000000000000000, 0.0000000000000000000, 0.0000000000000000000 ) ) ;
#26 = DIRECTION ( 'NONE',  ( -1.000000000000000000, 0.0000000000000000000, 0.0000000000000000000 ) ) ;
#27 = PRODUCT_RELATED_PRODUCT_CATEGORY ( 'part', '', ( #93 ) ) ;
#28 = DIRECTION ( 'NONE',  ( -1.000000000000000000, 0.0000000000000000000, 2.170579261049422102E-16 ) ) ;
#29 = CIRCLE ( 'NONE', #214, 0.07866125999999999674 ) ;
#30 = EDGE_LOOP ( 'NONE', ( #134, #241, #206 ) ) ;
#31 = CARTESIAN_POINT ( 'NONE',  ( 0.07866126000000001062, 9.633226027589770864E-18, 0.07866125999999996898 ) ) ;
#32 = EDGE_CURVE ( 'NONE', #177, #197, #314, .T. ) ;
#33 = DIRECTION ( 'NONE',  ( -1.224646799147353207E-16, -0.0000000000000000000, -1.000000000000000000 ) ) ;
#34 = ORIENTED_EDGE ( 'NONE', *, *, #188, .T. ) ;
#35 = CARTESIAN_POINT ( 'NONE',  ( -0.07866125999999989959, 9.638047462038014686E-18, 0.7086609999999999854 ) ) ;
#36 = VECTOR ( 'NONE', #115, 39.37007874015748854 ) ;
#37 = AXIS2_PLACEMENT_3D ( 'NONE', #285, #248, #71 ) ;
#38 = DIRECTION ( 'NONE',  ( 0.0000000000000000000, 0.0000000000000000000, -1.000000000000000000 ) ) ;
#39 = ADVANCED_FACE ( 'NONE', ( #145 ), #183, .T. ) ;
#40 =( LENGTH_UNIT ( ) NAMED_UNIT ( * ) SI_UNIT ( $, .METRE. ) );
#41 = SURFACE_SIDE_STYLE ('',( #307 ) ) ;
#42 = PRODUCT_DEFINITION_SHAPE ( 'NONE', 'NONE',  #222 ) ;
#43 = VECTOR ( 'NONE', #84, 39.37007874015748143 ) ;
#44 = CARTESIAN_POINT ( 'NONE',  ( 9.633226027589770864E-18, 0.0000000000000000000, 0.07866125999999999674 ) ) ;
#45 = FILL_AREA_STYLE ('',( #308 ) ) ;
#46 = CIRCLE ( 'NONE', #64, 0.07866125999999999674 ) ;
#47 = DIMENSIONAL_EXPONENTS ( 1.000000000000000000, 0.0000000000000000000, 0.0000000000000000000, 0.0000000000000000000, 0.0000000000000000000, 0.0000000000000000000, 0.0000000000000000000 ) ;
#48 = PRODUCT_CONTEXT ( 'NONE', #224, 'mechanical' ) ;
#49 = ORIENTED_EDGE ( 'NONE', *, *, #176, .T. ) ;
#50 = DIRECTION ( 'NONE',  ( 1.000000000000000000, 0.0000000000000000000, 0.0000000000000000000 ) ) ;
#51 = CARTESIAN_POINT ( 'NONE',  ( -0.07866125999999996898, 0.0000000000000000000, 0.07866126000000001062 ) ) ;
#52 = AXIS2_PLACEMENT_3D ( 'NONE', #154, #107, #296 ) ;
#53 = ADVANCED_FACE ( 'NONE', ( #55 ), #147, .T. ) ;
#54 = AXIS2_PLACEMENT_3D ( 'NONE', #191, #117, #163 ) ;
#55 = FACE_OUTER_BOUND ( 'NONE', #228, .T. ) ;
#56 = CARTESIAN_POINT ( 'NONE',  ( 8.678594253305624695E-17, 0.0000000000000000000, 0.7086609999999999854 ) ) ;
#57 = DIRECTION ( 'NONE',  ( 1.224646799147353207E-16, 0.0000000000000000000, 1.000000000000000000 ) ) ;
#58 = CYLINDRICAL_SURFACE ( 'NONE', #153, 0.07866125999999999674 ) ;
#59 =( GEOMETRIC_REPRESENTATION_CONTEXT ( 3 ) GLOBAL_UNCERTAINTY_ASSIGNED_CONTEXT ( ( #10 ) ) GLOBAL_UNIT_ASSIGNED_CONTEXT ( ( #67, #119, #282 ) ) REPRESENTATION_CONTEXT ( 'NONE', 'WORKASPACE' ) );
#60 = CARTESIAN_POINT ( 'NONE',  ( 0.06374000000000018540, 7.805898697765251255E-18, 1.968503999999999809 ) ) ;
#61 = EDGE_LOOP ( 'NONE', ( #275, #100, #318, #137 ) ) ;
#62 = DIRECTION ( 'NONE',  ( -1.000000000000000000, 1.224646799147352961E-16, 0.0000000000000000000 ) ) ;
#63 = CARTESIAN_POINT ( 'NONE',  ( 8.678594253305624695E-17, 0.0000000000000000000, 0.7086609999999999854 ) ) ;
#64 = AXIS2_PLACEMENT_3D ( 'NONE', #56, #199, #232 ) ;
#65 = AXIS2_PLACEMENT_3D ( 'NONE', #297, #186, #62 ) ;
#66 = PRESENTATION_STYLE_ASSIGNMENT (( #12 ) ) ;
#67 =( CONVERSION_BASED_UNIT ( 'INCH', #304 ) LENGTH_UNIT ( ) NAMED_UNIT ( #47 ) );
#68 = DIRECTION ( 'NONE',  ( 1.000000000000000000, 0.0000000000000000000, 0.0000000000000000000 ) ) ;
#69 = CIRCLE ( 'NONE', #194, 0.07866125999999999674 ) ;
#70 = AXIS2_PLACEMENT_3D ( 'NONE', #274, #259, #208 ) ;
#71 = DIRECTION ( 'NONE',  ( 1.000000000000000000, 0.0000000000000000000, 0.0000000000000000000 ) ) ;
#72 = DIMENSIONAL_EXPONENTS ( 1.000000000000000000, 0.0000000000000000000, 0.0000000000000000000, 0.0000000000000000000, 0.0000000000000000000, 0.0000000000000000000, 0.0000000000000000000 ) ;
#73 = APPLICATION_CONTEXT ( 'automotive_design' ) ;
#74 = ORIENTED_EDGE ( 'NONE', *, *, #217, .F. ) ;
#75 = APPLICATION_PROTOCOL_DEFINITION ( 'draft international standard', 'automotive_design', 1998, #224 ) ;
#76 = CARTESIAN_POINT ( 'NONE',  ( 0.0000000000000000000, 0.0000000000000000000, 1.953504000000000129 ) ) ;
#77 = CARTESIAN_POINT ( 'NONE',  ( 0.0000000000000000000, 0.0000000000000000000, 1.968503999999999809 ) ) ;
#78 = EDGE_CURVE ( 'NONE', #104, #177, #269, .T. ) ;
#79 = VERTEX_POINT ( 'NONE', #226 ) ;
#80 = ORIENTED_EDGE ( 'NONE', *, *, #172, .T. ) ;
#81 = ORIENTED_EDGE ( 'NONE', *, *, #78, .T. ) ;
#82 = CARTESIAN_POINT ( 'NONE',  ( 0.0000000000000000000, 0.0000000000000000000, 1.968503999999999809 ) ) ;
#83 = ADVANCED_FACE ( 'NONE', ( #310 ), #317, .T. ) ;
#84 = DIRECTION ( 'NONE',  ( -1.224646799147353207E-16, -0.0000000000000000000, -1.000000000000000000 ) ) ;
#85 = ORIENTED_EDGE ( 'NONE', *, *, #9, .T. ) ;
#86 = CARTESIAN_POINT ( 'NONE',  ( -0.07866125999999989959, 9.633226027589770864E-18, 0.7086609999999999854 ) ) ;
#87 = CONICAL_SURFACE ( 'NONE', #189, 0.07866125999999999674, 0.1745329251994338637 ) ;
#88 = ORIENTED_EDGE ( 'NONE', *, *, #166, .T. ) ;
#89 = DIRECTION ( 'NONE',  ( -0.0000000000000000000, -0.0000000000000000000, -1.000000000000000000 ) ) ;
#90 = DIRECTION ( 'NONE',  ( -1.000000000000000000, 0.0000000000000000000, 0.0000000000000000000 ) ) ;
#91 = VERTEX_POINT ( 'NONE', #51 ) ;
#92 = DIRECTION ( 'NONE',  ( -1.224646799147353207E-16, -0.0000000000000000000, -1.000000000000000000 ) ) ;
#93 = PRODUCT ( 'Micro_BEMM-040-2', 'Micro_BEMM-040-2', '', ( #48 ) ) ;
#94 = DIRECTION ( 'NONE',  ( 0.0000000000000000000, 1.000000000000000000, 0.0000000000000000000 ) ) ;
#95 = CARTESIAN_POINT ( 'NONE',  ( 8.684062996011784961E-17, 0.0000000000000000000, 0.7091075567304767624 ) ) ;
#96 =( NAMED_UNIT ( * ) SI_UNIT ( $, .STERADIAN. ) SOLID_ANGLE_UNIT ( ) );
#97 =( NAMED_UNIT ( * ) PLANE_ANGLE_UNIT ( ) SI_UNIT ( $, .RADIAN. ) );
#98 = ORIENTED_EDGE ( 'NONE', *, *, #166, .F. ) ;
#99 = DIMENSIONAL_EXPONENTS ( 1.000000000000000000, 0.0000000000000000000, 0.0000000000000000000, 0.0000000000000000000, 0.0000000000000000000, 0.0000000000000000000, 0.0000000000000000000 ) ;
#100 = ORIENTED_EDGE ( 'NONE', *, *, #152, .T. ) ;
#101 = MECHANICAL_DESIGN_GEOMETRIC_PRESENTATION_REPRESENTATION (  '', ( #315 ), #130 ) ;
#102 = ORIENTED_EDGE ( 'NONE', *, *, #306, .F. ) ;
#103 = ORIENTED_EDGE ( 'NONE', *, *, #152, .F. ) ;
#104 = VERTEX_POINT ( 'NONE', #151 ) ;
#105 = EDGE_LOOP ( 'NONE', ( #158, #207, #203, #74 ) ) ;
#106 = CIRCLE ( 'NONE', #135, 0.07874000000000000443 ) ;
#107 = DIRECTION ( 'NONE',  ( 0.0000000000000000000, 0.0000000000000000000, 1.000000000000000000 ) ) ;
#108 = ORIENTED_EDGE ( 'NONE', *, *, #217, .T. ) ;
#109 = DIRECTION ( 'NONE',  ( 1.224646799147353207E-16, 0.0000000000000000000, 1.000000000000000000 ) ) ;
#110 = FACE_OUTER_BOUND ( 'NONE', #239, .T. ) ;
#111 = PRESENTATION_LAYER_ASSIGNMENT (  '', '', ( #175 ) ) ;
#112 = FACE_OUTER_BOUND ( 'NONE', #178, .T. ) ;
#113 = EDGE_CURVE ( 'NONE', #267, #104, #120, .T. ) ;
#114 = ORIENTED_EDGE ( 'NONE', *, *, #5, .T. ) ;
#115 = DIRECTION ( 'NONE',  ( 0.7071067811865502373, 8.659560562354966138E-17, -0.7071067811865446862 ) ) ;
#116 = FACE_OUTER_BOUND ( 'NONE', #162, .T. ) ;
#117 = DIRECTION ( 'NONE',  ( 0.0000000000000000000, 0.0000000000000000000, -1.000000000000000000 ) ) ;
#118 =( NAMED_UNIT ( * ) PLANE_ANGLE_UNIT ( ) SI_UNIT ( $, .RADIAN. ) );
#119 =( NAMED_UNIT ( * ) PLANE_ANGLE_UNIT ( ) SI_UNIT ( $, .RADIAN. ) );
#120 = CIRCLE ( 'NONE', #52, 0.06374000000000018540 ) ;
#121 = DIRECTION ( 'NONE',  ( 0.0000000000000000000, 0.0000000000000000000, -1.000000000000000000 ) ) ;
#122 = DIRECTION ( 'NONE',  ( -1.000000000000000000, 0.0000000000000000000, 0.0000000000000000000 ) ) ;
#123 = PRESENTATION_STYLE_ASSIGNMENT (( #15 ) ) ;
#124 = CARTESIAN_POINT ( 'NONE',  ( 9.633226027589770864E-18, 0.0000000000000000000, 0.07866125999999999674 ) ) ;
#125 = AXIS2_PLACEMENT_3D ( 'NONE', #140, #220, #281 ) ;
#126 = DIRECTION ( 'NONE',  ( 0.1736481776669313581, 0.0000000000000000000, 0.9848077530122077983 ) ) ;
#127 = ORIENTED_EDGE ( 'NONE', *, *, #294, .T. ) ;
#128 = LINE ( 'NONE', #86, #258 ) ;
#129 = EDGE_CURVE ( 'NONE', #148, #91, #69, .T. ) ;
#130 =( GEOMETRIC_REPRESENTATION_CONTEXT ( 3 ) GLOBAL_UNCERTAINTY_ASSIGNED_CONTEXT ( ( #223 ) ) GLOBAL_UNIT_ASSIGNED_CONTEXT ( ( #312, #97, #142 ) ) REPRESENTATION_CONTEXT ( 'NONE', 'WORKASPACE' ) );
#131 = LINE ( 'NONE', #256, #284 ) ;
#132 = FACE_OUTER_BOUND ( 'NONE', #105, .T. ) ;
#133 = DIRECTION ( 'NONE',  ( -1.000000000000000000, 0.0000000000000000000, 1.224646799147352961E-16 ) ) ;
#134 = ORIENTED_EDGE ( 'NONE', *, *, #188, .F. ) ;
#135 = AXIS2_PLACEMENT_3D ( 'NONE', #95, #92, #192 ) ;
#136 = CARTESIAN_POINT ( 'NONE',  ( -0.07874000000000000443, 0.0000000000000000000, 1.968503999999999809 ) ) ;
#137 = ORIENTED_EDGE ( 'NONE', *, *, #78, .F. ) ;
#138 = ORIENTED_EDGE ( 'NONE', *, *, #193, .F. ) ;
#139 = DIRECTION ( 'NONE',  ( 0.0000000000000000000, -1.000000000000000000, 0.0000000000000000000 ) ) ;
#140 = CARTESIAN_POINT ( 'NONE',  ( 0.0000000000000000000, 0.0000000000000000000, 1.968503999999999809 ) ) ;
#141 = UNCERTAINTY_MEASURE_WITH_UNIT (LENGTH_MEASURE( 1.000000000000000082E-05 ), #219, 'distance_accuracy_value', 'NONE');
#142 =( NAMED_UNIT ( * ) SI_UNIT ( $, .STERADIAN. ) SOLID_ANGLE_UNIT ( ) );
#143 = AXIS2_PLACEMENT_3D ( 'NONE', #44, #94, #190 ) ;
#144 =( LENGTH_UNIT ( ) NAMED_UNIT ( * ) SI_UNIT ( $, .METRE. ) );
#145 = FACE_OUTER_BOUND ( 'NONE', #4, .T. ) ;
#146 = SURFACE_STYLE_FILL_AREA ( #266 ) ;
#147 = CYLINDRICAL_SURFACE ( 'NONE', #244, 0.07874000000000000443 ) ;
#148 = VERTEX_POINT ( 'NONE', #31 ) ;
#149 = DIRECTION ( 'NONE',  ( 0.0000000000000000000, 1.000000000000000000, 0.0000000000000000000 ) ) ;
#150 = ORIENTED_EDGE ( 'NONE', *, *, #32, .T. ) ;
#151 = CARTESIAN_POINT ( 'NONE',  ( -0.06374000000000018540, 0.0000000000000000000, 1.968503999999999809 ) ) ;
#152 = EDGE_CURVE ( 'NONE', #267, #197, #216, .T. ) ;
#153 = AXIS2_PLACEMENT_3D ( 'NONE', #324, #33, #133 ) ;
#154 = CARTESIAN_POINT ( 'NONE',  ( 0.0000000000000000000, 0.0000000000000000000, 1.968503999999999809 ) ) ;
#155 = ADVANCED_FACE ( 'NONE', ( #112 ), #182, .T. ) ;
#156 = ADVANCED_BREP_SHAPE_REPRESENTATION ( 'Micro_BEMM-040-2', ( #292, #37 ), #288 ) ;
#157 = CARTESIAN_POINT ( 'NONE',  ( -0.07866125999999999674, 0.0000000000000000000, 9.633226027589770864E-18 ) ) ;
#158 = ORIENTED_EDGE ( 'NONE', *, *, #13, .T. ) ;
#159 = CARTESIAN_POINT ( 'NONE',  ( 0.0000000000000000000, 0.0000000000000000000, 1.968503999999999809 ) ) ;
#160 = CARTESIAN_POINT ( 'NONE',  ( 0.07874000000000008770, 9.642868896486269294E-18, 0.7091075567304767624 ) ) ;
#161 = ADVANCED_FACE ( 'NONE', ( #180 ), #279, .T. ) ;
#162 = EDGE_LOOP ( 'NONE', ( #102, #34, #302 ) ) ;
#163 = DIRECTION ( 'NONE',  ( -1.000000000000000000, 0.0000000000000000000, 0.0000000000000000000 ) ) ;
#164 = AXIS2_PLACEMENT_3D ( 'NONE', #249, #121, #270 ) ;
#165 = CARTESIAN_POINT ( 'NONE',  ( 0.07874000000000000443, 9.642868896486258509E-18, 1.968503999999999809 ) ) ;
#166 = EDGE_CURVE ( 'NONE', #24, #230, #14, .T. ) ;
#167 = CARTESIAN_POINT ( 'NONE',  ( 1.444983904138465630E-17, 0.0000000000000000000, 0.0000000000000000000 ) ) ;
#168 = CARTESIAN_POINT ( 'NONE',  ( 0.07866126000000008001, 0.0000000000000000000, 0.7086609999999999854 ) ) ;
#169 = PRODUCT_DEFINITION_FORMATION_WITH_SPECIFIED_SOURCE ( 'ANY', '', #93, .NOT_KNOWN. ) ;
#170 = LENGTH_MEASURE_WITH_UNIT ( LENGTH_MEASURE( 0.02539999999999999897 ), #144 );
#171 = ORIENTED_EDGE ( 'NONE', *, *, #257, .T. ) ;
#172 = EDGE_CURVE ( 'NONE', #177, #79, #298, .T. ) ;
#173 = ORIENTED_EDGE ( 'NONE', *, *, #193, .T. ) ;
#174 = ORIENTED_EDGE ( 'NONE', *, *, #211, .F. ) ;
#175 = STYLED_ITEM ( 'NONE', ( #66 ), #292 ) ;
#176 = EDGE_CURVE ( 'NONE', #91, #148, #29, .T. ) ;
#177 = VERTEX_POINT ( 'NONE', #260 ) ;
#178 = EDGE_LOOP ( 'NONE', ( #150, #127, #174, #293 ) ) ;
#179 = ADVANCED_FACE ( 'NONE', ( #323 ), #209, .T. ) ;
#180 = FACE_OUTER_BOUND ( 'NONE', #11, .T. ) ;
#181 = CIRCLE ( 'NONE', #283, 0.07874000000000000443 ) ;
#182 = CYLINDRICAL_SURFACE ( 'NONE', #225, 0.07874000000000000443 ) ;
#183 = CONICAL_SURFACE ( 'NONE', #164, 0.06374000000000018540, 0.7853981633974522758 ) ;
#184 = PRESENTATION_LAYER_ASSIGNMENT (  '', '', ( #315 ) ) ;
#185 = CARTESIAN_POINT ( 'NONE',  ( 9.633226027589770864E-18, 0.0000000000000000000, 0.07866125999999999674 ) ) ;
#186 = DIRECTION ( 'NONE',  ( 1.224646799147353207E-16, 1.000000000000000000, -0.0000000000000000000 ) ) ;
#187 = DIRECTION ( 'NONE',  ( 1.224646799147353207E-16, 0.0000000000000000000, 1.000000000000000000 ) ) ;
#188 = EDGE_CURVE ( 'NONE', #286, #91, #201, .T. ) ;
#189 = AXIS2_PLACEMENT_3D ( 'NONE', #240, #221, #68 ) ;
#190 = DIRECTION ( 'NONE',  ( 1.000000000000000000, 0.0000000000000000000, 0.0000000000000000000 ) ) ;
#191 = CARTESIAN_POINT ( 'NONE',  ( 0.0000000000000000000, 0.0000000000000000000, 1.968503999999999809 ) ) ;
#192 = DIRECTION ( 'NONE',  ( 1.000000000000000000, 0.0000000000000000000, 0.0000000000000000000 ) ) ;
#193 = EDGE_CURVE ( 'NONE', #230, #79, #128, .T. ) ;
#194 = AXIS2_PLACEMENT_3D ( 'NONE', #3, #109, #300 ) ;
#195 = CIRCLE ( 'NONE', #125, 0.06374000000000018540 ) ;
#196 = SPHERICAL_SURFACE ( 'NONE', #143, 0.07866125999999999674 ) ;
#197 = VERTEX_POINT ( 'NONE', #277 ) ;
#198 = ADVANCED_FACE ( 'NONE', ( #110 ), #320, .T. ) ;
#199 = DIRECTION ( 'NONE',  ( -1.224646799147353207E-16, -0.0000000000000000000, -1.000000000000000000 ) ) ;
#200 = PRODUCT_DEFINITION_CONTEXT ( 'detailed design', #73, 'design' ) ;
#201 = CIRCLE ( 'NONE', #65, 0.07866125999999999674 ) ;
#202 = ORIENTED_EDGE ( 'NONE', *, *, #251, .F. ) ;
#203 = ORIENTED_EDGE ( 'NONE', *, *, #129, .T. ) ;
#204 = ORIENTED_EDGE ( 'NONE', *, *, #113, .T. ) ;
#205 = EDGE_CURVE ( 'NONE', #24, #148, #131, .T. ) ;
#206 = ORIENTED_EDGE ( 'NONE', *, *, #176, .F. ) ;
#207 = ORIENTED_EDGE ( 'NONE', *, *, #205, .T. ) ;
#208 = DIRECTION ( 'NONE',  ( -1.000000000000000000, 0.0000000000000000000, 1.224646799147352961E-16 ) ) ;
#209 = CYLINDRICAL_SURFACE ( 'NONE', #70, 0.07866125999999999674 ) ;
#210 = ORIENTED_EDGE ( 'NONE', *, *, #257, .F. ) ;
#211 = EDGE_CURVE ( 'NONE', #79, #261, #271, .T. ) ;
#212 = DIRECTION ( 'NONE',  ( 1.000000000000000000, 0.0000000000000000000, 0.0000000000000000000 ) ) ;
#213 = AXIS2_PLACEMENT_3D ( 'NONE', #124, #149, #316 ) ;
#214 = AXIS2_PLACEMENT_3D ( 'NONE', #185, #57, #28 ) ;
#215 = DIRECTION ( 'NONE',  ( -1.224646799147353207E-16, -0.0000000000000000000, -1.000000000000000000 ) ) ;
#216 = LINE ( 'NONE', #60, #36 ) ;
#217 = EDGE_CURVE ( 'NONE', #230, #91, #263, .T. ) ;
#218 = AXIS2_PLACEMENT_3D ( 'NONE', #159, #278, #234 ) ;
#219 =( CONVERSION_BASED_UNIT ( 'INCH', #8 ) LENGTH_UNIT ( ) NAMED_UNIT ( #72 ) );
#220 = DIRECTION ( 'NONE',  ( 0.0000000000000000000, 0.0000000000000000000, 1.000000000000000000 ) ) ;
#221 = DIRECTION ( 'NONE',  ( 1.224646799147353207E-16, 0.0000000000000000000, 1.000000000000000000 ) ) ;
#222 = PRODUCT_DEFINITION ( 'UNKNOWN', '', #169, #200 ) ;
#223 = UNCERTAINTY_MEASURE_WITH_UNIT (LENGTH_MEASURE( 1.000000000000000082E-05 ), #312, 'distance_accuracy_value', 'NONE');
#224 = APPLICATION_CONTEXT ( 'automotive_design' ) ;
#225 = AXIS2_PLACEMENT_3D ( 'NONE', #82, #89, #90 ) ;
#226 = CARTESIAN_POINT ( 'NONE',  ( -0.07873999999999992117, 0.0000000000000000000, 0.7091075567304767624 ) ) ;
#227 = ADVANCED_FACE ( 'NONE', ( #132 ), #58, .T. ) ;
#228 = EDGE_LOOP ( 'NONE', ( #2, #114, #80, #202 ) ) ;
#229 = EDGE_LOOP ( 'NONE', ( #254, #88, #108, #49 ) ) ;
#230 = VERTEX_POINT ( 'NONE', #35 ) ;
#231 = ADVANCED_FACE ( 'NONE', ( #238 ), #87, .T. ) ;
#232 = DIRECTION ( 'NONE',  ( -1.000000000000000000, 0.0000000000000000000, 0.0000000000000000000 ) ) ;
#233 = EDGE_LOOP ( 'NONE', ( #18, #173, #23, #291 ) ) ;
#234 = DIRECTION ( 'NONE',  ( 1.000000000000000000, 0.0000000000000000000, -0.0000000000000000000 ) ) ;
#235 = AXIS2_PLACEMENT_3D ( 'NONE', #237, #215, #26 ) ;
#236 = DIRECTION ( 'NONE',  ( -1.224646799147353207E-16, -0.0000000000000000000, -1.000000000000000000 ) ) ;
#237 = CARTESIAN_POINT ( 'NONE',  ( 8.678594253305624695E-17, 0.0000000000000000000, 0.7086609999999999854 ) ) ;
#238 = FACE_OUTER_BOUND ( 'NONE', #233, .T. ) ;
#239 = EDGE_LOOP ( 'NONE', ( #171, #204 ) ) ;
#240 = CARTESIAN_POINT ( 'NONE',  ( 8.678594253305624695E-17, 0.0000000000000000000, 0.7086609999999999854 ) ) ;
#241 = ORIENTED_EDGE ( 'NONE', *, *, #306, .T. ) ;
#242 = DIRECTION ( 'NONE',  ( -0.0000000000000000000, -0.0000000000000000000, -1.000000000000000000 ) ) ;
#243 = ADVANCED_FACE ( 'NONE', ( #309 ), #253, .T. ) ;
#244 = AXIS2_PLACEMENT_3D ( 'NONE', #77, #250, #122 ) ;
#245 =( LENGTH_UNIT ( ) NAMED_UNIT ( * ) SI_UNIT ( $, .METRE. ) );
#246 = LINE ( 'NONE', #165, #7 ) ;
#247 = VECTOR ( 'NONE', #303, 39.37007874015748143 ) ;
#248 = DIRECTION ( 'NONE',  ( 0.0000000000000000000, 0.0000000000000000000, 1.000000000000000000 ) ) ;
#249 = CARTESIAN_POINT ( 'NONE',  ( 0.0000000000000000000, 0.0000000000000000000, 1.968503999999999809 ) ) ;
#250 = DIRECTION ( 'NONE',  ( -0.0000000000000000000, -0.0000000000000000000, -1.000000000000000000 ) ) ;
#251 = EDGE_CURVE ( 'NONE', #261, #79, #106, .T. ) ;
#252 = DIRECTION ( 'NONE',  ( -0.7071067811865502373, 0.0000000000000000000, -0.7071067811865446862 ) ) ;
#253 = CONICAL_SURFACE ( 'NONE', #54, 0.06374000000000018540, 0.7853981633974522758 ) ;
#254 = ORIENTED_EDGE ( 'NONE', *, *, #205, .F. ) ;
#255 = DIRECTION ( 'NONE',  ( -1.224646799147353207E-16, -0.0000000000000000000, -1.000000000000000000 ) ) ;
#256 = CARTESIAN_POINT ( 'NONE',  ( 0.07866125999999999674, 9.633226027589770864E-18, -9.633226027589770864E-18 ) ) ;
#257 = EDGE_CURVE ( 'NONE', #104, #267, #195, .T. ) ;
#258 = VECTOR ( 'NONE', #325, 39.37007874015747433 ) ;
#259 = DIRECTION ( 'NONE',  ( -1.224646799147353207E-16, -0.0000000000000000000, -1.000000000000000000 ) ) ;
#260 = CARTESIAN_POINT ( 'NONE',  ( -0.07874000000000000443, 0.0000000000000000000, 1.953504000000000129 ) ) ;
#261 = VERTEX_POINT ( 'NONE', #160 ) ;
#262 = ADVANCED_FACE ( 'NONE', ( #116 ), #196, .T. ) ;
#263 = LINE ( 'NONE', #157, #43 ) ;
#264 = VECTOR ( 'NONE', #252, 39.37007874015748854 ) ;
#265 = CARTESIAN_POINT ( 'NONE',  ( 0.06374000000000018540, 8.724383797125754882E-18, 1.968503999999999809 ) ) ;
#266 = FILL_AREA_STYLE ('',( #17 ) ) ;
#267 = VERTEX_POINT ( 'NONE', #265 ) ;
#268 = CARTESIAN_POINT ( 'NONE',  ( 0.07866126000000008001, 0.0000000000000000000, 0.7086609999999999854 ) ) ;
#269 = LINE ( 'NONE', #289, #264 ) ;
#270 = DIRECTION ( 'NONE',  ( -1.000000000000000000, 0.0000000000000000000, 0.0000000000000000000 ) ) ;
#271 = CIRCLE ( 'NONE', #1, 0.07874000000000000443 ) ;
#272 = LINE ( 'NONE', #168, #287 ) ;
#273 = DIRECTION ( 'NONE',  ( 1.000000000000000000, 0.0000000000000000000, 0.0000000000000000000 ) ) ;
#274 = CARTESIAN_POINT ( 'NONE',  ( 0.0000000000000000000, 0.0000000000000000000, 0.0000000000000000000 ) ) ;
#275 = ORIENTED_EDGE ( 'NONE', *, *, #113, .F. ) ;
#276 = CARTESIAN_POINT ( 'NONE',  ( 8.684062996011784961E-17, 0.0000000000000000000, 0.7091075567304767624 ) ) ;
#277 = CARTESIAN_POINT ( 'NONE',  ( 0.07874000000000000443, 9.642868896486258509E-18, 1.953504000000000129 ) ) ;
#278 = DIRECTION ( 'NONE',  ( 0.0000000000000000000, 0.0000000000000000000, 1.000000000000000000 ) ) ;
#279 = CONICAL_SURFACE ( 'NONE', #319, 0.07866125999999999674, 0.1745329251994338637 ) ;
#280 = AXIS2_PLACEMENT_3D ( 'NONE', #6, #139, #38 ) ;
#281 = DIRECTION ( 'NONE',  ( 1.000000000000000000, 0.0000000000000000000, 0.0000000000000000000 ) ) ;
#282 =( NAMED_UNIT ( * ) SI_UNIT ( $, .STERADIAN. ) SOLID_ANGLE_UNIT ( ) );
#283 = AXIS2_PLACEMENT_3D ( 'NONE', #76, #290, #50 ) ;
#284 = VECTOR ( 'NONE', #255, 39.37007874015748143 ) ;
#285 = CARTESIAN_POINT ( 'NONE',  ( 0.0000000000000000000, 0.0000000000000000000, 0.0000000000000000000 ) ) ;
#286 = VERTEX_POINT ( 'NONE', #167 ) ;
#287 = VECTOR ( 'NONE', #126, 39.37007874015748143 ) ;
#288 =( GEOMETRIC_REPRESENTATION_CONTEXT ( 3 ) GLOBAL_UNCERTAINTY_ASSIGNED_CONTEXT ( ( #141 ) ) GLOBAL_UNIT_ASSIGNED_CONTEXT ( ( #219, #118, #96 ) ) REPRESENTATION_CONTEXT ( 'NONE', 'WORKASPACE' ) );
#289 = CARTESIAN_POINT ( 'NONE',  ( -0.06374000000000018540, 0.0000000000000000000, 1.968503999999999809 ) ) ;
#290 = DIRECTION ( 'NONE',  ( 0.0000000000000000000, 0.0000000000000000000, -1.000000000000000000 ) ) ;
#291 = ORIENTED_EDGE ( 'NONE', *, *, #9, .F. ) ;
#292 = MANIFOLD_SOLID_BREP ( 'Fillet1', #311 ) ;
#293 = ORIENTED_EDGE ( 'NONE', *, *, #172, .F. ) ;
#294 = EDGE_CURVE ( 'NONE', #197, #261, #246, .T. ) ;
#295 = APPLICATION_PROTOCOL_DEFINITION ( 'draft international standard', 'automotive_design', 1998, #73 ) ;
#296 = DIRECTION ( 'NONE',  ( 1.000000000000000000, 0.0000000000000000000, 0.0000000000000000000 ) ) ;
#297 = CARTESIAN_POINT ( 'NONE',  ( 9.633226027589770864E-18, 0.0000000000000000000, 0.07866125999999999674 ) ) ;
#298 = LINE ( 'NONE', #136, #247 ) ;
#299 = COLOUR_RGB ( '',0.7921568627450980005, 0.8196078431372548767, 0.9333333333333333481 ) ;
#300 = DIRECTION ( 'NONE',  ( -1.000000000000000000, 0.0000000000000000000, 2.170579261049422102E-16 ) ) ;
#301 = SHAPE_DEFINITION_REPRESENTATION ( #42, #156 ) ;
#302 = ORIENTED_EDGE ( 'NONE', *, *, #129, .F. ) ;
#303 = DIRECTION ( 'NONE',  ( -0.0000000000000000000, -0.0000000000000000000, -1.000000000000000000 ) ) ;
#304 = LENGTH_MEASURE_WITH_UNIT ( LENGTH_MEASURE( 0.02539999999999999897 ), #40 );
#305 = COLOUR_RGB ( '',0.7921568627450980005, 0.8196078431372548767, 0.9333333333333333481 ) ;
#306 = EDGE_CURVE ( 'NONE', #286, #148, #22, .T. ) ;
#307 = SURFACE_STYLE_FILL_AREA ( #45 ) ;
#308 = FILL_AREA_STYLE_COLOUR ( '', #305 ) ;
#309 = FACE_OUTER_BOUND ( 'NONE', #61, .T. ) ;
#310 = FACE_OUTER_BOUND ( 'NONE', #30, .T. ) ;
#311 = CLOSED_SHELL ( 'NONE', ( #262, #227, #231, #243, #155, #53, #198, #39, #161, #179, #83 ) ) ;
#312 =( CONVERSION_BASED_UNIT ( 'INCH', #170 ) LENGTH_UNIT ( ) NAMED_UNIT ( #99 ) );
#313 = CARTESIAN_POINT ( 'NONE',  ( 0.0000000000000000000, 0.0000000000000000000, 1.953504000000000129 ) ) ;
#314 = CIRCLE ( 'NONE', #21, 0.07874000000000000443 ) ;
#315 = STYLED_ITEM ( 'NONE', ( #123 ), #156 ) ;
#316 = DIRECTION ( 'NONE',  ( 1.000000000000000000, 0.0000000000000000000, 0.0000000000000000000 ) ) ;
#317 = SPHERICAL_SURFACE ( 'NONE', #213, 0.07866125999999999674 ) ;
#318 = ORIENTED_EDGE ( 'NONE', *, *, #32, .F. ) ;
#319 = AXIS2_PLACEMENT_3D ( 'NONE', #63, #187, #273 ) ;
#320 = PLANE ( 'NONE',  #218 ) ;
#321 = MECHANICAL_DESIGN_GEOMETRIC_PRESENTATION_REPRESENTATION (  '', ( #175 ), #59 ) ;
#322 = ORIENTED_EDGE ( 'NONE', *, *, #251, .T. ) ;
#323 = FACE_OUTER_BOUND ( 'NONE', #229, .T. ) ;
#324 = CARTESIAN_POINT ( 'NONE',  ( 0.0000000000000000000, 0.0000000000000000000, 0.0000000000000000000 ) ) ;
#325 = DIRECTION ( 'NONE',  ( -0.1736481776669311639, 2.126576849575783008E-17, 0.9848077530122080203 ) ) ;
ENDSEC;
END-ISO-10303-21;
