ISO-10303-21;
HEADER;
FILE_DESCRIPTION (( 'STEP AP214' ),
    '1' );
FILE_NAME ('81556.STEP',
    '2023-06-23T01:49:25',
    ( '' ),
    ( '' ),
    'SwSTEP 2.0',
    'SolidWorks 2023',
    '' );
FILE_SCHEMA (( 'AUTOMOTIVE_DESIGN' ));
ENDSEC;

DATA;
#1 = DIRECTION ( 'NONE',  ( 0.000000000000000000, -0.000000000000000000, 1.000000000000000000 ) ) ;
#2 = CARTESIAN_POINT ( 'NONE',  ( 1.530808498934191509E-17, 0.000000000000000000, 0.1250000000000000000 ) ) ;
#3 = SURFACE_STYLE_USAGE ( .BOTH. , #202 ) ;
#4 = DIRECTION ( 'NONE',  ( -1.000000000000000000, -4.082155997157848133E-17, 0.000000000000000000 ) ) ;
#5 = AXIS2_PLACEMENT_3D ( 'NONE', #113, #87, #278 ) ;
#6 = CARTESIAN_POINT ( 'NONE',  ( -0.1250000000000000000, 1.500000000000000222, 0.000000000000000000 ) ) ;
#7 = APPLICATION_PROTOCOL_DEFINITION ( 'draft international standard', 'automotive_design', 1998, #55 ) ;
#8 = FILL_AREA_STYLE ('',( #267 ) ) ;
#9 = MECHANICAL_DESIGN_GEOMETRIC_PRESENTATION_REPRESENTATION (  '', ( #289 ), #227 ) ;
#10 = SURFACE_STYLE_USAGE ( .BOTH. , #90 ) ;
#11 = VECTOR ( 'NONE', #281, 39.37007874015748143 ) ;
#12 = CARTESIAN_POINT ( 'NONE',  ( -0.1250000000000001110, 3.000000000000000444, 0.000000000000000000 ) ) ;
#13 =( NAMED_UNIT ( * ) PLANE_ANGLE_UNIT ( ) SI_UNIT ( $, .RADIAN. ) );
#14 = UNCERTAINTY_MEASURE_WITH_UNIT (LENGTH_MEASURE( 1.000000000000000082E-05 ), #85, 'distance_accuracy_value', 'NONE');
#15 = ORIENTED_EDGE ( 'NONE', *, *, #95, .F. ) ;
#16 = DIRECTION ( 'NONE',  ( -1.000000000000000000, 0.000000000000000000, 0.000000000000000000 ) ) ;
#17 = VERTEX_POINT ( 'NONE', #142 ) ;
#18 = DIRECTION ( 'NONE',  ( -1.000000000000000000, 0.000000000000000000, 0.000000000000000000 ) ) ;
#19 = PRODUCT_DEFINITION_CONTEXT ( 'detailed design', #55, 'design' ) ;
#20 = ORIENTED_EDGE ( 'NONE', *, *, #49, .F. ) ;
#21 = AXIS2_PLACEMENT_3D ( 'NONE', #238, #285, #211 ) ;
#22 = AXIS2_PLACEMENT_3D ( 'NONE', #86, #303, #92 ) ;
#23 = PRESENTATION_STYLE_ASSIGNMENT (( #237 ) ) ;
#24 = DIRECTION ( 'NONE',  ( -4.082155997157848133E-17, 1.000000000000000000, -0.000000000000000000 ) ) ;
#25 = CARTESIAN_POINT ( 'NONE',  ( 7.582401355855259480E-33, 1.500000000000000222, 0.000000000000000000 ) ) ;
#26 = UNCERTAINTY_MEASURE_WITH_UNIT (LENGTH_MEASURE( 1.000000000000000082E-05 ), #197, 'distance_accuracy_value', 'NONE');
#27 = MANIFOLD_SOLID_BREP ( 'Revolve - Cutting Edge', #114 ) ;
#28 = MANIFOLD_SOLID_BREP ( 'Revolve - Tool Body (Straight Shanked)', #246 ) ;
#29 = EDGE_CURVE ( 'NONE', #121, #185, #58, .T. ) ;
#30 = LENGTH_MEASURE_WITH_UNIT ( LENGTH_MEASURE( 0.02539999999999999897 ), #222 );
#31 = AXIS2_PLACEMENT_3D ( 'NONE', #286, #70, #1 ) ;
#32 = LENGTH_MEASURE_WITH_UNIT ( LENGTH_MEASURE( 0.02539999999999999897 ), #150 );
#33 = VECTOR ( 'NONE', #218, 39.37007874015748143 ) ;
#34 = FILL_AREA_STYLE ('',( #198 ) ) ;
#35 =( CONVERSION_BASED_UNIT ( 'INCH', #182 ) LENGTH_UNIT ( ) NAMED_UNIT ( #82 ) );
#36 = ADVANCED_FACE ( 'NONE', ( #155 ), #61, .T. ) ;
#37 = COLOUR_RGB ( '',1.000000000000000000, 0.000000000000000000, 0.000000000000000000 ) ;
#38 = EDGE_LOOP ( 'NONE', ( #186, #71, #137, #158 ) ) ;
#39 =( NAMED_UNIT ( * ) SI_UNIT ( $, .STERADIAN. ) SOLID_ANGLE_UNIT ( ) );
#40 = LENGTH_MEASURE_WITH_UNIT ( LENGTH_MEASURE( 0.02539999999999999897 ), #164 );
#41 =( GEOMETRIC_REPRESENTATION_CONTEXT ( 3 ) GLOBAL_UNCERTAINTY_ASSIGNED_CONTEXT ( ( #14 ) ) GLOBAL_UNIT_ASSIGNED_CONTEXT ( ( #85, #13, #274 ) ) REPRESENTATION_CONTEXT ( 'NONE', 'WORKASPACE' ) );
#42 = ORIENTED_EDGE ( 'NONE', *, *, #60, .T. ) ;
#43 =( NAMED_UNIT ( * ) PLANE_ANGLE_UNIT ( ) SI_UNIT ( $, .RADIAN. ) );
#44 = EDGE_CURVE ( 'NONE', #117, #120, #293, .T. ) ;
#45 = EDGE_LOOP ( 'NONE', ( #231, #97, #259, #20 ) ) ;
#46 = DIRECTION ( 'NONE',  ( 0.000000000000000000, 0.000000000000000000, -1.000000000000000000 ) ) ;
#47 = CIRCLE ( 'NONE', #116, 0.1250000000000000000 ) ;
#48 = CARTESIAN_POINT ( 'NONE',  ( 0.000000000000000000, 1.500000000000000222, -0.1250000000000000000 ) ) ;
#49 = EDGE_CURVE ( 'NONE', #64, #185, #170, .T. ) ;
#50 =( CONVERSION_BASED_UNIT ( 'INCH', #266 ) LENGTH_UNIT ( ) NAMED_UNIT ( #219 ) );
#51 = PLANE ( 'NONE',  #290 ) ;
#52 = PRESENTATION_LAYER_ASSIGNMENT (  '', '', ( #240 ) ) ;
#53 =( NAMED_UNIT ( * ) SI_UNIT ( $, .STERADIAN. ) SOLID_ANGLE_UNIT ( ) );
#54 = LENGTH_MEASURE_WITH_UNIT ( LENGTH_MEASURE( 0.02539999999999999897 ), #102 );
#55 = APPLICATION_CONTEXT ( 'automotive_design' ) ;
#56 = CARTESIAN_POINT ( 'NONE',  ( -6.123233995736772199E-17, 3.000000000000000444, 0.000000000000000000 ) ) ;
#57 = PRESENTATION_STYLE_ASSIGNMENT (( #3 ) ) ;
#58 = CIRCLE ( 'NONE', #5, 0.1250000000000000000 ) ;
#59 = FACE_OUTER_BOUND ( 'NONE', #253, .T. ) ;
#60 = EDGE_CURVE ( 'NONE', #140, #17, #207, .T. ) ;
#61 = CYLINDRICAL_SURFACE ( 'NONE', #21, 0.1250000000000000000 ) ;
#62 = STYLED_ITEM ( 'NONE', ( #23 ), #106 ) ;
#63 = AXIS2_PLACEMENT_3D ( 'NONE', #103, #203, #173 ) ;
#64 = VERTEX_POINT ( 'NONE', #48 ) ;
#65 = CARTESIAN_POINT ( 'NONE',  ( 0.000000000000000000, 1.500000000000000222, 0.000000000000000000 ) ) ;
#66 = DIRECTION ( 'NONE',  ( -4.082155997157848133E-17, 1.000000000000000000, -0.000000000000000000 ) ) ;
#67 = PRESENTATION_LAYER_ASSIGNMENT (  '', '', ( #79 ) ) ;
#68 = FILL_AREA_STYLE ('',( #283 ) ) ;
#69 = CYLINDRICAL_SURFACE ( 'NONE', #241, 0.1250000000000000278 ) ;
#70 = DIRECTION ( 'NONE',  ( 0.000000000000000000, 1.000000000000000000, 0.000000000000000000 ) ) ;
#71 = ORIENTED_EDGE ( 'NONE', *, *, #270, .T. ) ;
#72 = DIRECTION ( 'NONE',  ( -0.000000000000000000, -1.000000000000000000, -0.000000000000000000 ) ) ;
#73 = CARTESIAN_POINT ( 'NONE',  ( -0.1250000000000001388, 3.000000000000000444, 0.000000000000000000 ) ) ;
#74 = MECHANICAL_DESIGN_GEOMETRIC_PRESENTATION_REPRESENTATION (  '', ( #79 ), #152 ) ;
#75 = DIRECTION ( 'NONE',  ( -1.000000000000000000, 0.000000000000000000, 0.000000000000000000 ) ) ;
#76 = SHAPE_DEFINITION_REPRESENTATION ( #105, #163 ) ;
#77 =( NAMED_UNIT ( * ) PLANE_ANGLE_UNIT ( ) SI_UNIT ( $, .RADIAN. ) );
#78 = CARTESIAN_POINT ( 'NONE',  ( 0.000000000000000000, 0.000000000000000000, -0.1250000000000000000 ) ) ;
#79 = STYLED_ITEM ( 'NONE', ( #109 ), #195 ) ;
#80 =( NAMED_UNIT ( * ) SI_UNIT ( $, .STERADIAN. ) SOLID_ANGLE_UNIT ( ) );
#81 = FACE_OUTER_BOUND ( 'NONE', #38, .T. ) ;
#82 = DIMENSIONAL_EXPONENTS ( 1.000000000000000000, 0.000000000000000000, 0.000000000000000000, 0.000000000000000000, 0.000000000000000000, 0.000000000000000000, 0.000000000000000000 ) ;
#83 = CARTESIAN_POINT ( 'NONE',  ( 0.000000000000000000, 0.000000000000000000, 0.000000000000000000 ) ) ;
#84 = DIRECTION ( 'NONE',  ( 0.000000000000000000, 0.000000000000000000, -1.000000000000000000 ) ) ;
#85 =( CONVERSION_BASED_UNIT ( 'INCH', #254 ) LENGTH_UNIT ( ) NAMED_UNIT ( #245 ) );
#86 = CARTESIAN_POINT ( 'NONE',  ( -6.123233995736772199E-17, 3.000000000000000444, 0.000000000000000000 ) ) ;
#87 = DIRECTION ( 'NONE',  ( -0.000000000000000000, -1.000000000000000000, -0.000000000000000000 ) ) ;
#88 =( GEOMETRIC_REPRESENTATION_CONTEXT ( 3 ) GLOBAL_UNCERTAINTY_ASSIGNED_CONTEXT ( ( #179 ) ) GLOBAL_UNIT_ASSIGNED_CONTEXT ( ( #50, #43, #264 ) ) REPRESENTATION_CONTEXT ( 'NONE', 'WORKASPACE' ) );
#89 = AXIS2_PLACEMENT_3D ( 'NONE', #167, #24, #75 ) ;
#90 = SURFACE_SIDE_STYLE ('',( #112 ) ) ;
#91 = ORIENTED_EDGE ( 'NONE', *, *, #95, .T. ) ;
#92 = DIRECTION ( 'NONE',  ( -1.000000000000000000, 0.000000000000000000, 0.000000000000000000 ) ) ;
#93 = DIRECTION ( 'NONE',  ( -0.000000000000000000, -1.000000000000000000, -0.000000000000000000 ) ) ;
#94 = EDGE_LOOP ( 'NONE', ( #191, #96 ) ) ;
#95 = EDGE_CURVE ( 'NONE', #17, #140, #221, .T. ) ;
#96 = ORIENTED_EDGE ( 'NONE', *, *, #270, .F. ) ;
#97 = ORIENTED_EDGE ( 'NONE', *, *, #280, .T. ) ;
#98 = FACE_OUTER_BOUND ( 'NONE', #212, .T. ) ;
#99 =( LENGTH_UNIT ( ) NAMED_UNIT ( * ) SI_UNIT ( $, .METRE. ) );
#100 = PRESENTATION_LAYER_ASSIGNMENT (  '', '', ( #263 ) ) ;
#101 = AXIS2_PLACEMENT_3D ( 'NONE', #156, #298, #84 ) ;
#102 =( LENGTH_UNIT ( ) NAMED_UNIT ( * ) SI_UNIT ( $, .METRE. ) );
#103 = CARTESIAN_POINT ( 'NONE',  ( 0.000000000000000000, 0.000000000000000000, 0.000000000000000000 ) ) ;
#104 = CARTESIAN_POINT ( 'NONE',  ( 0.1250000000000000000, 3.000000000000000444, 0.000000000000000000 ) ) ;
#105 = PRODUCT_DEFINITION_SHAPE ( 'NONE', 'NONE',  #194 ) ;
#106 = ADVANCED_FACE ( 'NONE', ( #260 ), #190, .T. ) ;
#107 = SURFACE_STYLE_FILL_AREA ( #8 ) ;
#108 = UNCERTAINTY_MEASURE_WITH_UNIT (LENGTH_MEASURE( 1.000000000000000082E-05 ), #35, 'distance_accuracy_value', 'NONE');
#109 = PRESENTATION_STYLE_ASSIGNMENT (( #250 ) ) ;
#110 = EDGE_CURVE ( 'NONE', #64, #287, #128, .T. ) ;
#111 =( GEOMETRIC_REPRESENTATION_CONTEXT ( 3 ) GLOBAL_UNCERTAINTY_ASSIGNED_CONTEXT ( ( #26 ) ) GLOBAL_UNIT_ASSIGNED_CONTEXT ( ( #197, #77, #292 ) ) REPRESENTATION_CONTEXT ( 'NONE', 'WORKASPACE' ) );
#112 = SURFACE_STYLE_FILL_AREA ( #255 ) ;
#113 = CARTESIAN_POINT ( 'NONE',  ( 0.000000000000000000, 0.000000000000000000, 0.000000000000000000 ) ) ;
#114 = CLOSED_SHELL ( 'NONE', ( #36, #106, #213, #195 ) ) ;
#115 = VECTOR ( 'NONE', #247, 39.37007874015748143 ) ;
#116 = AXIS2_PLACEMENT_3D ( 'NONE', #65, #72, #160 ) ;
#117 = VERTEX_POINT ( 'NONE', #73 ) ;
#118 =( CONVERSION_BASED_UNIT ( 'INCH', #40 ) LENGTH_UNIT ( ) NAMED_UNIT ( #295 ) );
#119 = ORIENTED_EDGE ( 'NONE', *, *, #249, .T. ) ;
#120 = VERTEX_POINT ( 'NONE', #143 ) ;
#121 = VERTEX_POINT ( 'NONE', #217 ) ;
#122 = LINE ( 'NONE', #12, #11 ) ;
#123 = FILL_AREA_STYLE ('',( #139 ) ) ;
#124 = AXIS2_PLACEMENT_3D ( 'NONE', #141, #66, #16 ) ;
#125 = DIRECTION ( 'NONE',  ( -4.082155997157848133E-17, 1.000000000000000000, -0.000000000000000000 ) ) ;
#126 = LINE ( 'NONE', #294, #115 ) ;
#127 =( NAMED_UNIT ( * ) PLANE_ANGLE_UNIT ( ) SI_UNIT ( $, .RADIAN. ) );
#128 = CIRCLE ( 'NONE', #234, 0.1250000000000000000 ) ;
#129 = SURFACE_SIDE_STYLE ('',( #223 ) ) ;
#130 = FILL_AREA_STYLE_COLOUR ( '', #268 ) ;
#131 =( NAMED_UNIT ( * ) SI_UNIT ( $, .STERADIAN. ) SOLID_ANGLE_UNIT ( ) );
#132 = ORIENTED_EDGE ( 'NONE', *, *, #44, .T. ) ;
#133 =( LENGTH_UNIT ( ) NAMED_UNIT ( * ) SI_UNIT ( $, .METRE. ) );
#134 = MECHANICAL_DESIGN_GEOMETRIC_PRESENTATION_REPRESENTATION (  '', ( #240 ), #257 ) ;
#135 = PRODUCT_RELATED_PRODUCT_CATEGORY ( 'part', '', ( #242 ) ) ;
#136 = ADVANCED_FACE ( 'NONE', ( #98 ), #192, .F. ) ;
#137 = ORIENTED_EDGE ( 'NONE', *, *, #49, .T. ) ;
#138 = LINE ( 'NONE', #2, #33 ) ;
#139 = FILL_AREA_STYLE_COLOUR ( '', #172 ) ;
#140 = VERTEX_POINT ( 'NONE', #6 ) ;
#141 = CARTESIAN_POINT ( 'NONE',  ( 7.582401355855259480E-33, 1.500000000000000222, 0.000000000000000000 ) ) ;
#142 = CARTESIAN_POINT ( 'NONE',  ( 0.1250000000000000278, 1.500000000000000222, 1.530808498934192125E-17 ) ) ;
#143 = CARTESIAN_POINT ( 'NONE',  ( 0.1250000000000000278, 3.000000000000000444, 1.530808498934192125E-17 ) ) ;
#144 = DIRECTION ( 'NONE',  ( -4.082155997157848133E-17, 1.000000000000000000, -0.000000000000000000 ) ) ;
#145 = PRODUCT_CONTEXT ( 'NONE', #220, 'mechanical' ) ;
#146 = DIRECTION ( 'NONE',  ( 0.000000000000000000, -1.000000000000000000, -0.000000000000000000 ) ) ;
#147 = PRESENTATION_LAYER_ASSIGNMENT (  '', '', ( #289 ) ) ;
#148 = PRESENTATION_LAYER_ASSIGNMENT (  '', '', ( #62 ) ) ;
#149 = EDGE_CURVE ( 'NONE', #17, #120, #126, .T. ) ;
#150 =( LENGTH_UNIT ( ) NAMED_UNIT ( * ) SI_UNIT ( $, .METRE. ) );
#151 =( CONVERSION_BASED_UNIT ( 'INCH', #32 ) LENGTH_UNIT ( ) NAMED_UNIT ( #248 ) );
#152 =( GEOMETRIC_REPRESENTATION_CONTEXT ( 3 ) GLOBAL_UNCERTAINTY_ASSIGNED_CONTEXT ( ( #215 ) ) GLOBAL_UNIT_ASSIGNED_CONTEXT ( ( #151, #226, #53 ) ) REPRESENTATION_CONTEXT ( 'NONE', 'WORKASPACE' ) );
#153 = SURFACE_STYLE_USAGE ( .BOTH. , #251 ) ;
#154 = SURFACE_STYLE_FILL_AREA ( #184 ) ;
#155 = FACE_OUTER_BOUND ( 'NONE', #45, .T. ) ;
#156 = CARTESIAN_POINT ( 'NONE',  ( 0.000000000000000000, 0.000000000000000000, 0.000000000000000000 ) ) ;
#157 = FILL_AREA_STYLE_COLOUR ( '', #225 ) ;
#158 = ORIENTED_EDGE ( 'NONE', *, *, #29, .F. ) ;
#159 = MECHANICAL_DESIGN_GEOMETRIC_PRESENTATION_REPRESENTATION (  '', ( #263 ), #111 ) ;
#160 = DIRECTION ( 'NONE',  ( 0.000000000000000000, 0.000000000000000000, -1.000000000000000000 ) ) ;
#161 = SURFACE_SIDE_STYLE ('',( #306 ) ) ;
#162 = SURFACE_STYLE_FILL_AREA ( #68 ) ;
#163 = ADVANCED_BREP_SHAPE_REPRESENTATION ( '81556', ( #27, #28, #63 ), #272 ) ;
#164 =( LENGTH_UNIT ( ) NAMED_UNIT ( * ) SI_UNIT ( $, .METRE. ) );
#165 = CARTESIAN_POINT ( 'NONE',  ( 0.000000000000000000, 1.500000000000000222, 0.000000000000000000 ) ) ;
#166 = ORIENTED_EDGE ( 'NONE', *, *, #229, .T. ) ;
#167 = CARTESIAN_POINT ( 'NONE',  ( -6.123233995736772199E-17, 3.000000000000000444, 0.000000000000000000 ) ) ;
#168 = CARTESIAN_POINT ( 'NONE',  ( -6.123233995736772199E-17, 3.000000000000000444, 0.000000000000000000 ) ) ;
#169 = FACE_OUTER_BOUND ( 'NONE', #256, .T. ) ;
#170 = LINE ( 'NONE', #288, #201 ) ;
#171 = ADVANCED_FACE ( 'NONE', ( #174 ), #51, .F. ) ;
#172 = COLOUR_RGB ( '',1.000000000000000000, 0.000000000000000000, 0.000000000000000000 ) ;
#173 = DIRECTION ( 'NONE',  ( 1.000000000000000000, 0.000000000000000000, 0.000000000000000000 ) ) ;
#174 = FACE_OUTER_BOUND ( 'NONE', #216, .T. ) ;
#175 = DIRECTION ( 'NONE',  ( -4.082155997157848133E-17, 1.000000000000000000, 0.000000000000000000 ) ) ;
#176 = PLANE ( 'NONE',  #230 ) ;
#177 = MECHANICAL_DESIGN_GEOMETRIC_PRESENTATION_REPRESENTATION (  '', ( #252 ), #41 ) ;
#178 =( NAMED_UNIT ( * ) PLANE_ANGLE_UNIT ( ) SI_UNIT ( $, .RADIAN. ) );
#179 = UNCERTAINTY_MEASURE_WITH_UNIT (LENGTH_MEASURE( 1.000000000000000082E-05 ), #50, 'distance_accuracy_value', 'NONE');
#180 = ORIENTED_EDGE ( 'NONE', *, *, #258, .F. ) ;
#181 = MECHANICAL_DESIGN_GEOMETRIC_PRESENTATION_REPRESENTATION (  '', ( #62 ), #88 ) ;
#182 = LENGTH_MEASURE_WITH_UNIT ( LENGTH_MEASURE( 0.02539999999999999897 ), #228 );
#183 = CARTESIAN_POINT ( 'NONE',  ( 0.000000000000000000, 0.000000000000000000, 0.000000000000000000 ) ) ;
#184 = FILL_AREA_STYLE ('',( #130 ) ) ;
#185 = VERTEX_POINT ( 'NONE', #78 ) ;
#186 = ORIENTED_EDGE ( 'NONE', *, *, #280, .F. ) ;
#187 = CIRCLE ( 'NONE', #101, 0.1250000000000000000 ) ;
#188 = FACE_OUTER_BOUND ( 'NONE', #304, .T. ) ;
#189 = PRESENTATION_STYLE_ASSIGNMENT (( #307 ) ) ;
#190 = PLANE ( 'NONE',  #31 ) ;
#191 = ORIENTED_EDGE ( 'NONE', *, *, #110, .F. ) ;
#192 = PLANE ( 'NONE',  #300 ) ;
#193 = CYLINDRICAL_SURFACE ( 'NONE', #89, 0.1250000000000000278 ) ;
#194 = PRODUCT_DEFINITION ( 'UNKNOWN', '', #269, #19 ) ;
#195 = ADVANCED_FACE ( 'NONE', ( #59 ), #176, .T. ) ;
#196 =( CONVERSION_BASED_UNIT ( 'INCH', #30 ) LENGTH_UNIT ( ) NAMED_UNIT ( #239 ) );
#197 =( CONVERSION_BASED_UNIT ( 'INCH', #54 ) LENGTH_UNIT ( ) NAMED_UNIT ( #224 ) );
#198 = FILL_AREA_STYLE_COLOUR ( '', #205 ) ;
#199 = DIRECTION ( 'NONE',  ( -1.000000000000000000, 0.000000000000000000, 0.000000000000000000 ) ) ;
#200 = CARTESIAN_POINT ( 'NONE',  ( 1.041499849070736517E-34, 1.500000000000000222, 0.000000000000000000 ) ) ;
#201 = VECTOR ( 'NONE', #93, 39.37007874015748143 ) ;
#202 = SURFACE_SIDE_STYLE ('',( #107 ) ) ;
#203 = DIRECTION ( 'NONE',  ( 0.000000000000000000, 0.000000000000000000, 1.000000000000000000 ) ) ;
#204 = CYLINDRICAL_SURFACE ( 'NONE', #296, 0.1250000000000000000 ) ;
#205 = COLOUR_RGB ( '',1.000000000000000000, 0.000000000000000000, 0.000000000000000000 ) ;
#206 = PRESENTATION_STYLE_ASSIGNMENT (( #153 ) ) ;
#207 = CIRCLE ( 'NONE', #275, 0.1250000000000000000 ) ;
#208 =( NAMED_UNIT ( * ) PLANE_ANGLE_UNIT ( ) SI_UNIT ( $, .RADIAN. ) );
#209 = ORIENTED_EDGE ( 'NONE', *, *, #258, .T. ) ;
#210 = PRESENTATION_STYLE_ASSIGNMENT (( #10 ) ) ;
#211 = DIRECTION ( 'NONE',  ( 0.000000000000000000, 0.000000000000000000, -1.000000000000000000 ) ) ;
#212 = EDGE_LOOP ( 'NONE', ( #276, #15 ) ) ;
#213 = ADVANCED_FACE ( 'NONE', ( #81 ), #204, .T. ) ;
#214 = PRESENTATION_LAYER_ASSIGNMENT (  '', '', ( #252 ) ) ;
#215 = UNCERTAINTY_MEASURE_WITH_UNIT (LENGTH_MEASURE( 1.000000000000000082E-05 ), #151, 'distance_accuracy_value', 'NONE');
#216 = EDGE_LOOP ( 'NONE', ( #132, #119 ) ) ;
#217 = CARTESIAN_POINT ( 'NONE',  ( 1.530808498934191509E-17, 0.000000000000000000, 0.1250000000000000000 ) ) ;
#218 = DIRECTION ( 'NONE',  ( -0.000000000000000000, -1.000000000000000000, -0.000000000000000000 ) ) ;
#219 = DIMENSIONAL_EXPONENTS ( 1.000000000000000000, 0.000000000000000000, 0.000000000000000000, 0.000000000000000000, 0.000000000000000000, 0.000000000000000000, 0.000000000000000000 ) ;
#220 = APPLICATION_CONTEXT ( 'automotive_design' ) ;
#221 = CIRCLE ( 'NONE', #124, 0.1250000000000000000 ) ;
#222 =( LENGTH_UNIT ( ) NAMED_UNIT ( * ) SI_UNIT ( $, .METRE. ) );
#223 = SURFACE_STYLE_FILL_AREA ( #34 ) ;
#224 = DIMENSIONAL_EXPONENTS ( 1.000000000000000000, 0.000000000000000000, 0.000000000000000000, 0.000000000000000000, 0.000000000000000000, 0.000000000000000000, 0.000000000000000000 ) ;
#225 = COLOUR_RGB ( '',0.7921568627450980005, 0.8196078431372548767, 0.9333333333333333481 ) ;
#226 =( NAMED_UNIT ( * ) PLANE_ANGLE_UNIT ( ) SI_UNIT ( $, .RADIAN. ) );
#227 =( GEOMETRIC_REPRESENTATION_CONTEXT ( 3 ) GLOBAL_UNCERTAINTY_ASSIGNED_CONTEXT ( ( #299 ) ) GLOBAL_UNIT_ASSIGNED_CONTEXT ( ( #118, #208, #39 ) ) REPRESENTATION_CONTEXT ( 'NONE', 'WORKASPACE' ) );
#228 =( LENGTH_UNIT ( ) NAMED_UNIT ( * ) SI_UNIT ( $, .METRE. ) );
#229 = EDGE_CURVE ( 'NONE', #185, #121, #187, .T. ) ;
#230 = AXIS2_PLACEMENT_3D ( 'NONE', #83, #146, #244 ) ;
#231 = ORIENTED_EDGE ( 'NONE', *, *, #110, .T. ) ;
#232 = ORIENTED_EDGE ( 'NONE', *, *, #44, .F. ) ;
#233 = SURFACE_SIDE_STYLE ('',( #162 ) ) ;
#234 = AXIS2_PLACEMENT_3D ( 'NONE', #165, #262, #46 ) ;
#235 = DIRECTION ( 'NONE',  ( -1.000000000000000000, 0.000000000000000000, 0.000000000000000000 ) ) ;
#236 = UNCERTAINTY_MEASURE_WITH_UNIT (LENGTH_MEASURE( 1.000000000000000082E-05 ), #196, 'distance_accuracy_value', 'NONE');
#237 = SURFACE_STYLE_USAGE ( .BOTH. , #161 ) ;
#238 = CARTESIAN_POINT ( 'NONE',  ( 0.000000000000000000, 0.000000000000000000, 0.000000000000000000 ) ) ;
#239 = DIMENSIONAL_EXPONENTS ( 1.000000000000000000, 0.000000000000000000, 0.000000000000000000, 0.000000000000000000, 0.000000000000000000, 0.000000000000000000, 0.000000000000000000 ) ;
#240 = STYLED_ITEM ( 'NONE', ( #206 ), #36 ) ;
#241 = AXIS2_PLACEMENT_3D ( 'NONE', #56, #125, #199 ) ;
#242 = PRODUCT ( '81556', '81556', '', ( #145 ) ) ;
#243 = DIRECTION ( 'NONE',  ( 1.000000000000000000, 4.082155997157848133E-17, 0.000000000000000000 ) ) ;
#244 = DIRECTION ( 'NONE',  ( 0.000000000000000000, 0.000000000000000000, -1.000000000000000000 ) ) ;
#245 = DIMENSIONAL_EXPONENTS ( 1.000000000000000000, 0.000000000000000000, 0.000000000000000000, 0.000000000000000000, 0.000000000000000000, 0.000000000000000000, 0.000000000000000000 ) ;
#246 = CLOSED_SHELL ( 'NONE', ( #301, #136, #297, #171 ) ) ;
#247 = DIRECTION ( 'NONE',  ( -4.082155997157848133E-17, 1.000000000000000000, -0.000000000000000000 ) ) ;
#248 = DIMENSIONAL_EXPONENTS ( 1.000000000000000000, 0.000000000000000000, 0.000000000000000000, 0.000000000000000000, 0.000000000000000000, 0.000000000000000000, 0.000000000000000000 ) ;
#249 = EDGE_CURVE ( 'NONE', #120, #117, #284, .T. ) ;
#250 = SURFACE_STYLE_USAGE ( .BOTH. , #129 ) ;
#251 = SURFACE_SIDE_STYLE ('',( #154 ) ) ;
#252 = STYLED_ITEM ( 'NONE', ( #210 ), #28 ) ;
#253 = EDGE_LOOP ( 'NONE', ( #166, #279 ) ) ;
#254 = LENGTH_MEASURE_WITH_UNIT ( LENGTH_MEASURE( 0.02539999999999999897 ), #133 );
#255 = FILL_AREA_STYLE ('',( #157 ) ) ;
#256 = EDGE_LOOP ( 'NONE', ( #42, #261, #232, #180 ) ) ;
#257 =( GEOMETRIC_REPRESENTATION_CONTEXT ( 3 ) GLOBAL_UNCERTAINTY_ASSIGNED_CONTEXT ( ( #108 ) ) GLOBAL_UNIT_ASSIGNED_CONTEXT ( ( #35, #178, #131 ) ) REPRESENTATION_CONTEXT ( 'NONE', 'WORKASPACE' ) );
#258 = EDGE_CURVE ( 'NONE', #140, #117, #122, .T. ) ;
#259 = ORIENTED_EDGE ( 'NONE', *, *, #229, .F. ) ;
#260 = FACE_OUTER_BOUND ( 'NONE', #94, .T. ) ;
#261 = ORIENTED_EDGE ( 'NONE', *, *, #149, .T. ) ;
#262 = DIRECTION ( 'NONE',  ( -0.000000000000000000, -1.000000000000000000, -0.000000000000000000 ) ) ;
#263 = STYLED_ITEM ( 'NONE', ( #57 ), #213 ) ;
#264 =( NAMED_UNIT ( * ) SI_UNIT ( $, .STERADIAN. ) SOLID_ANGLE_UNIT ( ) );
#265 = APPLICATION_PROTOCOL_DEFINITION ( 'draft international standard', 'automotive_design', 1998, #220 ) ;
#266 = LENGTH_MEASURE_WITH_UNIT ( LENGTH_MEASURE( 0.02539999999999999897 ), #99 );
#267 = FILL_AREA_STYLE_COLOUR ( '', #37 ) ;
#268 = COLOUR_RGB ( '',1.000000000000000000, 0.000000000000000000, 0.000000000000000000 ) ;
#269 = PRODUCT_DEFINITION_FORMATION_WITH_SPECIFIED_SOURCE ( 'ANY', '', #242, .NOT_KNOWN. ) ;
#270 = EDGE_CURVE ( 'NONE', #287, #64, #47, .T. ) ;
#271 = DIRECTION ( 'NONE',  ( 4.082155997157848133E-17, -1.000000000000000000, 0.000000000000000000 ) ) ;
#272 =( GEOMETRIC_REPRESENTATION_CONTEXT ( 3 ) GLOBAL_UNCERTAINTY_ASSIGNED_CONTEXT ( ( #236 ) ) GLOBAL_UNIT_ASSIGNED_CONTEXT ( ( #196, #127, #80 ) ) REPRESENTATION_CONTEXT ( 'NONE', 'WORKASPACE' ) );
#273 = DIRECTION ( 'NONE',  ( 0.000000000000000000, 0.000000000000000000, -1.000000000000000000 ) ) ;
#274 =( NAMED_UNIT ( * ) SI_UNIT ( $, .STERADIAN. ) SOLID_ANGLE_UNIT ( ) );
#275 = AXIS2_PLACEMENT_3D ( 'NONE', #25, #144, #18 ) ;
#276 = ORIENTED_EDGE ( 'NONE', *, *, #60, .F. ) ;
#277 = DIRECTION ( 'NONE',  ( -0.000000000000000000, -1.000000000000000000, -0.000000000000000000 ) ) ;
#278 = DIRECTION ( 'NONE',  ( 0.000000000000000000, 0.000000000000000000, -1.000000000000000000 ) ) ;
#279 = ORIENTED_EDGE ( 'NONE', *, *, #29, .T. ) ;
#280 = EDGE_CURVE ( 'NONE', #287, #121, #138, .T. ) ;
#281 = DIRECTION ( 'NONE',  ( -4.082155997157848133E-17, 1.000000000000000000, -0.000000000000000000 ) ) ;
#282 = COLOUR_RGB ( '',0.7921568627450980005, 0.8196078431372548767, 0.9333333333333333481 ) ;
#283 = FILL_AREA_STYLE_COLOUR ( '', #282 ) ;
#284 = CIRCLE ( 'NONE', #22, 0.1250000000000000555 ) ;
#285 = DIRECTION ( 'NONE',  ( -0.000000000000000000, -1.000000000000000000, -0.000000000000000000 ) ) ;
#286 = CARTESIAN_POINT ( 'NONE',  ( 0.000000000000000000, 1.500000000000000222, 0.000000000000000000 ) ) ;
#287 = VERTEX_POINT ( 'NONE', #305 ) ;
#288 = CARTESIAN_POINT ( 'NONE',  ( 0.000000000000000000, 0.000000000000000000, -0.1250000000000000000 ) ) ;
#289 = STYLED_ITEM ( 'NONE', ( #189 ), #27 ) ;
#290 = AXIS2_PLACEMENT_3D ( 'NONE', #104, #271, #243 ) ;
#291 = DIRECTION ( 'NONE',  ( -4.082155997157848133E-17, 1.000000000000000000, -0.000000000000000000 ) ) ;
#292 =( NAMED_UNIT ( * ) SI_UNIT ( $, .STERADIAN. ) SOLID_ANGLE_UNIT ( ) );
#293 = CIRCLE ( 'NONE', #308, 0.1250000000000000555 ) ;
#294 = CARTESIAN_POINT ( 'NONE',  ( 0.1249999999999999584, 3.000000000000000444, 1.530808498934191817E-17 ) ) ;
#295 = DIMENSIONAL_EXPONENTS ( 1.000000000000000000, 0.000000000000000000, 0.000000000000000000, 0.000000000000000000, 0.000000000000000000, 0.000000000000000000, 0.000000000000000000 ) ;
#296 = AXIS2_PLACEMENT_3D ( 'NONE', #183, #277, #273 ) ;
#297 = ADVANCED_FACE ( 'NONE', ( #188 ), #193, .T. ) ;
#298 = DIRECTION ( 'NONE',  ( -0.000000000000000000, -1.000000000000000000, -0.000000000000000000 ) ) ;
#299 = UNCERTAINTY_MEASURE_WITH_UNIT (LENGTH_MEASURE( 1.000000000000000082E-05 ), #118, 'distance_accuracy_value', 'NONE');
#300 = AXIS2_PLACEMENT_3D ( 'NONE', #200, #175, #4 ) ;
#301 = ADVANCED_FACE ( 'NONE', ( #169 ), #69, .T. ) ;
#302 = ORIENTED_EDGE ( 'NONE', *, *, #149, .F. ) ;
#303 = DIRECTION ( 'NONE',  ( -4.082155997157848133E-17, 1.000000000000000000, -0.000000000000000000 ) ) ;
#304 = EDGE_LOOP ( 'NONE', ( #302, #91, #209, #309 ) ) ;
#305 = CARTESIAN_POINT ( 'NONE',  ( 1.530808498934191509E-17, 1.500000000000000222, 0.1250000000000000000 ) ) ;
#306 = SURFACE_STYLE_FILL_AREA ( #123 ) ;
#307 = SURFACE_STYLE_USAGE ( .BOTH. , #233 ) ;
#308 = AXIS2_PLACEMENT_3D ( 'NONE', #168, #291, #235 ) ;
#309 = ORIENTED_EDGE ( 'NONE', *, *, #249, .F. ) ;
ENDSEC;
END-ISO-10303-21;
