ISO-10303-21;
HEADER;
FILE_DESCRIPTION (( 'STEP AP214' ),
    '1' );
FILE_NAME ('59700.STEP',
    '2023-07-24T15:25:49',
    ( '' ),
    ( '' ),
    'SwSTEP 2.0',
    'SolidWorks 2023',
    '' );
FILE_SCHEMA (( 'AUTOMOTIVE_DESIGN' ));
ENDSEC;

DATA;
#1 = FACE_OUTER_BOUND ( 'NONE', #78, .T. ) ;
#2 = ORIENTED_EDGE ( 'NONE', *, *, #103, .F. ) ;
#3 = DIRECTION ( 'NONE',  ( 0.000000000000000000, 0.000000000000000000, -1.000000000000000000 ) ) ;
#4 = SURFACE_SIDE_STYLE ('',( #156 ) ) ;
#5 = FILL_AREA_STYLE_COLOUR ( '', #74 ) ;
#6 = ORIENTED_EDGE ( 'NONE', *, *, #286, .F. ) ;
#7 = MECHANICAL_DESIGN_GEOMETRIC_PRESENTATION_REPRESENTATION (  '', ( #351 ), #30 ) ;
#8 = DIRECTION ( 'NONE',  ( -0.000000000000000000, -1.000000000000000000, -0.000000000000000000 ) ) ;
#9 = CARTESIAN_POINT ( 'NONE',  ( 4.000000000000000000, 63.00000000000000000, 0.000000000000000000 ) ) ;
#10 = LINE ( 'NONE', #300, #75 ) ;
#11 = DIRECTION ( 'NONE',  ( -0.000000000000000000, -1.000000000000000000, -0.000000000000000000 ) ) ;
#12 = CARTESIAN_POINT ( 'NONE',  ( 0.000000000000000000, 0.000000000000000000, 0.000000000000000000 ) ) ;
#13 = CIRCLE ( 'NONE', #200, 3.000000000000000000 ) ;
#14 = CYLINDRICAL_SURFACE ( 'NONE', #130, 3.999999999999996447 ) ;
#15 = DIRECTION ( 'NONE',  ( -9.448620473410002383E-17, 1.000000000000000000, -0.000000000000000000 ) ) ;
#16 = AXIS2_PLACEMENT_3D ( 'NONE', #185, #159, #193 ) ;
#17 = CIRCLE ( 'NONE', #305, 4.000000000000000000 ) ;
#18 = ORIENTED_EDGE ( 'NONE', *, *, #264, .T. ) ;
#19 = ORIENTED_EDGE ( 'NONE', *, *, #188, .T. ) ;
#20 = DIRECTION ( 'NONE',  ( -1.000000000000000000, 0.000000000000000000, 0.000000000000000000 ) ) ;
#21 = UNCERTAINTY_MEASURE_WITH_UNIT (LENGTH_MEASURE( 1.000000000000000082E-05 ), #321, 'distance_accuracy_value', 'NONE');
#22 = DIRECTION ( 'NONE',  ( -1.000000000000000000, 0.000000000000000000, 0.000000000000000000 ) ) ;
#23 =( GEOMETRIC_REPRESENTATION_CONTEXT ( 3 ) GLOBAL_UNCERTAINTY_ASSIGNED_CONTEXT ( ( #21 ) ) GLOBAL_UNIT_ASSIGNED_CONTEXT ( ( #321, #197, #324 ) ) REPRESENTATION_CONTEXT ( 'NONE', 'WORKASPACE' ) );
#24 = PRODUCT_DEFINITION_SHAPE ( 'NONE', 'NONE',  #309 ) ;
#25 = VERTEX_POINT ( 'NONE', #178 ) ;
#26 = FILL_AREA_STYLE ('',( #157 ) ) ;
#27 =( LENGTH_UNIT ( ) NAMED_UNIT ( * ) SI_UNIT ( .MILLI., .METRE. ) );
#28 = EDGE_CURVE ( 'NONE', #234, #146, #281, .T. ) ;
#29 = DIRECTION ( 'NONE',  ( -0.000000000000000000, -1.000000000000000000, -0.000000000000000000 ) ) ;
#30 =( GEOMETRIC_REPRESENTATION_CONTEXT ( 3 ) GLOBAL_UNCERTAINTY_ASSIGNED_CONTEXT ( ( #64 ) ) GLOBAL_UNIT_ASSIGNED_CONTEXT ( ( #76, #45, #242 ) ) REPRESENTATION_CONTEXT ( 'NONE', 'WORKASPACE' ) );
#31 = ADVANCED_FACE ( 'NONE', ( #258 ), #364, .T. ) ;
#32 = CARTESIAN_POINT ( 'NONE',  ( 1.469576158976823750E-15, 63.00000000000000000, 0.000000000000000000 ) ) ;
#33 = ORIENTED_EDGE ( 'NONE', *, *, #118, .F. ) ;
#34 = SURFACE_SIDE_STYLE ('',( #170 ) ) ;
#35 = AXIS2_PLACEMENT_3D ( 'NONE', #319, #186, #288 ) ;
#36 = DIRECTION ( 'NONE',  ( 0.000000000000000000, 0.000000000000000000, 1.000000000000000000 ) ) ;
#37 = CYLINDRICAL_SURFACE ( 'NONE', #313, 4.000000000000000000 ) ;
#38 = DIRECTION ( 'NONE',  ( 9.448620473410002383E-17, -1.000000000000000000, 0.000000000000000000 ) ) ;
#39 = DIRECTION ( 'NONE',  ( 0.000000000000000000, 0.000000000000000000, -1.000000000000000000 ) ) ;
#40 = UNCERTAINTY_MEASURE_WITH_UNIT (LENGTH_MEASURE( 1.000000000000000082E-05 ), #176, 'distance_accuracy_value', 'NONE');
#41 = SURFACE_STYLE_USAGE ( .BOTH. , #201 ) ;
#42 = EDGE_CURVE ( 'NONE', #252, #25, #287, .T. ) ;
#43 = SURFACE_STYLE_USAGE ( .BOTH. , #34 ) ;
#44 = EDGE_CURVE ( 'NONE', #336, #113, #210, .T. ) ;
#45 =( NAMED_UNIT ( * ) PLANE_ANGLE_UNIT ( ) SI_UNIT ( $, .RADIAN. ) );
#46 = SURFACE_SIDE_STYLE ('',( #82 ) ) ;
#47 = AXIS2_PLACEMENT_3D ( 'NONE', #212, #254, #22 ) ;
#48 = PRESENTATION_LAYER_ASSIGNMENT (  '', '', ( #223 ) ) ;
#49 =( NAMED_UNIT ( * ) PLANE_ANGLE_UNIT ( ) SI_UNIT ( $, .RADIAN. ) );
#50 = EDGE_LOOP ( 'NONE', ( #285, #60, #53, #6 ) ) ;
#51 = VERTEX_POINT ( 'NONE', #151 ) ;
#52 = ORIENTED_EDGE ( 'NONE', *, *, #67, .F. ) ;
#53 = ORIENTED_EDGE ( 'NONE', *, *, #264, .F. ) ;
#54 = CARTESIAN_POINT ( 'NONE',  ( 0.000000000000000000, 0.000000000000000000, 0.000000000000000000 ) ) ;
#55 = CLOSED_SHELL ( 'NONE', ( #111, #245, #362, #331 ) ) ;
#56 = STYLED_ITEM ( 'NONE', ( #161 ), #207 ) ;
#57 = CARTESIAN_POINT ( 'NONE',  ( 0.000000000000000000, 1.000000000000000000, 0.000000000000000000 ) ) ;
#58 = ADVANCED_FACE ( 'NONE', ( #1 ), #272, .T. ) ;
#59 =( NAMED_UNIT ( * ) SI_UNIT ( $, .STERADIAN. ) SOLID_ANGLE_UNIT ( ) );
#60 = ORIENTED_EDGE ( 'NONE', *, *, #205, .T. ) ;
#61 = FILL_AREA_STYLE_COLOUR ( '', #63 ) ;
#62 =( GEOMETRIC_REPRESENTATION_CONTEXT ( 3 ) GLOBAL_UNCERTAINTY_ASSIGNED_CONTEXT ( ( #269 ) ) GLOBAL_UNIT_ASSIGNED_CONTEXT ( ( #354, #329, #133 ) ) REPRESENTATION_CONTEXT ( 'NONE', 'WORKASPACE' ) );
#63 = COLOUR_RGB ( '',1.000000000000000000, 0.000000000000000000, 0.000000000000000000 ) ;
#64 = UNCERTAINTY_MEASURE_WITH_UNIT (LENGTH_MEASURE( 1.000000000000000082E-05 ), #76, 'distance_accuracy_value', 'NONE');
#65 = SURFACE_SIDE_STYLE ('',( #96 ) ) ;
#66 = DIRECTION ( 'NONE',  ( 1.000000000000000000, 9.448620473410002383E-17, 0.000000000000000000 ) ) ;
#67 = EDGE_CURVE ( 'NONE', #349, #236, #250, .T. ) ;
#68 = AXIS2_PLACEMENT_3D ( 'NONE', #91, #260, #289 ) ;
#69 = SURFACE_STYLE_FILL_AREA ( #140 ) ;
#70 = FACE_OUTER_BOUND ( 'NONE', #195, .T. ) ;
#71 = DIRECTION ( 'NONE',  ( -0.000000000000000000, -1.000000000000000000, -0.000000000000000000 ) ) ;
#72 = FILL_AREA_STYLE_COLOUR ( '', #148 ) ;
#73 = DIRECTION ( 'NONE',  ( -1.224646799147352961E-16, 0.000000000000000000, -1.000000000000000000 ) ) ;
#74 = COLOUR_RGB ( '',1.000000000000000000, 0.000000000000000000, 0.000000000000000000 ) ;
#75 = VECTOR ( 'NONE', #15, 1000.000000000000000 ) ;
#76 =( LENGTH_UNIT ( ) NAMED_UNIT ( * ) SI_UNIT ( .MILLI., .METRE. ) );
#77 = CARTESIAN_POINT ( 'NONE',  ( 0.000000000000000000, 12.00000000000000000, 0.000000000000000000 ) ) ;
#78 = EDGE_LOOP ( 'NONE', ( #33, #275, #83, #112 ) ) ;
#79 = ORIENTED_EDGE ( 'NONE', *, *, #28, .T. ) ;
#80 = FACE_OUTER_BOUND ( 'NONE', #279, .T. ) ;
#81 = ORIENTED_EDGE ( 'NONE', *, *, #334, .F. ) ;
#82 = SURFACE_STYLE_FILL_AREA ( #337 ) ;
#83 = ORIENTED_EDGE ( 'NONE', *, *, #44, .T. ) ;
#84 = SURFACE_SIDE_STYLE ('',( #251 ) ) ;
#85 = CARTESIAN_POINT ( 'NONE',  ( 0.000000000000000000, 12.00000000000000000, -4.000000000000000000 ) ) ;
#86 = FACE_OUTER_BOUND ( 'NONE', #50, .T. ) ;
#87 = EDGE_LOOP ( 'NONE', ( #262, #333, #312, #231 ) ) ;
#88 = PRESENTATION_LAYER_ASSIGNMENT (  '', '', ( #351 ) ) ;
#89 = FILL_AREA_STYLE_COLOUR ( '', #199 ) ;
#90 = ADVANCED_FACE ( 'NONE', ( #274 ), #141, .T. ) ;
#91 = CARTESIAN_POINT ( 'NONE',  ( 6.288372600415924928E-15, 11.99999999999999645, 0.000000000000000000 ) ) ;
#92 = CYLINDRICAL_SURFACE ( 'NONE', #266, 3.999999999999996447 ) ;
#93 = CARTESIAN_POINT ( 'NONE',  ( -3.999999999999996447, 63.00000000000000000, 0.000000000000000000 ) ) ;
#94 = SURFACE_SIDE_STYLE ('',( #125 ) ) ;
#95 = VECTOR ( 'NONE', #327, 1000.000000000000000 ) ;
#96 = SURFACE_STYLE_FILL_AREA ( #128 ) ;
#97 = ORIENTED_EDGE ( 'NONE', *, *, #44, .F. ) ;
#98 = SURFACE_SIDE_STYLE ('',( #218 ) ) ;
#99 =( NAMED_UNIT ( * ) PLANE_ANGLE_UNIT ( ) SI_UNIT ( $, .RADIAN. ) );
#100 = VECTOR ( 'NONE', #29, 1000.000000000000000 ) ;
#101 = FACE_OUTER_BOUND ( 'NONE', #338, .T. ) ;
#102 = CARTESIAN_POINT ( 'NONE',  ( 1.469576158976823750E-15, 63.00000000000000000, 0.000000000000000000 ) ) ;
#103 = EDGE_CURVE ( 'NONE', #146, #234, #198, .T. ) ;
#104 = DIRECTION ( 'NONE',  ( -1.000000000000000000, 0.000000000000000000, 0.000000000000000000 ) ) ;
#105 = DIRECTION ( 'NONE',  ( 0.000000000000000000, 0.000000000000000000, -1.000000000000000000 ) ) ;
#106 = CARTESIAN_POINT ( 'NONE',  ( 3.673940397442059868E-16, 1.000000000000000000, 3.000000000000000000 ) ) ;
#107 = EDGE_CURVE ( 'NONE', #236, #349, #173, .T. ) ;
#108 = APPLICATION_CONTEXT ( 'automotive_design' ) ;
#109 =( GEOMETRIC_REPRESENTATION_CONTEXT ( 3 ) GLOBAL_UNCERTAINTY_ASSIGNED_CONTEXT ( ( #358 ) ) GLOBAL_UNIT_ASSIGNED_CONTEXT ( ( #360, #99, #353 ) ) REPRESENTATION_CONTEXT ( 'NONE', 'WORKASPACE' ) );
#110 = CARTESIAN_POINT ( 'NONE',  ( 1.469576158976823750E-15, 63.00000000000000000, 0.000000000000000000 ) ) ;
#111 = ADVANCED_FACE ( 'NONE', ( #350 ), #92, .T. ) ;
#112 = ORIENTED_EDGE ( 'NONE', *, *, #171, .F. ) ;
#113 = VERTEX_POINT ( 'NONE', #263 ) ;
#114 = ADVANCED_FACE ( 'NONE', ( #86 ), #37, .T. ) ;
#115 = PRESENTATION_LAYER_ASSIGNMENT (  '', '', ( #136 ) ) ;
#116 = PRESENTATION_LAYER_ASSIGNMENT (  '', '', ( #56 ) ) ;
#117 = ORIENTED_EDGE ( 'NONE', *, *, #142, .F. ) ;
#118 = EDGE_CURVE ( 'NONE', #172, #51, #211, .T. ) ;
#119 = SURFACE_STYLE_USAGE ( .BOTH. , #84 ) ;
#120 = ORIENTED_EDGE ( 'NONE', *, *, #28, .F. ) ;
#121 = ORIENTED_EDGE ( 'NONE', *, *, #118, .T. ) ;
#122 = DIRECTION ( 'NONE',  ( -1.000000000000000000, -9.448620473410002383E-17, 0.000000000000000000 ) ) ;
#123 = SURFACE_STYLE_USAGE ( .BOTH. , #65 ) ;
#124 = ORIENTED_EDGE ( 'NONE', *, *, #42, .T. ) ;
#125 = SURFACE_STYLE_FILL_AREA ( #346 ) ;
#126 =( GEOMETRIC_REPRESENTATION_CONTEXT ( 3 ) GLOBAL_UNCERTAINTY_ASSIGNED_CONTEXT ( ( #143 ) ) GLOBAL_UNIT_ASSIGNED_CONTEXT ( ( #221, #163, #301 ) ) REPRESENTATION_CONTEXT ( 'NONE', 'WORKASPACE' ) );
#127 = FACE_OUTER_BOUND ( 'NONE', #184, .T. ) ;
#128 = FILL_AREA_STYLE ('',( #61 ) ) ;
#129 = AXIS2_PLACEMENT_3D ( 'NONE', #240, #369, #122 ) ;
#130 = AXIS2_PLACEMENT_3D ( 'NONE', #102, #162, #202 ) ;
#131 = DIRECTION ( 'NONE',  ( -0.000000000000000000, -1.000000000000000000, -0.000000000000000000 ) ) ;
#132 = LINE ( 'NONE', #168, #95 ) ;
#133 =( NAMED_UNIT ( * ) SI_UNIT ( $, .STERADIAN. ) SOLID_ANGLE_UNIT ( ) );
#134 = DIRECTION ( 'NONE',  ( 0.000000000000000000, 0.000000000000000000, -1.000000000000000000 ) ) ;
#135 = UNCERTAINTY_MEASURE_WITH_UNIT (LENGTH_MEASURE( 1.000000000000000082E-05 ), #27, 'distance_accuracy_value', 'NONE');
#136 = STYLED_ITEM ( 'NONE', ( #261 ), #58 ) ;
#137 = CIRCLE ( 'NONE', #335, 3.000000000000000000 ) ;
#138 = DIRECTION ( 'NONE',  ( -0.000000000000000000, -1.000000000000000000, -0.000000000000000000 ) ) ;
#139 = PRODUCT_DEFINITION_FORMATION_WITH_SPECIFIED_SOURCE ( 'ANY', '', #294, .NOT_KNOWN. ) ;
#140 = FILL_AREA_STYLE ('',( #322 ) ) ;
#141 = CYLINDRICAL_SURFACE ( 'NONE', #16, 4.000000000000000000 ) ;
#142 = EDGE_CURVE ( 'NONE', #234, #25, #10, .T. ) ;
#143 = UNCERTAINTY_MEASURE_WITH_UNIT (LENGTH_MEASURE( 1.000000000000000082E-05 ), #221, 'distance_accuracy_value', 'NONE');
#144 = PRESENTATION_LAYER_ASSIGNMENT (  '', '', ( #276 ) ) ;
#145 = ORIENTED_EDGE ( 'NONE', *, *, #334, .T. ) ;
#146 = VERTEX_POINT ( 'NONE', #196 ) ;
#147 = AXIS2_PLACEMENT_3D ( 'NONE', #282, #20, #332 ) ;
#148 = COLOUR_RGB ( '',0.7921568627450980005, 0.8196078431372548767, 0.9333333333333333481 ) ;
#149 =( NAMED_UNIT ( * ) SI_UNIT ( $, .STERADIAN. ) SOLID_ANGLE_UNIT ( ) );
#150 = LINE ( 'NONE', #214, #100 ) ;
#151 = CARTESIAN_POINT ( 'NONE',  ( 4.286263797015736595E-16, 0.000000000000000000, 3.000000000000000000 ) ) ;
#152 =( NAMED_UNIT ( * ) PLANE_ANGLE_UNIT ( ) SI_UNIT ( $, .RADIAN. ) );
#153 = SURFACE_STYLE_USAGE ( .BOTH. , #94 ) ;
#154 = AXIS2_PLACEMENT_3D ( 'NONE', #54, #175, #278 ) ;
#155 = AXIS2_PLACEMENT_3D ( 'NONE', #9, #38, #66 ) ;
#156 = SURFACE_STYLE_FILL_AREA ( #26 ) ;
#157 = FILL_AREA_STYLE_COLOUR ( '', #256 ) ;
#158 = DIRECTION ( 'NONE',  ( -9.448620473410002383E-17, 1.000000000000000000, -0.000000000000000000 ) ) ;
#159 = DIRECTION ( 'NONE',  ( -0.000000000000000000, -1.000000000000000000, -0.000000000000000000 ) ) ;
#160 = SURFACE_STYLE_USAGE ( .BOTH. , #4 ) ;
#161 = PRESENTATION_STYLE_ASSIGNMENT (( #43 ) ) ;
#162 = DIRECTION ( 'NONE',  ( -9.448620473410002383E-17, 1.000000000000000000, -0.000000000000000000 ) ) ;
#163 =( NAMED_UNIT ( * ) PLANE_ANGLE_UNIT ( ) SI_UNIT ( $, .RADIAN. ) );
#164 = CARTESIAN_POINT ( 'NONE',  ( 4.898587196589412829E-16, 1.000000000000000000, 4.000000000000000000 ) ) ;
#165 = DIRECTION ( 'NONE',  ( 0.000000000000000000, 0.000000000000000000, -1.000000000000000000 ) ) ;
#166 = UNCERTAINTY_MEASURE_WITH_UNIT (LENGTH_MEASURE( 1.000000000000000082E-05 ), #314, 'distance_accuracy_value', 'NONE');
#167 = MECHANICAL_DESIGN_GEOMETRIC_PRESENTATION_REPRESENTATION (  '', ( #315 ), #342 ) ;
#168 = CARTESIAN_POINT ( 'NONE',  ( -3.999999999999994671, 63.00000000000000000, 0.000000000000000000 ) ) ;
#169 = DIRECTION ( 'NONE',  ( 0.000000000000000000, 0.000000000000000000, -1.000000000000000000 ) ) ;
#170 = SURFACE_STYLE_FILL_AREA ( #247 ) ;
#171 = EDGE_CURVE ( 'NONE', #51, #113, #13, .T. ) ;
#172 = VERTEX_POINT ( 'NONE', #164 ) ;
#173 = CIRCLE ( 'NONE', #228, 4.000000000000000000 ) ;
#174 = AXIS2_PLACEMENT_3D ( 'NONE', #238, #359, #104 ) ;
#175 = DIRECTION ( 'NONE',  ( 0.000000000000000000, -1.000000000000000000, -0.000000000000000000 ) ) ;
#176 =( LENGTH_UNIT ( ) NAMED_UNIT ( * ) SI_UNIT ( .MILLI., .METRE. ) );
#177 = UNCERTAINTY_MEASURE_WITH_UNIT (LENGTH_MEASURE( 1.000000000000000082E-05 ), #259, 'distance_accuracy_value', 'NONE');
#178 = CARTESIAN_POINT ( 'NONE',  ( 4.000000000000000000, 63.00000000000000000, 4.898587196589409870E-16 ) ) ;
#179 = PRESENTATION_LAYER_ASSIGNMENT (  '', '', ( #227 ) ) ;
#180 = MECHANICAL_DESIGN_GEOMETRIC_PRESENTATION_REPRESENTATION (  '', ( #56 ), #109 ) ;
#181 = DIRECTION ( 'NONE',  ( -9.448620473410002383E-17, 1.000000000000000000, -0.000000000000000000 ) ) ;
#182 = DIRECTION ( 'NONE',  ( -0.000000000000000000, -1.000000000000000000, -0.000000000000000000 ) ) ;
#183 = ADVANCED_BREP_SHAPE_REPRESENTATION ( '59700', ( #207, #311, #367 ), #23 ) ;
#184 = EDGE_LOOP ( 'NONE', ( #2, #120 ) ) ;
#185 = CARTESIAN_POINT ( 'NONE',  ( 0.000000000000000000, 0.000000000000000000, 0.000000000000000000 ) ) ;
#186 = DIRECTION ( 'NONE',  ( 0.000000000000000000, 1.000000000000000000, 0.000000000000000000 ) ) ;
#187 = DIRECTION ( 'NONE',  ( 0.000000000000000000, 0.000000000000000000, -1.000000000000000000 ) ) ;
#188 = EDGE_CURVE ( 'NONE', #113, #51, #137, .T. ) ;
#189 = COLOUR_RGB ( '',1.000000000000000000, 0.000000000000000000, 0.000000000000000000 ) ;
#190 = SURFACE_STYLE_USAGE ( .BOTH. , #46 ) ;
#191 = VECTOR ( 'NONE', #138, 1000.000000000000000 ) ;
#192 = ORIENTED_EDGE ( 'NONE', *, *, #171, .T. ) ;
#193 = DIRECTION ( 'NONE',  ( 0.000000000000000000, 0.000000000000000000, -1.000000000000000000 ) ) ;
#194 = PLANE ( 'NONE',  #129 ) ;
#195 = EDGE_LOOP ( 'NONE', ( #117, #79, #145, #368 ) ) ;
#196 = CARTESIAN_POINT ( 'NONE',  ( -3.999999999999987121, 11.99999999999999645, 0.000000000000000000 ) ) ;
#197 =( NAMED_UNIT ( * ) PLANE_ANGLE_UNIT ( ) SI_UNIT ( $, .RADIAN. ) );
#198 = CIRCLE ( 'NONE', #68, 3.999999999999993339 ) ;
#199 = COLOUR_RGB ( '',0.7921568627450980005, 0.8196078431372548767, 0.9333333333333333481 ) ;
#200 = AXIS2_PLACEMENT_3D ( 'NONE', #206, #8, #297 ) ;
#201 = SURFACE_SIDE_STYLE ('',( #69 ) ) ;
#202 = DIRECTION ( 'NONE',  ( -1.000000000000000000, 0.000000000000000000, 0.000000000000000000 ) ) ;
#203 = DIRECTION ( 'NONE',  ( -0.000000000000000000, -1.000000000000000000, -0.000000000000000000 ) ) ;
#204 =( NAMED_UNIT ( * ) PLANE_ANGLE_UNIT ( ) SI_UNIT ( $, .RADIAN. ) );
#205 = EDGE_CURVE ( 'NONE', #349, #172, #226, .T. ) ;
#206 = CARTESIAN_POINT ( 'NONE',  ( 0.000000000000000000, 0.000000000000000000, 0.000000000000000000 ) ) ;
#207 = MANIFOLD_SOLID_BREP ( 'Revolve - Cutting Edge', #237 ) ;
#208 = ORIENTED_EDGE ( 'NONE', *, *, #328, .T. ) ;
#209 = PRESENTATION_STYLE_ASSIGNMENT (( #160 ) ) ;
#210 = CIRCLE ( 'NONE', #147, 1.000000000000000000 ) ;
#211 = CIRCLE ( 'NONE', #241, 1.000000000000000000 ) ;
#212 = CARTESIAN_POINT ( 'NONE',  ( 6.288372600415924928E-15, 11.99999999999999645, 0.000000000000000000 ) ) ;
#213 = PRODUCT_RELATED_PRODUCT_CATEGORY ( 'part', '', ( #294 ) ) ;
#214 = CARTESIAN_POINT ( 'NONE',  ( 0.000000000000000000, 0.000000000000000000, -4.000000000000000000 ) ) ;
#215 =( GEOMETRIC_REPRESENTATION_CONTEXT ( 3 ) GLOBAL_UNCERTAINTY_ASSIGNED_CONTEXT ( ( #177 ) ) GLOBAL_UNIT_ASSIGNED_CONTEXT ( ( #259, #152, #348 ) ) REPRESENTATION_CONTEXT ( 'NONE', 'WORKASPACE' ) );
#216 = ORIENTED_EDGE ( 'NONE', *, *, #42, .F. ) ;
#217 = AXIS2_PLACEMENT_3D ( 'NONE', #246, #11, #165 ) ;
#218 = SURFACE_STYLE_FILL_AREA ( #344 ) ;
#219 = DIRECTION ( 'NONE',  ( -0.000000000000000000, -1.000000000000000000, -0.000000000000000000 ) ) ;
#220 = COLOUR_RGB ( '',1.000000000000000000, 0.000000000000000000, 0.000000000000000000 ) ;
#221 =( LENGTH_UNIT ( ) NAMED_UNIT ( * ) SI_UNIT ( .MILLI., .METRE. ) );
#222 = COLOUR_RGB ( '',1.000000000000000000, 0.000000000000000000, 0.000000000000000000 ) ;
#223 = STYLED_ITEM ( 'NONE', ( #340 ), #114 ) ;
#224 = APPLICATION_PROTOCOL_DEFINITION ( 'draft international standard', 'automotive_design', 1998, #295 ) ;
#225 = ADVANCED_FACE ( 'NONE', ( #101 ), #317, .T. ) ;
#226 = LINE ( 'NONE', #303, #191 ) ;
#227 = STYLED_ITEM ( 'NONE', ( #306 ), #31 ) ;
#228 = AXIS2_PLACEMENT_3D ( 'NONE', #292, #182, #3 ) ;
#229 = ADVANCED_FACE ( 'NONE', ( #325 ), #339, .T. ) ;
#230 = DIRECTION ( 'NONE',  ( -1.000000000000000000, 0.000000000000000000, 0.000000000000000000 ) ) ;
#231 = ORIENTED_EDGE ( 'NONE', *, *, #347, .F. ) ;
#232 = ORIENTED_EDGE ( 'NONE', *, *, #188, .F. ) ;
#233 = CIRCLE ( 'NONE', #174, 3.999999999999998224 ) ;
#234 = VERTEX_POINT ( 'NONE', #284 ) ;
#235 = ORIENTED_EDGE ( 'NONE', *, *, #107, .F. ) ;
#236 = VERTEX_POINT ( 'NONE', #85 ) ;
#237 = CLOSED_SHELL ( 'NONE', ( #114, #225, #31, #58, #90, #229 ) ) ;
#238 = CARTESIAN_POINT ( 'NONE',  ( 1.469576158976823750E-15, 63.00000000000000000, 0.000000000000000000 ) ) ;
#239 = PRODUCT_DEFINITION_CONTEXT ( 'detailed design', #108, 'design' ) ;
#240 = CARTESIAN_POINT ( 'NONE',  ( 6.288372600415925717E-15, 12.00000000000000000, 0.000000000000000000 ) ) ;
#241 = AXIS2_PLACEMENT_3D ( 'NONE', #106, #267, #73 ) ;
#242 =( NAMED_UNIT ( * ) SI_UNIT ( $, .STERADIAN. ) SOLID_ANGLE_UNIT ( ) );
#243 =( NAMED_UNIT ( * ) SI_UNIT ( $, .STERADIAN. ) SOLID_ANGLE_UNIT ( ) );
#244 = CARTESIAN_POINT ( 'NONE',  ( 0.000000000000000000, 1.000000000000000000, 0.000000000000000000 ) ) ;
#245 = ADVANCED_FACE ( 'NONE', ( #127 ), #194, .F. ) ;
#246 = CARTESIAN_POINT ( 'NONE',  ( 0.000000000000000000, 1.000000000000000000, 0.000000000000000000 ) ) ;
#247 = FILL_AREA_STYLE ('',( #72 ) ) ;
#248 = PRODUCT_CONTEXT ( 'NONE', #295, 'mechanical' ) ;
#249 = PRESENTATION_STYLE_ASSIGNMENT (( #41 ) ) ;
#250 = CIRCLE ( 'NONE', #330, 4.000000000000000000 ) ;
#251 = SURFACE_STYLE_FILL_AREA ( #365 ) ;
#252 = VERTEX_POINT ( 'NONE', #93 ) ;
#253 = FILL_AREA_STYLE_COLOUR ( '', #222 ) ;
#254 = DIRECTION ( 'NONE',  ( -9.448620473410002383E-17, 1.000000000000000000, -0.000000000000000000 ) ) ;
#255 = MECHANICAL_DESIGN_GEOMETRIC_PRESENTATION_REPRESENTATION (  '', ( #136 ), #62 ) ;
#256 = COLOUR_RGB ( '',1.000000000000000000, 0.000000000000000000, 0.000000000000000000 ) ;
#257 = EDGE_LOOP ( 'NONE', ( #320, #310, #216, #81 ) ) ;
#258 = FACE_OUTER_BOUND ( 'NONE', #363, .T. ) ;
#259 =( LENGTH_UNIT ( ) NAMED_UNIT ( * ) SI_UNIT ( .MILLI., .METRE. ) );
#260 = DIRECTION ( 'NONE',  ( -9.448620473410002383E-17, 1.000000000000000000, -0.000000000000000000 ) ) ;
#261 = PRESENTATION_STYLE_ASSIGNMENT (( #190 ) ) ;
#262 = ORIENTED_EDGE ( 'NONE', *, *, #205, .F. ) ;
#263 = CARTESIAN_POINT ( 'NONE',  ( 0.000000000000000000, 0.000000000000000000, -3.000000000000000000 ) ) ;
#264 = EDGE_CURVE ( 'NONE', #336, #172, #17, .T. ) ;
#265 = PRESENTATION_LAYER_ASSIGNMENT (  '', '', ( #315 ) ) ;
#266 = AXIS2_PLACEMENT_3D ( 'NONE', #32, #158, #370 ) ;
#267 = DIRECTION ( 'NONE',  ( 1.000000000000000000, 0.000000000000000000, -1.224646799147353207E-16 ) ) ;
#268 = CARTESIAN_POINT ( 'NONE',  ( 0.000000000000000000, 1.000000000000000000, -4.000000000000000000 ) ) ;
#269 = UNCERTAINTY_MEASURE_WITH_UNIT (LENGTH_MEASURE( 1.000000000000000082E-05 ), #354, 'distance_accuracy_value', 'NONE');
#270 = CARTESIAN_POINT ( 'NONE',  ( 0.000000000000000000, 0.000000000000000000, 0.000000000000000000 ) ) ;
#271 = CARTESIAN_POINT ( 'NONE',  ( 4.898587196589412829E-16, 12.00000000000000000, 4.000000000000000000 ) ) ;
#272 = TOROIDAL_SURFACE ( 'NONE', #307, 3.000000000000000000, 1.000000000000000000 ) ;
#273 = STYLED_ITEM ( 'NONE', ( #302 ), #311 ) ;
#274 = FACE_OUTER_BOUND ( 'NONE', #87, .T. ) ;
#275 = ORIENTED_EDGE ( 'NONE', *, *, #347, .T. ) ;
#276 = STYLED_ITEM ( 'NONE', ( #209 ), #229 ) ;
#277 = FILL_AREA_STYLE_COLOUR ( '', #189 ) ;
#278 = DIRECTION ( 'NONE',  ( 0.000000000000000000, 0.000000000000000000, -1.000000000000000000 ) ) ;
#279 = EDGE_LOOP ( 'NONE', ( #124, #208 ) ) ;
#280 = PLANE ( 'NONE',  #155 ) ;
#281 = CIRCLE ( 'NONE', #47, 3.999999999999993339 ) ;
#282 = CARTESIAN_POINT ( 'NONE',  ( 0.000000000000000000, 1.000000000000000000, -3.000000000000000000 ) ) ;
#283 = DIRECTION ( 'NONE',  ( -0.000000000000000000, -1.000000000000000000, -0.000000000000000000 ) ) ;
#284 = CARTESIAN_POINT ( 'NONE',  ( 3.999999999999999112, 11.99999999999999645, 4.898587196589409870E-16 ) ) ;
#285 = ORIENTED_EDGE ( 'NONE', *, *, #107, .T. ) ;
#286 = EDGE_CURVE ( 'NONE', #236, #336, #150, .T. ) ;
#287 = CIRCLE ( 'NONE', #355, 3.999999999999998224 ) ;
#288 = DIRECTION ( 'NONE',  ( 0.000000000000000000, -0.000000000000000000, 1.000000000000000000 ) ) ;
#289 = DIRECTION ( 'NONE',  ( -1.000000000000000000, 0.000000000000000000, 0.000000000000000000 ) ) ;
#290 =( GEOMETRIC_REPRESENTATION_CONTEXT ( 3 ) GLOBAL_UNCERTAINTY_ASSIGNED_CONTEXT ( ( #135 ) ) GLOBAL_UNIT_ASSIGNED_CONTEXT ( ( #27, #204, #243 ) ) REPRESENTATION_CONTEXT ( 'NONE', 'WORKASPACE' ) );
#291 = CARTESIAN_POINT ( 'NONE',  ( 0.000000000000000000, 1.000000000000000000, 0.000000000000000000 ) ) ;
#292 = CARTESIAN_POINT ( 'NONE',  ( 0.000000000000000000, 12.00000000000000000, 0.000000000000000000 ) ) ;
#293 = PRESENTATION_STYLE_ASSIGNMENT (( #153 ) ) ;
#294 = PRODUCT ( '59700', '59700', '', ( #248 ) ) ;
#295 = APPLICATION_CONTEXT ( 'automotive_design' ) ;
#296 = SURFACE_STYLE_USAGE ( .BOTH. , #98 ) ;
#297 = DIRECTION ( 'NONE',  ( 0.000000000000000000, 0.000000000000000000, -1.000000000000000000 ) ) ;
#298 = MECHANICAL_DESIGN_GEOMETRIC_PRESENTATION_REPRESENTATION (  '', ( #227 ), #323 ) ;
#299 = MECHANICAL_DESIGN_GEOMETRIC_PRESENTATION_REPRESENTATION (  '', ( #273 ), #126 ) ;
#300 = CARTESIAN_POINT ( 'NONE',  ( 3.999999999999998224, 63.00000000000000000, 4.898587196589408884E-16 ) ) ;
#301 =( NAMED_UNIT ( * ) SI_UNIT ( $, .STERADIAN. ) SOLID_ANGLE_UNIT ( ) );
#302 = PRESENTATION_STYLE_ASSIGNMENT (( #296 ) ) ;
#303 = CARTESIAN_POINT ( 'NONE',  ( 4.898587196589412829E-16, 0.000000000000000000, 4.000000000000000000 ) ) ;
#304 = DIRECTION ( 'NONE',  ( -0.000000000000000000, -1.000000000000000000, -0.000000000000000000 ) ) ;
#305 = AXIS2_PLACEMENT_3D ( 'NONE', #291, #219, #316 ) ;
#306 = PRESENTATION_STYLE_ASSIGNMENT (( #119 ) ) ;
#307 = AXIS2_PLACEMENT_3D ( 'NONE', #244, #71, #39 ) ;
#308 = PRESENTATION_LAYER_ASSIGNMENT (  '', '', ( #273 ) ) ;
#309 = PRODUCT_DEFINITION ( 'UNKNOWN', '', #139, #239 ) ;
#310 = ORIENTED_EDGE ( 'NONE', *, *, #142, .T. ) ;
#311 = MANIFOLD_SOLID_BREP ( 'Revolve - Tool Body (Straight Shanked)', #55 ) ;
#312 = ORIENTED_EDGE ( 'NONE', *, *, #286, .T. ) ;
#313 = AXIS2_PLACEMENT_3D ( 'NONE', #270, #203, #134 ) ;
#314 =( LENGTH_UNIT ( ) NAMED_UNIT ( * ) SI_UNIT ( .MILLI., .METRE. ) );
#315 = STYLED_ITEM ( 'NONE', ( #293 ), #90 ) ;
#316 = DIRECTION ( 'NONE',  ( 0.000000000000000000, 0.000000000000000000, -1.000000000000000000 ) ) ;
#317 = TOROIDAL_SURFACE ( 'NONE', #343, 3.000000000000000000, 1.000000000000000000 ) ;
#318 = CIRCLE ( 'NONE', #217, 4.000000000000000000 ) ;
#319 = CARTESIAN_POINT ( 'NONE',  ( 0.000000000000000000, 12.00000000000000000, 0.000000000000000000 ) ) ;
#320 = ORIENTED_EDGE ( 'NONE', *, *, #103, .T. ) ;
#321 =( LENGTH_UNIT ( ) NAMED_UNIT ( * ) SI_UNIT ( .MILLI., .METRE. ) );
#322 = FILL_AREA_STYLE_COLOUR ( '', #220 ) ;
#323 =( GEOMETRIC_REPRESENTATION_CONTEXT ( 3 ) GLOBAL_UNCERTAINTY_ASSIGNED_CONTEXT ( ( #40 ) ) GLOBAL_UNIT_ASSIGNED_CONTEXT ( ( #176, #49, #149 ) ) REPRESENTATION_CONTEXT ( 'NONE', 'WORKASPACE' ) );
#324 =( NAMED_UNIT ( * ) SI_UNIT ( $, .STERADIAN. ) SOLID_ANGLE_UNIT ( ) );
#325 = FACE_OUTER_BOUND ( 'NONE', #341, .T. ) ;
#326 = SHAPE_DEFINITION_REPRESENTATION ( #24, #183 ) ;
#327 = DIRECTION ( 'NONE',  ( -9.448620473410002383E-17, 1.000000000000000000, -0.000000000000000000 ) ) ;
#328 = EDGE_CURVE ( 'NONE', #25, #252, #233, .T. ) ;
#329 =( NAMED_UNIT ( * ) PLANE_ANGLE_UNIT ( ) SI_UNIT ( $, .RADIAN. ) );
#330 = AXIS2_PLACEMENT_3D ( 'NONE', #77, #304, #169 ) ;
#331 = ADVANCED_FACE ( 'NONE', ( #80 ), #280, .F. ) ;
#332 = DIRECTION ( 'NONE',  ( 0.000000000000000000, 0.000000000000000000, 1.000000000000000000 ) ) ;
#333 = ORIENTED_EDGE ( 'NONE', *, *, #67, .T. ) ;
#334 = EDGE_CURVE ( 'NONE', #146, #252, #132, .T. ) ;
#335 = AXIS2_PLACEMENT_3D ( 'NONE', #12, #131, #105 ) ;
#336 = VERTEX_POINT ( 'NONE', #268 ) ;
#337 = FILL_AREA_STYLE ('',( #277 ) ) ;
#338 = EDGE_LOOP ( 'NONE', ( #18, #121, #232, #97 ) ) ;
#339 = PLANE ( 'NONE',  #35 ) ;
#340 = PRESENTATION_STYLE_ASSIGNMENT (( #123 ) ) ;
#341 = EDGE_LOOP ( 'NONE', ( #235, #52 ) ) ;
#342 =( GEOMETRIC_REPRESENTATION_CONTEXT ( 3 ) GLOBAL_UNCERTAINTY_ASSIGNED_CONTEXT ( ( #166 ) ) GLOBAL_UNIT_ASSIGNED_CONTEXT ( ( #314, #345, #59 ) ) REPRESENTATION_CONTEXT ( 'NONE', 'WORKASPACE' ) );
#343 = AXIS2_PLACEMENT_3D ( 'NONE', #57, #283, #187 ) ;
#344 = FILL_AREA_STYLE ('',( #89 ) ) ;
#345 =( NAMED_UNIT ( * ) PLANE_ANGLE_UNIT ( ) SI_UNIT ( $, .RADIAN. ) );
#346 = FILL_AREA_STYLE ('',( #5 ) ) ;
#347 = EDGE_CURVE ( 'NONE', #172, #336, #318, .T. ) ;
#348 =( NAMED_UNIT ( * ) SI_UNIT ( $, .STERADIAN. ) SOLID_ANGLE_UNIT ( ) );
#349 = VERTEX_POINT ( 'NONE', #271 ) ;
#350 = FACE_OUTER_BOUND ( 'NONE', #257, .T. ) ;
#351 = STYLED_ITEM ( 'NONE', ( #249 ), #225 ) ;
#352 = CARTESIAN_POINT ( 'NONE',  ( 0.000000000000000000, 0.000000000000000000, 0.000000000000000000 ) ) ;
#353 =( NAMED_UNIT ( * ) SI_UNIT ( $, .STERADIAN. ) SOLID_ANGLE_UNIT ( ) );
#354 =( LENGTH_UNIT ( ) NAMED_UNIT ( * ) SI_UNIT ( .MILLI., .METRE. ) );
#355 = AXIS2_PLACEMENT_3D ( 'NONE', #110, #181, #230 ) ;
#356 = DIRECTION ( 'NONE',  ( 1.000000000000000000, 0.000000000000000000, 0.000000000000000000 ) ) ;
#357 = MECHANICAL_DESIGN_GEOMETRIC_PRESENTATION_REPRESENTATION (  '', ( #223 ), #290 ) ;
#358 = UNCERTAINTY_MEASURE_WITH_UNIT (LENGTH_MEASURE( 1.000000000000000082E-05 ), #360, 'distance_accuracy_value', 'NONE');
#359 = DIRECTION ( 'NONE',  ( -9.448620473410002383E-17, 1.000000000000000000, -0.000000000000000000 ) ) ;
#360 =( LENGTH_UNIT ( ) NAMED_UNIT ( * ) SI_UNIT ( .MILLI., .METRE. ) );
#361 = APPLICATION_PROTOCOL_DEFINITION ( 'draft international standard', 'automotive_design', 1998, #108 ) ;
#362 = ADVANCED_FACE ( 'NONE', ( #70 ), #14, .T. ) ;
#363 = EDGE_LOOP ( 'NONE', ( #19, #192 ) ) ;
#364 = PLANE ( 'NONE',  #154 ) ;
#365 = FILL_AREA_STYLE ('',( #253 ) ) ;
#366 = MECHANICAL_DESIGN_GEOMETRIC_PRESENTATION_REPRESENTATION (  '', ( #276 ), #215 ) ;
#367 = AXIS2_PLACEMENT_3D ( 'NONE', #352, #36, #356 ) ;
#368 = ORIENTED_EDGE ( 'NONE', *, *, #328, .F. ) ;
#369 = DIRECTION ( 'NONE',  ( -9.448620473410002383E-17, 1.000000000000000000, 0.000000000000000000 ) ) ;
#370 = DIRECTION ( 'NONE',  ( -1.000000000000000000, 0.000000000000000000, 0.000000000000000000 ) ) ;
ENDSEC;
END-ISO-10303-21;
