ISO-10303-21;
HEADER;
FILE_DESCRIPTION (( 'STEP AP214' ),
    '1' );
FILE_NAME ('Micro_RNCM-030-1X.STEP',
    '2021-09-03T17:39:32',
    ( '' ),
    ( '' ),
    'SwSTEP 2.0',
    'SolidWorks 2020',
    '' );
FILE_SCHEMA (( 'AUTOMOTIVE_DESIGN' ));
ENDSEC;

DATA;
#1 = DIRECTION ( 'NONE',  ( -1.000000000000000000, 0.0000000000000000000, 0.0000000000000000000 ) ) ;
#2 = DIRECTION ( 'NONE',  ( 1.000000000000000000, 0.0000000000000000000, -0.0000000000000000000 ) ) ;
#3 = CARTESIAN_POINT ( 'NONE',  ( 0.003936999999999995191, 0.0000000000000000000, 0.0000000000000000000 ) ) ;
#4 = AXIS2_PLACEMENT_3D ( 'NONE', #160, #202, #242 ) ;
#5 = CARTESIAN_POINT ( 'NONE',  ( -0.05905500000000001720, 0.0000000000000000000, 1.481062999999999574 ) ) ;
#6 = DIRECTION ( 'NONE',  ( 1.000000000000000000, 0.0000000000000000000, 0.0000000000000000000 ) ) ;
#7 = CIRCLE ( 'NONE', #144, 0.05905499999999998251 ) ;
#8 = ORIENTED_EDGE ( 'NONE', *, *, #65, .F. ) ;
#9 = CARTESIAN_POINT ( 'NONE',  ( 0.0000000000000000000, 0.0000000000000000000, 0.05511799999999983379 ) ) ;
#10 = VERTEX_POINT ( 'NONE', #186 ) ;
#11 = CONICAL_SURFACE ( 'NONE', #58, 0.04405499999999974020, 0.7853981633974491672 ) ;
#12 = SURFACE_STYLE_FILL_AREA ( #14 ) ;
#13 = ORIENTED_EDGE ( 'NONE', *, *, #225, .F. ) ;
#14 = FILL_AREA_STYLE ('',( #35 ) ) ;
#15 = DIRECTION ( 'NONE',  ( 1.000000000000000000, 0.0000000000000000000, 0.0000000000000000000 ) ) ;
#16 = FILL_AREA_STYLE_COLOUR ( '', #44 ) ;
#17 = PRESENTATION_STYLE_ASSIGNMENT (( #130 ) ) ;
#18 = ADVANCED_FACE ( 'NONE', ( #227 ), #90, .T. ) ;
#19 = CARTESIAN_POINT ( 'NONE',  ( 0.0000000000000000000, 0.0000000000000000000, 1.481062999999999574 ) ) ;
#20 = APPLICATION_CONTEXT ( 'automotive_design' ) ;
#21 = DIRECTION ( 'NONE',  ( -1.000000000000000000, 0.0000000000000000000, 0.0000000000000000000 ) ) ;
#22 = CONICAL_SURFACE ( 'NONE', #153, 0.003936999999999995191, 0.7853981633974497223 ) ;
#23 = DIRECTION ( 'NONE',  ( -1.000000000000000000, 0.0000000000000000000, 0.0000000000000000000 ) ) ;
#24 = AXIS2_PLACEMENT_3D ( 'NONE', #187, #188, #37 ) ;
#25 = FACE_OUTER_BOUND ( 'NONE', #45, .T. ) ;
#26 = CARTESIAN_POINT ( 'NONE',  ( 0.0000000000000000000, 0.0000000000000000000, 1.496062999999999921 ) ) ;
#27 = CARTESIAN_POINT ( 'NONE',  ( 0.0000000000000000000, 0.0000000000000000000, 0.0000000000000000000 ) ) ;
#28 = DIRECTION ( 'NONE',  ( 0.7071067811865484609, 0.0000000000000000000, 0.7071067811865464625 ) ) ;
#29 = STYLED_ITEM ( 'NONE', ( #79 ), #64 ) ;
#30 = CARTESIAN_POINT ( 'NONE',  ( 0.0000000000000000000, 0.0000000000000000000, 1.496062999999999921 ) ) ;
#31 = EDGE_CURVE ( 'NONE', #163, #204, #172, .T. ) ;
#32 = VERTEX_POINT ( 'NONE', #247 ) ;
#33 = AXIS2_PLACEMENT_3D ( 'NONE', #30, #113, #1 ) ;
#34 = ORIENTED_EDGE ( 'NONE', *, *, #194, .F. ) ;
#35 = FILL_AREA_STYLE_COLOUR ( '', #235 ) ;
#36 = ORIENTED_EDGE ( 'NONE', *, *, #164, .T. ) ;
#37 = DIRECTION ( 'NONE',  ( 1.000000000000000000, 0.0000000000000000000, 0.0000000000000000000 ) ) ;
#38 = VECTOR ( 'NONE', #161, 39.37007874015748143 ) ;
#39 = EDGE_CURVE ( 'NONE', #32, #217, #107, .T. ) ;
#40 = EDGE_CURVE ( 'NONE', #204, #163, #243, .T. ) ;
#41 = CARTESIAN_POINT ( 'NONE',  ( 0.05905500000000001720, 7.232151672364695422E-18, 1.496062999999999921 ) ) ;
#42 = EDGE_LOOP ( 'NONE', ( #61, #120, #143, #82 ) ) ;
#43 = EDGE_LOOP ( 'NONE', ( #118, #80, #100, #123 ) ) ;
#44 = COLOUR_RGB ( '',0.7921568627450980005, 0.8196078431372548767, 0.9333333333333333481 ) ;
#45 = EDGE_LOOP ( 'NONE', ( #219, #157 ) ) ;
#46 = AXIS2_PLACEMENT_3D ( 'NONE', #26, #230, #173 ) ;
#47 = LINE ( 'NONE', #66, #38 ) ;
#48 = DIRECTION ( 'NONE',  ( 0.0000000000000000000, 0.0000000000000000000, 1.000000000000000000 ) ) ;
#49 =( CONVERSION_BASED_UNIT ( 'INCH', #145 ) LENGTH_UNIT ( ) NAMED_UNIT ( #146 ) );
#50 = ADVANCED_FACE ( 'NONE', ( #248 ), #87, .T. ) ;
#51 = AXIS2_PLACEMENT_3D ( 'NONE', #169, #196, #170 ) ;
#52 = MECHANICAL_DESIGN_GEOMETRIC_PRESENTATION_REPRESENTATION (  '', ( #29 ), #206 ) ;
#53 = DIRECTION ( 'NONE',  ( 0.0000000000000000000, 0.0000000000000000000, -1.000000000000000000 ) ) ;
#54 = DIRECTION ( 'NONE',  ( 0.0000000000000000000, 0.0000000000000000000, 1.000000000000000000 ) ) ;
#55 = DIMENSIONAL_EXPONENTS ( 1.000000000000000000, 0.0000000000000000000, 0.0000000000000000000, 0.0000000000000000000, 0.0000000000000000000, 0.0000000000000000000, 0.0000000000000000000 ) ;
#56 = FACE_OUTER_BOUND ( 'NONE', #42, .T. ) ;
#57 = DIRECTION ( 'NONE',  ( -0.7071067811865484609, 8.659560562354943952E-17, 0.7071067811865464625 ) ) ;
#58 = AXIS2_PLACEMENT_3D ( 'NONE', #193, #97, #68 ) ;
#59 = LINE ( 'NONE', #41, #69 ) ;
#60 = MANIFOLD_SOLID_BREP ( 'Cut-Revolve1', #154 ) ;
#61 = ORIENTED_EDGE ( 'NONE', *, *, #31, .T. ) ;
#62 = EDGE_LOOP ( 'NONE', ( #101, #221 ) ) ;
#63 = ORIENTED_EDGE ( 'NONE', *, *, #131, .F. ) ;
#64 = ADVANCED_BREP_SHAPE_REPRESENTATION ( 'Micro_RNCM-030-1X', ( #60, #4 ), #216 ) ;
#65 = EDGE_CURVE ( 'NONE', #126, #10, #105, .T. ) ;
#66 = CARTESIAN_POINT ( 'NONE',  ( -0.05905500000000001720, 0.0000000000000000000, 1.496062999999999921 ) ) ;
#67 = SURFACE_STYLE_FILL_AREA ( #249 ) ;
#68 = DIRECTION ( 'NONE',  ( -1.000000000000000000, 0.0000000000000000000, 0.0000000000000000000 ) ) ;
#69 = VECTOR ( 'NONE', #203, 39.37007874015748143 ) ;
#70 = CARTESIAN_POINT ( 'NONE',  ( 0.05905500000000001720, 7.232151672364695422E-18, 1.481062999999999574 ) ) ;
#71 = FACE_OUTER_BOUND ( 'NONE', #62, .T. ) ;
#72 = PRODUCT_DEFINITION ( 'UNKNOWN', '', #180, #140 ) ;
#73 = CARTESIAN_POINT ( 'NONE',  ( -0.04405499999999974020, 0.0000000000000000000, 1.496062999999999921 ) ) ;
#74 = LINE ( 'NONE', #199, #117 ) ;
#75 =( NAMED_UNIT ( * ) SI_UNIT ( $, .STERADIAN. ) SOLID_ANGLE_UNIT ( ) );
#76 = ORIENTED_EDGE ( 'NONE', *, *, #214, .F. ) ;
#77 = DIMENSIONAL_EXPONENTS ( 1.000000000000000000, 0.0000000000000000000, 0.0000000000000000000, 0.0000000000000000000, 0.0000000000000000000, 0.0000000000000000000, 0.0000000000000000000 ) ;
#78 = PRESENTATION_LAYER_ASSIGNMENT (  '', '', ( #94 ) ) ;
#79 = PRESENTATION_STYLE_ASSIGNMENT (( #86 ) ) ;
#80 = ORIENTED_EDGE ( 'NONE', *, *, #122, .T. ) ;
#81 = ADVANCED_FACE ( 'NONE', ( #25 ), #215, .T. ) ;
#82 = ORIENTED_EDGE ( 'NONE', *, *, #240, .F. ) ;
#83 = DIRECTION ( 'NONE',  ( -1.000000000000000000, 0.0000000000000000000, 0.0000000000000000000 ) ) ;
#84 = ORIENTED_EDGE ( 'NONE', *, *, #131, .T. ) ;
#85 = MECHANICAL_DESIGN_GEOMETRIC_PRESENTATION_REPRESENTATION (  '', ( #94 ), #89 ) ;
#86 = SURFACE_STYLE_USAGE ( .BOTH. , #129 ) ;
#87 = CYLINDRICAL_SURFACE ( 'NONE', #166, 0.05905500000000001720 ) ;
#88 = UNCERTAINTY_MEASURE_WITH_UNIT (LENGTH_MEASURE( 1.000000000000000082E-05 ), #125, 'distance_accuracy_value', 'NONE');
#89 =( GEOMETRIC_REPRESENTATION_CONTEXT ( 3 ) GLOBAL_UNCERTAINTY_ASSIGNED_CONTEXT ( ( #158 ) ) GLOBAL_UNIT_ASSIGNED_CONTEXT ( ( #49, #109, #224 ) ) REPRESENTATION_CONTEXT ( 'NONE', 'WORKASPACE' ) );
#90 = CONICAL_SURFACE ( 'NONE', #112, 0.003936999999999995191, 0.7853981633974497223 ) ;
#91 = ADVANCED_FACE ( 'NONE', ( #229 ), #11, .T. ) ;
#92 = CARTESIAN_POINT ( 'NONE',  ( -0.04405499999999974020, 0.0000000000000000000, 1.496062999999999921 ) ) ;
#93 = CARTESIAN_POINT ( 'NONE',  ( 0.0000000000000000000, 0.0000000000000000000, 1.496062999999999921 ) ) ;
#94 = STYLED_ITEM ( 'NONE', ( #17 ), #60 ) ;
#95 = PLANE ( 'NONE',  #222 ) ;
#96 = DIRECTION ( 'NONE',  ( -0.0000000000000000000, -0.0000000000000000000, -1.000000000000000000 ) ) ;
#97 = DIRECTION ( 'NONE',  ( 0.0000000000000000000, 0.0000000000000000000, -1.000000000000000000 ) ) ;
#98 = DIRECTION ( 'NONE',  ( 0.0000000000000000000, 0.0000000000000000000, 1.000000000000000000 ) ) ;
#99 = CARTESIAN_POINT ( 'NONE',  ( 0.0000000000000000000, 0.0000000000000000000, 1.496062999999999921 ) ) ;
#100 = ORIENTED_EDGE ( 'NONE', *, *, #31, .F. ) ;
#101 = ORIENTED_EDGE ( 'NONE', *, *, #197, .T. ) ;
#102 = PRODUCT_RELATED_PRODUCT_CATEGORY ( 'part', '', ( #236 ) ) ;
#103 =( NAMED_UNIT ( * ) PLANE_ANGLE_UNIT ( ) SI_UNIT ( $, .RADIAN. ) );
#104 = ORIENTED_EDGE ( 'NONE', *, *, #122, .F. ) ;
#105 = CIRCLE ( 'NONE', #51, 0.003936999999999995191 ) ;
#106 =( NAMED_UNIT ( * ) SI_UNIT ( $, .STERADIAN. ) SOLID_ANGLE_UNIT ( ) );
#107 = CIRCLE ( 'NONE', #195, 0.04405499999999974020 ) ;
#108 = LENGTH_MEASURE_WITH_UNIT ( LENGTH_MEASURE( 0.02539999999999999897 ), #210 );
#109 =( NAMED_UNIT ( * ) PLANE_ANGLE_UNIT ( ) SI_UNIT ( $, .RADIAN. ) );
#110 = DIRECTION ( 'NONE',  ( 0.0000000000000000000, 0.0000000000000000000, 1.000000000000000000 ) ) ;
#111 = CIRCLE ( 'NONE', #200, 0.003936999999999995191 ) ;
#112 = AXIS2_PLACEMENT_3D ( 'NONE', #185, #48, #189 ) ;
#113 = DIRECTION ( 'NONE',  ( -0.0000000000000000000, -0.0000000000000000000, -1.000000000000000000 ) ) ;
#114 = APPLICATION_CONTEXT ( 'automotive_design' ) ;
#115 = CARTESIAN_POINT ( 'NONE',  ( 0.0000000000000000000, 0.0000000000000000000, 0.0000000000000000000 ) ) ;
#116 = CARTESIAN_POINT ( 'NONE',  ( 0.0000000000000000000, 0.0000000000000000000, 0.05511799999999983379 ) ) ;
#117 = VECTOR ( 'NONE', #149, 39.37007874015748143 ) ;
#118 = ORIENTED_EDGE ( 'NONE', *, *, #39, .F. ) ;
#119 = CARTESIAN_POINT ( 'NONE',  ( 0.0000000000000000000, 0.0000000000000000000, 0.0000000000000000000 ) ) ;
#120 = ORIENTED_EDGE ( 'NONE', *, *, #179, .T. ) ;
#121 = AXIS2_PLACEMENT_3D ( 'NONE', #93, #171, #2 ) ;
#122 = EDGE_CURVE ( 'NONE', #32, #204, #74, .T. ) ;
#123 = ORIENTED_EDGE ( 'NONE', *, *, #164, .F. ) ;
#124 = ADVANCED_FACE ( 'NONE', ( #71 ), #95, .F. ) ;
#125 =( CONVERSION_BASED_UNIT ( 'INCH', #108 ) LENGTH_UNIT ( ) NAMED_UNIT ( #55 ) );
#126 = VERTEX_POINT ( 'NONE', #150 ) ;
#127 = PRODUCT_CONTEXT ( 'NONE', #20, 'mechanical' ) ;
#128 = VECTOR ( 'NONE', #213, 39.37007874015748143 ) ;
#129 = SURFACE_SIDE_STYLE ('',( #12 ) ) ;
#130 = SURFACE_STYLE_USAGE ( .BOTH. , #148 ) ;
#131 = EDGE_CURVE ( 'NONE', #138, #182, #228, .T. ) ;
#132 = ADVANCED_FACE ( 'NONE', ( #56 ), #201, .T. ) ;
#133 = DIRECTION ( 'NONE',  ( 1.000000000000000000, 0.0000000000000000000, 0.0000000000000000000 ) ) ;
#134 = LINE ( 'NONE', #92, #128 ) ;
#135 = FACE_OUTER_BOUND ( 'NONE', #43, .T. ) ;
#136 = CARTESIAN_POINT ( 'NONE',  ( -0.05905499999999998251, 0.0000000000000000000, 0.05511799999999983379 ) ) ;
#137 = FACE_OUTER_BOUND ( 'NONE', #238, .T. ) ;
#138 = VERTEX_POINT ( 'NONE', #174 ) ;
#139 = EDGE_LOOP ( 'NONE', ( #104, #76, #36, #156 ) ) ;
#140 = PRODUCT_DEFINITION_CONTEXT ( 'detailed design', #114, 'design' ) ;
#141 = SHAPE_DEFINITION_REPRESENTATION ( #147, #64 ) ;
#142 = ORIENTED_EDGE ( 'NONE', *, *, #237, .T. ) ;
#143 = ORIENTED_EDGE ( 'NONE', *, *, #237, .F. ) ;
#144 = AXIS2_PLACEMENT_3D ( 'NONE', #9, #183, #83 ) ;
#145 = LENGTH_MEASURE_WITH_UNIT ( LENGTH_MEASURE( 0.02539999999999999897 ), #165 );
#146 = DIMENSIONAL_EXPONENTS ( 1.000000000000000000, 0.0000000000000000000, 0.0000000000000000000, 0.0000000000000000000, 0.0000000000000000000, 0.0000000000000000000, 0.0000000000000000000 ) ;
#147 = PRODUCT_DEFINITION_SHAPE ( 'NONE', 'NONE',  #72 ) ;
#148 = SURFACE_SIDE_STYLE ('',( #67 ) ) ;
#149 = DIRECTION ( 'NONE',  ( 0.7071067811865482389, 8.659560562354941486E-17, -0.7071067811865469066 ) ) ;
#150 = CARTESIAN_POINT ( 'NONE',  ( -0.003936999999999995191, 3.857147558594503404E-18, 0.0000000000000000000 ) ) ;
#151 = LINE ( 'NONE', #176, #191 ) ;
#152 = APPLICATION_PROTOCOL_DEFINITION ( 'draft international standard', 'automotive_design', 1998, #114 ) ;
#153 = AXIS2_PLACEMENT_3D ( 'NONE', #119, #98, #6 ) ;
#154 = CLOSED_SHELL ( 'NONE', ( #18, #184, #132, #50, #81, #91, #175, #124 ) ) ;
#155 = LINE ( 'NONE', #3, #178 ) ;
#156 = ORIENTED_EDGE ( 'NONE', *, *, #40, .F. ) ;
#157 = ORIENTED_EDGE ( 'NONE', *, *, #39, .T. ) ;
#158 = UNCERTAINTY_MEASURE_WITH_UNIT (LENGTH_MEASURE( 1.000000000000000082E-05 ), #49, 'distance_accuracy_value', 'NONE');
#159 = CONICAL_SURFACE ( 'NONE', #167, 0.04405499999999974020, 0.7853981633974491672 ) ;
#160 = CARTESIAN_POINT ( 'NONE',  ( 0.0000000000000000000, 0.0000000000000000000, 0.0000000000000000000 ) ) ;
#161 = DIRECTION ( 'NONE',  ( -0.0000000000000000000, -0.0000000000000000000, -1.000000000000000000 ) ) ;
#162 =( CONVERSION_BASED_UNIT ( 'INCH', #181 ) LENGTH_UNIT ( ) NAMED_UNIT ( #77 ) );
#163 = VERTEX_POINT ( 'NONE', #5 ) ;
#164 = EDGE_CURVE ( 'NONE', #217, #163, #134, .T. ) ;
#165 =( LENGTH_UNIT ( ) NAMED_UNIT ( * ) SI_UNIT ( $, .METRE. ) );
#166 = AXIS2_PLACEMENT_3D ( 'NONE', #190, #212, #21 ) ;
#167 = AXIS2_PLACEMENT_3D ( 'NONE', #99, #177, #198 ) ;
#168 = AXIS2_PLACEMENT_3D ( 'NONE', #19, #53, #133 ) ;
#169 = CARTESIAN_POINT ( 'NONE',  ( 0.0000000000000000000, 0.0000000000000000000, 0.0000000000000000000 ) ) ;
#170 = DIRECTION ( 'NONE',  ( -1.000000000000000000, 0.0000000000000000000, 0.0000000000000000000 ) ) ;
#171 = DIRECTION ( 'NONE',  ( 0.0000000000000000000, 0.0000000000000000000, 1.000000000000000000 ) ) ;
#172 = CIRCLE ( 'NONE', #168, 0.05905500000000001720 ) ;
#173 = DIRECTION ( 'NONE',  ( 1.000000000000000000, 0.0000000000000000000, 0.0000000000000000000 ) ) ;
#174 = CARTESIAN_POINT ( 'NONE',  ( 0.05905499999999998251, 7.232151672364692341E-18, 0.05511799999999983379 ) ) ;
#175 = ADVANCED_FACE ( 'NONE', ( #137 ), #22, .T. ) ;
#176 = CARTESIAN_POINT ( 'NONE',  ( -0.003936999999999995191, 4.821434448243123477E-19, 0.0000000000000000000 ) ) ;
#177 = DIRECTION ( 'NONE',  ( 0.0000000000000000000, 0.0000000000000000000, -1.000000000000000000 ) ) ;
#178 = VECTOR ( 'NONE', #28, 39.37007874015748854 ) ;
#179 = EDGE_CURVE ( 'NONE', #204, #138, #59, .T. ) ;
#180 = PRODUCT_DEFINITION_FORMATION_WITH_SPECIFIED_SOURCE ( 'ANY', '', #236, .NOT_KNOWN. ) ;
#181 = LENGTH_MEASURE_WITH_UNIT ( LENGTH_MEASURE( 0.02539999999999999897 ), #244 );
#182 = VERTEX_POINT ( 'NONE', #136 ) ;
#183 = DIRECTION ( 'NONE',  ( -0.0000000000000000000, -0.0000000000000000000, -1.000000000000000000 ) ) ;
#184 = ADVANCED_FACE ( 'NONE', ( #135 ), #159, .T. ) ;
#185 = CARTESIAN_POINT ( 'NONE',  ( 0.0000000000000000000, 0.0000000000000000000, 0.0000000000000000000 ) ) ;
#186 = CARTESIAN_POINT ( 'NONE',  ( 0.003936999999999995191, 0.0000000000000000000, 0.0000000000000000000 ) ) ;
#187 = CARTESIAN_POINT ( 'NONE',  ( 0.0000000000000000000, 0.0000000000000000000, 1.481062999999999574 ) ) ;
#188 = DIRECTION ( 'NONE',  ( 0.0000000000000000000, 0.0000000000000000000, -1.000000000000000000 ) ) ;
#189 = DIRECTION ( 'NONE',  ( 1.000000000000000000, 0.0000000000000000000, 0.0000000000000000000 ) ) ;
#190 = CARTESIAN_POINT ( 'NONE',  ( 0.0000000000000000000, 0.0000000000000000000, 1.496062999999999921 ) ) ;
#191 = VECTOR ( 'NONE', #57, 39.37007874015748854 ) ;
#192 = PRESENTATION_LAYER_ASSIGNMENT (  '', '', ( #29 ) ) ;
#193 = CARTESIAN_POINT ( 'NONE',  ( 0.0000000000000000000, 0.0000000000000000000, 1.496062999999999921 ) ) ;
#194 = EDGE_CURVE ( 'NONE', #10, #138, #155, .T. ) ;
#195 = AXIS2_PLACEMENT_3D ( 'NONE', #223, #110, #15 ) ;
#196 = DIRECTION ( 'NONE',  ( -0.0000000000000000000, -0.0000000000000000000, -1.000000000000000000 ) ) ;
#197 = EDGE_CURVE ( 'NONE', #10, #126, #111, .T. ) ;
#198 = DIRECTION ( 'NONE',  ( -1.000000000000000000, 0.0000000000000000000, 0.0000000000000000000 ) ) ;
#199 = CARTESIAN_POINT ( 'NONE',  ( 0.04405499999999974020, 5.395181473643631161E-18, 1.496062999999999921 ) ) ;
#200 = AXIS2_PLACEMENT_3D ( 'NONE', #115, #96, #232 ) ;
#201 = CYLINDRICAL_SURFACE ( 'NONE', #33, 0.05905500000000001720 ) ;
#202 = DIRECTION ( 'NONE',  ( 0.0000000000000000000, 0.0000000000000000000, 1.000000000000000000 ) ) ;
#203 = DIRECTION ( 'NONE',  ( -0.0000000000000000000, -0.0000000000000000000, -1.000000000000000000 ) ) ;
#204 = VERTEX_POINT ( 'NONE', #70 ) ;
#205 = ORIENTED_EDGE ( 'NONE', *, *, #40, .T. ) ;
#206 =( GEOMETRIC_REPRESENTATION_CONTEXT ( 3 ) GLOBAL_UNCERTAINTY_ASSIGNED_CONTEXT ( ( #88 ) ) GLOBAL_UNIT_ASSIGNED_CONTEXT ( ( #125, #103, #75 ) ) REPRESENTATION_CONTEXT ( 'NONE', 'WORKASPACE' ) );
#207 = EDGE_LOOP ( 'NONE', ( #8, #208, #142, #34 ) ) ;
#208 = ORIENTED_EDGE ( 'NONE', *, *, #225, .T. ) ;
#209 = EDGE_LOOP ( 'NONE', ( #218, #205, #239, #63 ) ) ;
#210 =( LENGTH_UNIT ( ) NAMED_UNIT ( * ) SI_UNIT ( $, .METRE. ) );
#211 = CIRCLE ( 'NONE', #46, 0.04405499999999974020 ) ;
#212 = DIRECTION ( 'NONE',  ( -0.0000000000000000000, -0.0000000000000000000, -1.000000000000000000 ) ) ;
#213 = DIRECTION ( 'NONE',  ( -0.7071067811865482389, 0.0000000000000000000, -0.7071067811865469066 ) ) ;
#214 = EDGE_CURVE ( 'NONE', #217, #32, #211, .T. ) ;
#215 = PLANE ( 'NONE',  #121 ) ;
#216 =( GEOMETRIC_REPRESENTATION_CONTEXT ( 3 ) GLOBAL_UNCERTAINTY_ASSIGNED_CONTEXT ( ( #226 ) ) GLOBAL_UNIT_ASSIGNED_CONTEXT ( ( #162, #246, #106 ) ) REPRESENTATION_CONTEXT ( 'NONE', 'WORKASPACE' ) );
#217 = VERTEX_POINT ( 'NONE', #73 ) ;
#218 = ORIENTED_EDGE ( 'NONE', *, *, #179, .F. ) ;
#219 = ORIENTED_EDGE ( 'NONE', *, *, #214, .T. ) ;
#220 = APPLICATION_PROTOCOL_DEFINITION ( 'draft international standard', 'automotive_design', 1998, #20 ) ;
#221 = ORIENTED_EDGE ( 'NONE', *, *, #65, .T. ) ;
#222 = AXIS2_PLACEMENT_3D ( 'NONE', #27, #54, #233 ) ;
#223 = CARTESIAN_POINT ( 'NONE',  ( 0.0000000000000000000, 0.0000000000000000000, 1.496062999999999921 ) ) ;
#224 =( NAMED_UNIT ( * ) SI_UNIT ( $, .STERADIAN. ) SOLID_ANGLE_UNIT ( ) );
#225 = EDGE_CURVE ( 'NONE', #126, #182, #151, .T. ) ;
#226 = UNCERTAINTY_MEASURE_WITH_UNIT (LENGTH_MEASURE( 1.000000000000000082E-05 ), #162, 'distance_accuracy_value', 'NONE');
#227 = FACE_OUTER_BOUND ( 'NONE', #207, .T. ) ;
#228 = CIRCLE ( 'NONE', #234, 0.05905499999999998251 ) ;
#229 = FACE_OUTER_BOUND ( 'NONE', #139, .T. ) ;
#230 = DIRECTION ( 'NONE',  ( 0.0000000000000000000, 0.0000000000000000000, 1.000000000000000000 ) ) ;
#231 = DIRECTION ( 'NONE',  ( -0.0000000000000000000, -0.0000000000000000000, -1.000000000000000000 ) ) ;
#232 = DIRECTION ( 'NONE',  ( -1.000000000000000000, 0.0000000000000000000, 0.0000000000000000000 ) ) ;
#233 = DIRECTION ( 'NONE',  ( 1.000000000000000000, 0.0000000000000000000, -0.0000000000000000000 ) ) ;
#234 = AXIS2_PLACEMENT_3D ( 'NONE', #116, #231, #23 ) ;
#235 = COLOUR_RGB ( '',0.7921568627450980005, 0.8196078431372548767, 0.9333333333333333481 ) ;
#236 = PRODUCT ( 'Micro_RNCM-030-1X', 'Micro_RNCM-030-1X', '', ( #127 ) ) ;
#237 = EDGE_CURVE ( 'NONE', #182, #138, #7, .T. ) ;
#238 = EDGE_LOOP ( 'NONE', ( #13, #241, #245, #84 ) ) ;
#239 = ORIENTED_EDGE ( 'NONE', *, *, #240, .T. ) ;
#240 = EDGE_CURVE ( 'NONE', #163, #182, #47, .T. ) ;
#241 = ORIENTED_EDGE ( 'NONE', *, *, #197, .F. ) ;
#242 = DIRECTION ( 'NONE',  ( 1.000000000000000000, 0.0000000000000000000, 0.0000000000000000000 ) ) ;
#243 = CIRCLE ( 'NONE', #24, 0.05905500000000001720 ) ;
#244 =( LENGTH_UNIT ( ) NAMED_UNIT ( * ) SI_UNIT ( $, .METRE. ) );
#245 = ORIENTED_EDGE ( 'NONE', *, *, #194, .T. ) ;
#246 =( NAMED_UNIT ( * ) PLANE_ANGLE_UNIT ( ) SI_UNIT ( $, .RADIAN. ) );
#247 = CARTESIAN_POINT ( 'NONE',  ( 0.04405499999999974020, 6.313666573004163292E-18, 1.496062999999999921 ) ) ;
#248 = FACE_OUTER_BOUND ( 'NONE', #209, .T. ) ;
#249 = FILL_AREA_STYLE ('',( #16 ) ) ;
ENDSEC;
END-ISO-10303-21;
