ISO-10303-21;
HEADER;
FILE_DESCRIPTION (( 'STEP AP203' ),
    '1' );
FILE_NAME ('Micro_RMEM-014-2.STEP',
    '2021-09-22T18:35:35',
    ( '' ),
    ( '' ),
    'SwSTEP 2.0',
    'SolidWorks 2020',
    '' );
FILE_SCHEMA (( 'CONFIG_CONTROL_DESIGN' ));
ENDSEC;

DATA;
#1 = PERSON_AND_ORGANIZATION_ROLE ( 'creator' ) ;
#2 = DATE_AND_TIME ( #257, #160 ) ;
#3 = ORIENTED_EDGE ( 'NONE', *, *, #289, .F. ) ;
#4 = LOCAL_TIME ( 14, 35, 35.00000000000000000, #232 ) ;
#5 = COORDINATED_UNIVERSAL_TIME_OFFSET ( 5, 0, .BEHIND. ) ;
#6 = AXIS2_PLACEMENT_3D ( 'NONE', #97, #276, #323 ) ;
#7 = PERSON ( 'UNSPECIFIED', 'UNSPECIFIED', 'UNSPECIFIED', ('UNSPECIFIED'), ('UNSPECIFIED'), ('UNSPECIFIED') ) ;
#8 = FACE_OUTER_BOUND ( 'NONE', #158, .T. ) ;
#9 = EDGE_LOOP ( 'NONE', ( #185, #285, #91, #193 ) ) ;
#10 = DIRECTION ( 'NONE',  ( 1.000000000000000000, 0.0000000000000000000, 0.0000000000000000000 ) ) ;
#11 = EDGE_LOOP ( 'NONE', ( #313, #233, #309, #78 ) ) ;
#12 = ORIENTED_EDGE ( 'NONE', *, *, #314, .F. ) ;
#13 = ADVANCED_FACE ( 'NONE', ( #8 ), #33, .F. ) ;
#14 = CARTESIAN_POINT ( 'NONE',  ( -0.05905499999999996863, 0.0000000000000000000, 0.3441329870463450957 ) ) ;
#15 = CONICAL_SURFACE ( 'NONE', #205, 0.04405499999999974020, 0.7853981633974491672 ) ;
#16 = DIRECTION ( 'NONE',  ( 1.000000000000000000, 0.0000000000000000000, 0.0000000000000000000 ) ) ;
#17 = FACE_OUTER_BOUND ( 'NONE', #258, .T. ) ;
#18 = EDGE_CURVE ( 'NONE', #92, #268, #109, .T. ) ;
#19 = PRODUCT_DEFINITION_FORMATION_WITH_SPECIFIED_SOURCE ( 'ANY', '', #296, .NOT_KNOWN. ) ;
#20 = DIRECTION ( 'NONE',  ( -1.000000000000000000, 0.0000000000000000000, 1.224646799147353207E-16 ) ) ;
#21 = CARTESIAN_POINT ( 'NONE',  ( 4.214413610673241973E-17, 0.0000000000000000000, 0.3441329870463450957 ) ) ;
#22 = FACE_OUTER_BOUND ( 'NONE', #126, .T. ) ;
#23 = MECHANICAL_CONTEXT ( 'NONE', #46, 'mechanical' ) ;
#24 =( CONVERSION_BASED_UNIT ( 'INCH', #155 ) LENGTH_UNIT ( ) NAMED_UNIT ( #278 ) );
#25 = ORIENTED_EDGE ( 'NONE', *, *, #37, .T. ) ;
#26 = DIRECTION ( 'NONE',  ( -1.224646799147353207E-16, -0.0000000000000000000, -1.000000000000000000 ) ) ;
#27 = CC_DESIGN_PERSON_AND_ORGANIZATION_ASSIGNMENT ( #237, #51, ( #108 ) ) ;
#28 = LOCAL_TIME ( 14, 35, 35.00000000000000000, #5 ) ;
#29 = CARTESIAN_POINT ( 'NONE',  ( 0.0000000000000000000, 0.0000000000000000000, 0.0000000000000000000 ) ) ;
#30 = PLANE ( 'NONE',  #274 ) ;
#31 = CIRCLE ( 'NONE', #6, 0.04405499999999974020 ) ;
#32 = CC_DESIGN_PERSON_AND_ORGANIZATION_ASSIGNMENT ( #284, #100, ( #19 ) ) ;
#33 = PLANE ( 'NONE',  #38 ) ;
#34 = DIRECTION ( 'NONE',  ( 0.0000000000000000000, 0.0000000000000000000, -1.000000000000000000 ) ) ;
#35 = DIRECTION ( 'NONE',  ( -0.7071067811865482389, 0.0000000000000000000, -0.7071067811865469066 ) ) ;
#36 = DIRECTION ( 'NONE',  ( 0.0000000000000000000, 0.0000000000000000000, -1.000000000000000000 ) ) ;
#37 = EDGE_CURVE ( 'NONE', #102, #195, #222, .T. ) ;
#38 = AXIS2_PLACEMENT_3D ( 'NONE', #62, #169, #110 ) ;
#39 = DIRECTION ( 'NONE',  ( -1.224646799147353207E-16, -0.0000000000000000000, -1.000000000000000000 ) ) ;
#40 = CARTESIAN_POINT ( 'NONE',  ( 0.05905500000000001720, 7.232151672364695422E-18, 1.481062999999999574 ) ) ;
#41 = EDGE_CURVE ( 'NONE', #287, #262, #269, .T. ) ;
#42 = CARTESIAN_POINT ( 'NONE',  ( -0.02753144100000001065, 0.0000000000000000000, 6.743258219312843302E-18 ) ) ;
#43 = DESIGN_CONTEXT ( 'detailed design', #244, 'design' ) ;
#44 = CARTESIAN_POINT ( 'NONE',  ( -0.02753144100000000025, 5.301890391010560078E-18, 0.1653539999999999732 ) ) ;
#45 = CARTESIAN_POINT ( 'NONE',  ( 0.04405499999999974020, 5.395181473643631161E-18, 1.496062999999999921 ) ) ;
#46 = APPLICATION_CONTEXT ( 'configuration controlled 3d designs of mechanical parts and assemblies' ) ;
#47 = AXIS2_PLACEMENT_3D ( 'NONE', #96, #177, #95 ) ;
#48 = CC_DESIGN_PERSON_AND_ORGANIZATION_ASSIGNMENT ( #204, #1, ( #19 ) ) ;
#49 = PRODUCT_DEFINITION_SHAPE ( 'NONE', 'NONE',  #108 ) ;
#50 =( NAMED_UNIT ( * ) SI_UNIT ( $, .STERADIAN. ) SOLID_ANGLE_UNIT ( ) );
#51 = PERSON_AND_ORGANIZATION_ROLE ( 'creator' ) ;
#52 = EDGE_CURVE ( 'NONE', #102, #287, #88, .T. ) ;
#53 = ORIENTED_EDGE ( 'NONE', *, *, #190, .T. ) ;
#54 = APPLICATION_PROTOCOL_DEFINITION ( 'international standard', 'config_control_design', 1994, #244 ) ;
#55 = AXIS2_PLACEMENT_3D ( 'NONE', #117, #320, #196 ) ;
#56 = ORIENTED_EDGE ( 'NONE', *, *, #52, .T. ) ;
#57 = DIRECTION ( 'NONE',  ( -1.224646799147353207E-16, -0.0000000000000000000, -1.000000000000000000 ) ) ;
#58 = CIRCLE ( 'NONE', #321, 0.02753144100000001065 ) ;
#59 = DIRECTION ( 'NONE',  ( -1.224646799147353207E-16, -0.0000000000000000000, -1.000000000000000000 ) ) ;
#60 = AXIS2_PLACEMENT_3D ( 'NONE', #29, #26, #328 ) ;
#61 = DATE_AND_TIME ( #168, #148 ) ;
#62 = CARTESIAN_POINT ( 'NONE',  ( 0.0000000000000000000, 0.0000000000000000000, 0.0000000000000000000 ) ) ;
#63 = ORIENTED_EDGE ( 'NONE', *, *, #18, .F. ) ;
#64 = ADVANCED_FACE ( 'NONE', ( #263 ), #30, .T. ) ;
#65 = LINE ( 'NONE', #147, #101 ) ;
#66 = CARTESIAN_POINT ( 'NONE',  ( 0.05905500000000001720, 7.232151672364695422E-18, 1.496062999999999921 ) ) ;
#67 = EDGE_CURVE ( 'NONE', #268, #213, #129, .T. ) ;
#68 = DIRECTION ( 'NONE',  ( 1.224646799147353207E-16, 0.0000000000000000000, 1.000000000000000000 ) ) ;
#69 = CARTESIAN_POINT ( 'NONE',  ( 4.129054797052776902E-34, 0.0000000000000000000, 3.371629109656421651E-18 ) ) ;
#70 = AXIS2_PLACEMENT_3D ( 'NONE', #265, #87, #216 ) ;
#71 = DIRECTION ( 'NONE',  ( -1.000000000000000000, 0.0000000000000000000, 1.224646799147353207E-16 ) ) ;
#72 = APPROVAL_STATUS ( 'not_yet_approved' ) ;
#73 = EDGE_CURVE ( 'NONE', #213, #268, #156, .T. ) ;
#74 = PERSON_AND_ORGANIZATION ( #7, #176 ) ;
#75 = VECTOR ( 'NONE', #326, 39.37007874015748143 ) ;
#76 = EDGE_LOOP ( 'NONE', ( #12, #210, #81, #63 ) ) ;
#77 = SECURITY_CLASSIFICATION_LEVEL ( 'unclassified' ) ;
#78 = ORIENTED_EDGE ( 'NONE', *, *, #234, .T. ) ;
#79 = UNCERTAINTY_MEASURE_WITH_UNIT (LENGTH_MEASURE( 1.000000000000000082E-05 ), #24, 'distance_accuracy_value', 'NONE');
#80 = ADVANCED_FACE ( 'NONE', ( #317 ), #219, .T. ) ;
#81 = ORIENTED_EDGE ( 'NONE', *, *, #67, .F. ) ;
#82 = EDGE_LOOP ( 'NONE', ( #53, #316 ) ) ;
#83 = ADVANCED_BREP_SHAPE_REPRESENTATION ( 'Micro_RMEM-014-2', ( #178, #221 ), #130 ) ;
#84 = FACE_OUTER_BOUND ( 'NONE', #9, .T. ) ;
#85 = ADVANCED_FACE ( 'NONE', ( #240 ), #246, .T. ) ;
#86 = DIRECTION ( 'NONE',  ( -1.224646799147353207E-16, -0.0000000000000000000, -1.000000000000000000 ) ) ;
#87 = DIRECTION ( 'NONE',  ( 0.0000000000000000000, 0.0000000000000000000, -1.000000000000000000 ) ) ;
#88 = CIRCLE ( 'NONE', #202, 0.02753144100000002106 ) ;
#89 = CC_DESIGN_PERSON_AND_ORGANIZATION_ASSIGNMENT ( #182, #153, ( #116 ) ) ;
#90 = APPROVAL_STATUS ( 'not_yet_approved' ) ;
#91 = ORIENTED_EDGE ( 'NONE', *, *, #256, .T. ) ;
#92 = VERTEX_POINT ( 'NONE', #298 ) ;
#93 = AXIS2_PLACEMENT_3D ( 'NONE', #251, #299, #16 ) ;
#94 = DIRECTION ( 'NONE',  ( 1.000000000000000000, 0.0000000000000000000, 0.0000000000000000000 ) ) ;
#95 = DIRECTION ( 'NONE',  ( -1.000000000000000000, 0.0000000000000000000, 0.0000000000000000000 ) ) ;
#96 = CARTESIAN_POINT ( 'NONE',  ( 0.0000000000000000000, 0.0000000000000000000, 1.496062999999999921 ) ) ;
#97 = CARTESIAN_POINT ( 'NONE',  ( 0.0000000000000000000, 0.0000000000000000000, 1.496062999999999921 ) ) ;
#98 = CONICAL_SURFACE ( 'NONE', #143, 0.02753144100000002106, 0.1745329251994339192 ) ;
#99 = DIRECTION ( 'NONE',  ( -1.224646799147353207E-16, -0.0000000000000000000, -1.000000000000000000 ) ) ;
#100 = PERSON_AND_ORGANIZATION_ROLE ( 'design_supplier' ) ;
#101 = VECTOR ( 'NONE', #250, 39.37007874015748143 ) ;
#102 = VERTEX_POINT ( 'NONE', #315 ) ;
#103 = CC_DESIGN_DATE_AND_TIME_ASSIGNMENT ( #138, #215, ( #116 ) ) ;
#104 = ORIENTED_EDGE ( 'NONE', *, *, #140, .F. ) ;
#105 = APPROVAL_PERSON_ORGANIZATION ( #260, #253, #157 ) ;
#106 =( LENGTH_UNIT ( ) NAMED_UNIT ( * ) SI_UNIT ( $, .METRE. ) );
#107 = PERSON_AND_ORGANIZATION ( #7, #176 ) ;
#108 = PRODUCT_DEFINITION ( 'UNKNOWN', '', #19, #43 ) ;
#109 = LINE ( 'NONE', #241, #235 ) ;
#110 = DIRECTION ( 'NONE',  ( 1.000000000000000000, 0.0000000000000000000, -0.0000000000000000000 ) ) ;
#111 = APPROVAL_DATE_TIME ( #61, #300 ) ;
#112 = CARTESIAN_POINT ( 'NONE',  ( 0.0000000000000000000, 0.0000000000000000000, 1.481062999999999574 ) ) ;
#113 = ADVANCED_FACE ( 'NONE', ( #84 ), #98, .T. ) ;
#114 = ORIENTED_EDGE ( 'NONE', *, *, #67, .T. ) ;
#115 = VECTOR ( 'NONE', #304, 39.37007874015748143 ) ;
#116 = SECURITY_CLASSIFICATION ( '', '', #77 ) ;
#117 = CARTESIAN_POINT ( 'NONE',  ( 0.0000000000000000000, 0.0000000000000000000, 1.496062999999999921 ) ) ;
#118 = FACE_OUTER_BOUND ( 'NONE', #154, .T. ) ;
#119 = DIRECTION ( 'NONE',  ( -1.224646799147353207E-16, -0.0000000000000000000, -1.000000000000000000 ) ) ;
#120 = DIRECTION ( 'NONE',  ( -1.224646799147353207E-16, -0.0000000000000000000, -1.000000000000000000 ) ) ;
#121 = DIRECTION ( 'NONE',  ( -1.000000000000000000, 0.0000000000000000000, 0.0000000000000000000 ) ) ;
#122 = PRODUCT_RELATED_PRODUCT_CATEGORY ( 'detail', '', ( #296 ) ) ;
#123 = CARTESIAN_POINT ( 'NONE',  ( -0.05905500000000001720, 0.0000000000000000000, 1.481062999999999574 ) ) ;
#124 = DATE_TIME_ROLE ( 'creation_date' ) ;
#125 = EDGE_CURVE ( 'NONE', #287, #128, #170, .T. ) ;
#126 = EDGE_LOOP ( 'NONE', ( #181, #56, #139, #292 ) ) ;
#127 = APPROVAL_STATUS ( 'not_yet_approved' ) ;
#128 = VERTEX_POINT ( 'NONE', #14 ) ;
#129 = CIRCLE ( 'NONE', #318, 0.05905500000000001720 ) ;
#130 =( GEOMETRIC_REPRESENTATION_CONTEXT ( 3 ) GLOBAL_UNCERTAINTY_ASSIGNED_CONTEXT ( ( #79 ) ) GLOBAL_UNIT_ASSIGNED_CONTEXT ( ( #24, #212, #50 ) ) REPRESENTATION_CONTEXT ( 'NONE', 'WORKASPACE' ) );
#131 = CARTESIAN_POINT ( 'NONE',  ( 0.0000000000000000000, 0.0000000000000000000, 0.0000000000000000000 ) ) ;
#132 = ORIENTED_EDGE ( 'NONE', *, *, #171, .F. ) ;
#133 = ADVANCED_FACE ( 'NONE', ( #118 ), #151, .T. ) ;
#134 = APPROVAL_ROLE ( '' ) ;
#135 = ORIENTED_EDGE ( 'NONE', *, *, #18, .T. ) ;
#136 = CIRCLE ( 'NONE', #238, 0.05905500000000001720 ) ;
#137 = ORIENTED_EDGE ( 'NONE', *, *, #256, .F. ) ;
#138 = DATE_AND_TIME ( #187, #4 ) ;
#139 = ORIENTED_EDGE ( 'NONE', *, *, #41, .T. ) ;
#140 = EDGE_CURVE ( 'NONE', #183, #213, #223, .T. ) ;
#141 = EDGE_LOOP ( 'NONE', ( #114, #214, #137, #3 ) ) ;
#142 = DIRECTION ( 'NONE',  ( -1.000000000000000000, 0.0000000000000000000, 0.0000000000000000000 ) ) ;
#143 = AXIS2_PLACEMENT_3D ( 'NONE', #189, #68, #94 ) ;
#144 = CARTESIAN_POINT ( 'NONE',  ( 2.025002468262114287E-17, 0.0000000000000000000, 0.1653539999999999732 ) ) ;
#145 = DIRECTION ( 'NONE',  ( -1.224646799147353207E-16, -0.0000000000000000000, -1.000000000000000000 ) ) ;
#146 = VECTOR ( 'NONE', #200, 39.37007874015748143 ) ;
#147 = CARTESIAN_POINT ( 'NONE',  ( -0.05905500000000001720, 0.0000000000000000000, 1.496062999999999921 ) ) ;
#148 = LOCAL_TIME ( 14, 35, 35.00000000000000000, #239 ) ;
#149 = DIRECTION ( 'NONE',  ( 1.000000000000000000, 0.0000000000000000000, 0.0000000000000000000 ) ) ;
#150 = ADVANCED_FACE ( 'NONE', ( #199 ), #192, .T. ) ;
#151 = CYLINDRICAL_SURFACE ( 'NONE', #305, 0.02753144100000001759 ) ;
#152 = DATE_AND_TIME ( #180, #295 ) ;
#153 = PERSON_AND_ORGANIZATION_ROLE ( 'classification_officer' ) ;
#154 = EDGE_LOOP ( 'NONE', ( #231, #25, #319, #297 ) ) ;
#155 = LENGTH_MEASURE_WITH_UNIT ( LENGTH_MEASURE( 0.02539999999999999897 ), #106 );
#156 = CIRCLE ( 'NONE', #259, 0.05905500000000001720 ) ;
#157 = APPROVAL_ROLE ( '' ) ;
#158 = EDGE_LOOP ( 'NONE', ( #220, #207 ) ) ;
#159 = EDGE_CURVE ( 'NONE', #195, #262, #58, .T. ) ;
#160 = LOCAL_TIME ( 14, 35, 35.00000000000000000, #280 ) ;
#161 = CARTESIAN_POINT ( 'NONE',  ( 0.02753144100000001759, 3.371629109656422807E-18, -3.371629109656422807E-18 ) ) ;
#162 = CARTESIAN_POINT ( 'NONE',  ( 0.0000000000000000000, 0.0000000000000000000, 1.496062999999999921 ) ) ;
#163 = AXIS2_PLACEMENT_3D ( 'NONE', #302, #275, #149 ) ;
#164 = EDGE_CURVE ( 'NONE', #287, #102, #310, .T. ) ;
#165 = DIRECTION ( 'NONE',  ( 0.0000000000000000000, 0.0000000000000000000, 1.000000000000000000 ) ) ;
#166 = CC_DESIGN_SECURITY_CLASSIFICATION ( #116, ( #19 ) ) ;
#167 = ORIENTED_EDGE ( 'NONE', *, *, #289, .T. ) ;
#168 = CALENDAR_DATE ( 2021, 22, 9 ) ;
#169 = DIRECTION ( 'NONE',  ( 0.0000000000000000000, 0.0000000000000000000, 1.000000000000000000 ) ) ;
#170 = LINE ( 'NONE', #247, #245 ) ;
#171 = EDGE_CURVE ( 'NONE', #213, #294, #322, .T. ) ;
#172 = CARTESIAN_POINT ( 'NONE',  ( 4.129054797052776902E-34, 0.0000000000000000000, 3.371629109656421651E-18 ) ) ;
#173 = CARTESIAN_POINT ( 'NONE',  ( 0.0000000000000000000, 0.0000000000000000000, 1.496062999999999921 ) ) ;
#174 = EDGE_CURVE ( 'NONE', #262, #195, #179, .T. ) ;
#175 = CARTESIAN_POINT ( 'NONE',  ( 0.05905500000000005884, 7.232151672364700045E-18, 0.3441329870463450957 ) ) ;
#176 = ORGANIZATION ( 'UNSPECIFIED', 'UNSPECIFIED', '' ) ;
#177 = DIRECTION ( 'NONE',  ( -0.0000000000000000000, -0.0000000000000000000, -1.000000000000000000 ) ) ;
#178 = MANIFOLD_SOLID_BREP ( 'Cut-Revolve1', #186 ) ;
#179 = CIRCLE ( 'NONE', #249, 0.02753144100000001065 ) ;
#180 = CALENDAR_DATE ( 2021, 22, 9 ) ;
#181 = ORIENTED_EDGE ( 'NONE', *, *, #37, .F. ) ;
#182 = PERSON_AND_ORGANIZATION ( #7, #176 ) ;
#183 = VERTEX_POINT ( 'NONE', #225 ) ;
#184 = APPROVAL_DATE_TIME ( #152, #282 ) ;
#185 = ORIENTED_EDGE ( 'NONE', *, *, #164, .F. ) ;
#186 = CLOSED_SHELL ( 'NONE', ( #133, #113, #272, #85, #211, #64, #80, #150, #325, #13 ) ) ;
#187 = CALENDAR_DATE ( 2021, 22, 9 ) ;
#188 = ORIENTED_EDGE ( 'NONE', *, *, #190, .F. ) ;
#189 = CARTESIAN_POINT ( 'NONE',  ( 2.025002468262114287E-17, 0.0000000000000000000, 0.1653539999999999732 ) ) ;
#190 = EDGE_CURVE ( 'NONE', #92, #183, #31, .T. ) ;
#191 = EDGE_LOOP ( 'NONE', ( #104, #188, #135, #281 ) ) ;
#192 = CONICAL_SURFACE ( 'NONE', #93, 0.02753144100000002106, 0.1745329251994339192 ) ;
#193 = ORIENTED_EDGE ( 'NONE', *, *, #293, .F. ) ;
#194 = APPROVAL_PERSON_ORGANIZATION ( #107, #300, #134 ) ;
#195 = VERTEX_POINT ( 'NONE', #271 ) ;
#196 = DIRECTION ( 'NONE',  ( -1.000000000000000000, 0.0000000000000000000, 0.0000000000000000000 ) ) ;
#197 = CC_DESIGN_DATE_AND_TIME_ASSIGNMENT ( #307, #124, ( #108 ) ) ;
#198 = DIRECTION ( 'NONE',  ( -1.000000000000000000, 0.0000000000000000000, 1.224646799147353207E-16 ) ) ;
#199 = FACE_OUTER_BOUND ( 'NONE', #11, .T. ) ;
#200 = DIRECTION ( 'NONE',  ( 0.1736481776669314137, 0.0000000000000000000, 0.9848077530122077983 ) ) ;
#201 = CARTESIAN_POINT ( 'NONE',  ( 0.0000000000000000000, 0.0000000000000000000, 0.0000000000000000000 ) ) ;
#202 = AXIS2_PLACEMENT_3D ( 'NONE', #243, #59, #142 ) ;
#203 = DIRECTION ( 'NONE',  ( 0.0000000000000000000, 0.0000000000000000000, -1.000000000000000000 ) ) ;
#204 = PERSON_AND_ORGANIZATION ( #7, #176 ) ;
#205 = AXIS2_PLACEMENT_3D ( 'NONE', #173, #203, #327 ) ;
#206 = APPLICATION_PROTOCOL_DEFINITION ( 'international standard', 'config_control_design', 1994, #46 ) ;
#207 = ORIENTED_EDGE ( 'NONE', *, *, #159, .T. ) ;
#208 = CYLINDRICAL_SURFACE ( 'NONE', #60, 0.02753144100000001759 ) ;
#209 = APPROVAL_PERSON_ORGANIZATION ( #74, #282, #230 ) ;
#210 = ORIENTED_EDGE ( 'NONE', *, *, #140, .T. ) ;
#211 = ADVANCED_FACE ( 'NONE', ( #17 ), #227, .T. ) ;
#212 =( NAMED_UNIT ( * ) PLANE_ANGLE_UNIT ( ) SI_UNIT ( $, .RADIAN. ) );
#213 = VERTEX_POINT ( 'NONE', #40 ) ;
#214 = ORIENTED_EDGE ( 'NONE', *, *, #171, .T. ) ;
#215 = DATE_TIME_ROLE ( 'classification_date' ) ;
#216 = DIRECTION ( 'NONE',  ( -1.000000000000000000, 0.0000000000000000000, 0.0000000000000000000 ) ) ;
#217 = ORIENTED_EDGE ( 'NONE', *, *, #73, .T. ) ;
#218 = DIRECTION ( 'NONE',  ( 1.000000000000000000, 0.0000000000000000000, 0.0000000000000000000 ) ) ;
#219 = CONICAL_SURFACE ( 'NONE', #70, 0.04405499999999974020, 0.7853981633974491672 ) ;
#220 = ORIENTED_EDGE ( 'NONE', *, *, #174, .T. ) ;
#221 = AXIS2_PLACEMENT_3D ( 'NONE', #131, #255, #254 ) ;
#222 = LINE ( 'NONE', #161, #288 ) ;
#223 = LINE ( 'NONE', #45, #115 ) ;
#224 = CIRCLE ( 'NONE', #264, 0.05905500000000001720 ) ;
#225 = CARTESIAN_POINT ( 'NONE',  ( 0.04405499999999974020, 6.313666573004163292E-18, 1.496062999999999921 ) ) ;
#226 = LINE ( 'NONE', #324, #146 ) ;
#227 = CYLINDRICAL_SURFACE ( 'NONE', #47, 0.05905500000000001720 ) ;
#228 = FACE_OUTER_BOUND ( 'NONE', #76, .T. ) ;
#229 = CALENDAR_DATE ( 2021, 22, 9 ) ;
#230 = APPROVAL_ROLE ( '' ) ;
#231 = ORIENTED_EDGE ( 'NONE', *, *, #164, .T. ) ;
#232 = COORDINATED_UNIVERSAL_TIME_OFFSET ( 5, 0, .BEHIND. ) ;
#233 = ORIENTED_EDGE ( 'NONE', *, *, #52, .F. ) ;
#234 = EDGE_CURVE ( 'NONE', #294, #128, #136, .T. ) ;
#235 = VECTOR ( 'NONE', #35, 39.37007874015748143 ) ;
#236 = ORIENTED_EDGE ( 'NONE', *, *, #234, .F. ) ;
#237 = PERSON_AND_ORGANIZATION ( #7, #176 ) ;
#238 = AXIS2_PLACEMENT_3D ( 'NONE', #248, #273, #252 ) ;
#239 = COORDINATED_UNIVERSAL_TIME_OFFSET ( 5, 0, .BEHIND. ) ;
#240 = FACE_OUTER_BOUND ( 'NONE', #141, .T. ) ;
#241 = CARTESIAN_POINT ( 'NONE',  ( -0.04405499999999974020, 0.0000000000000000000, 1.496062999999999921 ) ) ;
#242 = DIRECTION ( 'NONE',  ( 1.000000000000000000, 0.0000000000000000000, -0.0000000000000000000 ) ) ;
#243 = CARTESIAN_POINT ( 'NONE',  ( 2.025002468262114287E-17, 0.0000000000000000000, 0.1653539999999999732 ) ) ;
#244 = APPLICATION_CONTEXT ( 'configuration controlled 3d designs of mechanical parts and assemblies' ) ;
#245 = VECTOR ( 'NONE', #270, 39.37007874015747433 ) ;
#246 = CYLINDRICAL_SURFACE ( 'NONE', #55, 0.05905500000000001720 ) ;
#247 = CARTESIAN_POINT ( 'NONE',  ( -0.02753144100000000025, 3.371629109656423577E-18, 0.1653539999999999732 ) ) ;
#248 = CARTESIAN_POINT ( 'NONE',  ( 4.214413610673241973E-17, 0.0000000000000000000, 0.3441329870463450957 ) ) ;
#249 = AXIS2_PLACEMENT_3D ( 'NONE', #172, #145, #71 ) ;
#250 = DIRECTION ( 'NONE',  ( -0.0000000000000000000, -0.0000000000000000000, -1.000000000000000000 ) ) ;
#251 = CARTESIAN_POINT ( 'NONE',  ( 2.025002468262114287E-17, 0.0000000000000000000, 0.1653539999999999732 ) ) ;
#252 = DIRECTION ( 'NONE',  ( 1.000000000000000000, 0.0000000000000000000, 0.0000000000000000000 ) ) ;
#253 = APPROVAL ( #127, 'UNSPECIFIED' ) ;
#254 = DIRECTION ( 'NONE',  ( 1.000000000000000000, 0.0000000000000000000, 0.0000000000000000000 ) ) ;
#255 = DIRECTION ( 'NONE',  ( 0.0000000000000000000, 0.0000000000000000000, 1.000000000000000000 ) ) ;
#256 = EDGE_CURVE ( 'NONE', #128, #294, #224, .T. ) ;
#257 = CALENDAR_DATE ( 2021, 22, 9 ) ;
#258 = EDGE_LOOP ( 'NONE', ( #132, #217, #167, #236 ) ) ;
#259 = AXIS2_PLACEMENT_3D ( 'NONE', #112, #36, #218 ) ;
#260 = PERSON_AND_ORGANIZATION ( #7, #176 ) ;
#261 = CC_DESIGN_APPROVAL ( #282, ( #19 ) ) ;
#262 = VERTEX_POINT ( 'NONE', #42 ) ;
#263 = FACE_OUTER_BOUND ( 'NONE', #82, .T. ) ;
#264 = AXIS2_PLACEMENT_3D ( 'NONE', #21, #120, #301 ) ;
#265 = CARTESIAN_POINT ( 'NONE',  ( 0.0000000000000000000, 0.0000000000000000000, 1.496062999999999921 ) ) ;
#266 = SHAPE_DEFINITION_REPRESENTATION ( #49, #83 ) ;
#267 = CARTESIAN_POINT ( 'NONE',  ( 0.0000000000000000000, 0.0000000000000000000, 1.481062999999999574 ) ) ;
#268 = VERTEX_POINT ( 'NONE', #123 ) ;
#269 = LINE ( 'NONE', #290, #303 ) ;
#270 = DIRECTION ( 'NONE',  ( -0.1736481776669312194, 2.126576849575783625E-17, 0.9848077530122080203 ) ) ;
#271 = CARTESIAN_POINT ( 'NONE',  ( 0.02753144100000001065, 3.371629109656422422E-18, -4.739000847409537175E-34 ) ) ;
#272 = ADVANCED_FACE ( 'NONE', ( #228 ), #15, .T. ) ;
#273 = DIRECTION ( 'NONE',  ( -1.224646799147353207E-16, -0.0000000000000000000, -1.000000000000000000 ) ) ;
#274 = AXIS2_PLACEMENT_3D ( 'NONE', #162, #165, #242 ) ;
#275 = DIRECTION ( 'NONE',  ( 0.0000000000000000000, 0.0000000000000000000, 1.000000000000000000 ) ) ;
#276 = DIRECTION ( 'NONE',  ( 0.0000000000000000000, 0.0000000000000000000, 1.000000000000000000 ) ) ;
#277 = CC_DESIGN_PERSON_AND_ORGANIZATION_ASSIGNMENT ( #286, #311, ( #296 ) ) ;
#278 = DIMENSIONAL_EXPONENTS ( 1.000000000000000000, 0.0000000000000000000, 0.0000000000000000000, 0.0000000000000000000, 0.0000000000000000000, 0.0000000000000000000, 0.0000000000000000000 ) ;
#279 = AXIS2_PLACEMENT_3D ( 'NONE', #144, #119, #121 ) ;
#280 = COORDINATED_UNIVERSAL_TIME_OFFSET ( 5, 0, .BEHIND. ) ;
#281 = ORIENTED_EDGE ( 'NONE', *, *, #73, .F. ) ;
#282 = APPROVAL ( #72, 'UNSPECIFIED' ) ;
#283 = COORDINATED_UNIVERSAL_TIME_OFFSET ( 5, 0, .BEHIND. ) ;
#284 = PERSON_AND_ORGANIZATION ( #7, #176 ) ;
#285 = ORIENTED_EDGE ( 'NONE', *, *, #125, .T. ) ;
#286 = PERSON_AND_ORGANIZATION ( #7, #176 ) ;
#287 = VERTEX_POINT ( 'NONE', #44 ) ;
#288 = VECTOR ( 'NONE', #86, 39.37007874015748143 ) ;
#289 = EDGE_CURVE ( 'NONE', #268, #128, #65, .T. ) ;
#290 = CARTESIAN_POINT ( 'NONE',  ( -0.02753144100000001759, 0.0000000000000000000, 3.371629109656422807E-18 ) ) ;
#291 = CIRCLE ( 'NONE', #163, 0.04405499999999974020 ) ;
#292 = ORIENTED_EDGE ( 'NONE', *, *, #159, .F. ) ;
#293 = EDGE_CURVE ( 'NONE', #102, #294, #226, .T. ) ;
#294 = VERTEX_POINT ( 'NONE', #175 ) ;
#295 = LOCAL_TIME ( 14, 35, 35.00000000000000000, #283 ) ;
#296 = PRODUCT ( 'Micro_RMEM-014-2', 'Micro_RMEM-014-2', '', ( #23 ) ) ;
#297 = ORIENTED_EDGE ( 'NONE', *, *, #41, .F. ) ;
#298 = CARTESIAN_POINT ( 'NONE',  ( -0.04405499999999974020, 0.0000000000000000000, 1.496062999999999921 ) ) ;
#299 = DIRECTION ( 'NONE',  ( 1.224646799147353207E-16, 0.0000000000000000000, 1.000000000000000000 ) ) ;
#300 = APPROVAL ( #90, 'UNSPECIFIED' ) ;
#301 = DIRECTION ( 'NONE',  ( 1.000000000000000000, 0.0000000000000000000, 0.0000000000000000000 ) ) ;
#302 = CARTESIAN_POINT ( 'NONE',  ( 0.0000000000000000000, 0.0000000000000000000, 1.496062999999999921 ) ) ;
#303 = VECTOR ( 'NONE', #57, 39.37007874015748143 ) ;
#304 = DIRECTION ( 'NONE',  ( 0.7071067811865482389, 8.659560562354941486E-17, -0.7071067811865469066 ) ) ;
#305 = AXIS2_PLACEMENT_3D ( 'NONE', #201, #99, #198 ) ;
#306 = CC_DESIGN_APPROVAL ( #300, ( #116 ) ) ;
#307 = DATE_AND_TIME ( #229, #28 ) ;
#308 = APPROVAL_DATE_TIME ( #2, #253 ) ;
#309 = ORIENTED_EDGE ( 'NONE', *, *, #293, .T. ) ;
#310 = CIRCLE ( 'NONE', #279, 0.02753144100000002106 ) ;
#311 = PERSON_AND_ORGANIZATION_ROLE ( 'design_owner' ) ;
#312 = CC_DESIGN_APPROVAL ( #253, ( #108 ) ) ;
#313 = ORIENTED_EDGE ( 'NONE', *, *, #125, .F. ) ;
#314 = EDGE_CURVE ( 'NONE', #183, #92, #291, .T. ) ;
#315 = CARTESIAN_POINT ( 'NONE',  ( 0.02753144100000004188, 0.0000000000000000000, 0.1653539999999999732 ) ) ;
#316 = ORIENTED_EDGE ( 'NONE', *, *, #314, .T. ) ;
#317 = FACE_OUTER_BOUND ( 'NONE', #191, .T. ) ;
#318 = AXIS2_PLACEMENT_3D ( 'NONE', #267, #34, #10 ) ;
#319 = ORIENTED_EDGE ( 'NONE', *, *, #174, .F. ) ;
#320 = DIRECTION ( 'NONE',  ( -0.0000000000000000000, -0.0000000000000000000, -1.000000000000000000 ) ) ;
#321 = AXIS2_PLACEMENT_3D ( 'NONE', #69, #39, #20 ) ;
#322 = LINE ( 'NONE', #66, #75 ) ;
#323 = DIRECTION ( 'NONE',  ( 1.000000000000000000, 0.0000000000000000000, 0.0000000000000000000 ) ) ;
#324 = CARTESIAN_POINT ( 'NONE',  ( 0.02753144100000004188, 0.0000000000000000000, 0.1653539999999999732 ) ) ;
#325 = ADVANCED_FACE ( 'NONE', ( #22 ), #208, .T. ) ;
#326 = DIRECTION ( 'NONE',  ( -0.0000000000000000000, -0.0000000000000000000, -1.000000000000000000 ) ) ;
#327 = DIRECTION ( 'NONE',  ( -1.000000000000000000, 0.0000000000000000000, 0.0000000000000000000 ) ) ;
#328 = DIRECTION ( 'NONE',  ( -1.000000000000000000, 0.0000000000000000000, 1.224646799147353207E-16 ) ) ;
ENDSEC;
END-ISO-10303-21;
