ISO-10303-21;
HEADER;
FILE_DESCRIPTION (( 'STEP AP214' ),
    '1' );
FILE_NAME ('03660.STEP',
    '2023-06-22T15:36:47',
    ( '' ),
    ( '' ),
    'SwSTEP 2.0',
    'SolidWorks 2023',
    '' );
FILE_SCHEMA (( 'AUTOMOTIVE_DESIGN' ));
ENDSEC;

DATA;
#1 = ORIENTED_EDGE ( 'NONE', *, *, #232, .T. ) ;
#2 = DIRECTION ( 'NONE',  ( -1.000000000000000000, 0.000000000000000000, 0.000000000000000000 ) ) ;
#3 = ADVANCED_FACE ( 'NONE', ( #264 ), #37, .T. ) ;
#4 = ORIENTED_EDGE ( 'NONE', *, *, #5, .T. ) ;
#5 = EDGE_CURVE ( 'NONE', #208, #253, #229, .T. ) ;
#6 = DIRECTION ( 'NONE',  ( -0.000000000000000000, -1.000000000000000000, -0.000000000000000000 ) ) ;
#7 = DIRECTION ( 'NONE',  ( -1.000000000000000000, 0.000000000000000000, 0.000000000000000000 ) ) ;
#8 = LENGTH_MEASURE_WITH_UNIT ( LENGTH_MEASURE( 0.02539999999999999897 ), #90 );
#9 = AXIS2_PLACEMENT_3D ( 'NONE', #63, #124, #246 ) ;
#10 = PLANE ( 'NONE',  #27 ) ;
#11 =( CONVERSION_BASED_UNIT ( 'INCH', #36 ) LENGTH_UNIT ( ) NAMED_UNIT ( #146 ) );
#12 = ORIENTED_EDGE ( 'NONE', *, *, #252, .T. ) ;
#13 = UNCERTAINTY_MEASURE_WITH_UNIT (LENGTH_MEASURE( 1.000000000000000082E-05 ), #11, 'distance_accuracy_value', 'NONE');
#14 = DIRECTION ( 'NONE',  ( 0.000000000000000000, 0.000000000000000000, -1.000000000000000000 ) ) ;
#15 = CARTESIAN_POINT ( 'NONE',  ( 0.000000000000000000, 0.000000000000000000, 0.000000000000000000 ) ) ;
#16 = SURFACE_STYLE_FILL_AREA ( #193 ) ;
#17 = COLOUR_RGB ( '',1.000000000000000000, 0.000000000000000000, 0.000000000000000000 ) ;
#18 = DIRECTION ( 'NONE',  ( -1.000000000000000000, 0.000000000000000000, 0.000000000000000000 ) ) ;
#19 = FILL_AREA_STYLE ('',( #224 ) ) ;
#20 = FACE_OUTER_BOUND ( 'NONE', #168, .T. ) ;
#21 = CLOSED_SHELL ( 'NONE', ( #3, #292, #151, #300 ) ) ;
#22 = AXIS2_PLACEMENT_3D ( 'NONE', #144, #296, #301 ) ;
#23 =( CONVERSION_BASED_UNIT ( 'INCH', #248 ) LENGTH_UNIT ( ) NAMED_UNIT ( #209 ) );
#24 = FILL_AREA_STYLE ('',( #64 ) ) ;
#25 = CIRCLE ( 'NONE', #226, 0.3750000000000000555 ) ;
#26 = VERTEX_POINT ( 'NONE', #57 ) ;
#27 = AXIS2_PLACEMENT_3D ( 'NONE', #266, #49, #236 ) ;
#28 = CIRCLE ( 'NONE', #9, 0.3750000000000000555 ) ;
#29 = SURFACE_STYLE_FILL_AREA ( #141 ) ;
#30 = FILL_AREA_STYLE_COLOUR ( '', #302 ) ;
#31 = PRESENTATION_STYLE_ASSIGNMENT (( #102 ) ) ;
#32 =( NAMED_UNIT ( * ) SI_UNIT ( $, .STERADIAN. ) SOLID_ANGLE_UNIT ( ) );
#33 =( NAMED_UNIT ( * ) SI_UNIT ( $, .STERADIAN. ) SOLID_ANGLE_UNIT ( ) );
#34 =( NAMED_UNIT ( * ) PLANE_ANGLE_UNIT ( ) SI_UNIT ( $, .RADIAN. ) );
#35 = UNCERTAINTY_MEASURE_WITH_UNIT (LENGTH_MEASURE( 1.000000000000000082E-05 ), #198, 'distance_accuracy_value', 'NONE');
#36 = LENGTH_MEASURE_WITH_UNIT ( LENGTH_MEASURE( 0.02539999999999999897 ), #298 );
#37 = CYLINDRICAL_SURFACE ( 'NONE', #74, 0.3750000000000000555 ) ;
#38 = CYLINDRICAL_SURFACE ( 'NONE', #186, 0.3749999999999998890 ) ;
#39 = PLANE ( 'NONE',  #137 ) ;
#40 = PRODUCT_DEFINITION_CONTEXT ( 'detailed design', #262, 'design' ) ;
#41 = DIRECTION ( 'NONE',  ( 0.000000000000000000, 0.000000000000000000, -1.000000000000000000 ) ) ;
#42 = EDGE_LOOP ( 'NONE', ( #134, #240, #53, #203 ) ) ;
#43 = ORIENTED_EDGE ( 'NONE', *, *, #155, .T. ) ;
#44 = EDGE_CURVE ( 'NONE', #253, #208, #176, .T. ) ;
#45 = SHAPE_DEFINITION_REPRESENTATION ( #139, #285 ) ;
#46 = DIRECTION ( 'NONE',  ( 0.000000000000000000, 0.000000000000000000, -1.000000000000000000 ) ) ;
#47 = APPLICATION_PROTOCOL_DEFINITION ( 'draft international standard', 'automotive_design', 1998, #173 ) ;
#48 = DIRECTION ( 'NONE',  ( 1.000000000000000000, -1.031281515071456169E-16, 0.000000000000000000 ) ) ;
#49 = DIRECTION ( 'NONE',  ( 1.031281515071456169E-16, 1.000000000000000000, -0.000000000000000000 ) ) ;
#50 = DIMENSIONAL_EXPONENTS ( 1.000000000000000000, 0.000000000000000000, 0.000000000000000000, 0.000000000000000000, 0.000000000000000000, 0.000000000000000000, 0.000000000000000000 ) ;
#51 = DIRECTION ( 'NONE',  ( 1.031281515071456046E-16, 1.000000000000000000, -0.000000000000000000 ) ) ;
#52 = SURFACE_STYLE_FILL_AREA ( #265 ) ;
#53 = ORIENTED_EDGE ( 'NONE', *, *, #140, .F. ) ;
#54 = PRESENTATION_LAYER_ASSIGNMENT (  '', '', ( #181 ) ) ;
#55 = PRESENTATION_LAYER_ASSIGNMENT (  '', '', ( #133 ) ) ;
#56 =( NAMED_UNIT ( * ) PLANE_ANGLE_UNIT ( ) SI_UNIT ( $, .RADIAN. ) );
#57 = CARTESIAN_POINT ( 'NONE',  ( 4.592425496802575451E-17, 1.625000000000000000, 0.3750000000000000555 ) ) ;
#58 = DIRECTION ( 'NONE',  ( 1.031281515071456046E-16, 1.000000000000000000, -0.000000000000000000 ) ) ;
#59 = LINE ( 'NONE', #243, #260 ) ;
#60 =( LENGTH_UNIT ( ) NAMED_UNIT ( * ) SI_UNIT ( $, .METRE. ) );
#61 =( NAMED_UNIT ( * ) PLANE_ANGLE_UNIT ( ) SI_UNIT ( $, .RADIAN. ) );
#62 = SURFACE_SIDE_STYLE ('',( #16 ) ) ;
#63 = CARTESIAN_POINT ( 'NONE',  ( 0.000000000000000000, 0.000000000000000000, 0.000000000000000000 ) ) ;
#64 = FILL_AREA_STYLE_COLOUR ( '', #65 ) ;
#65 = COLOUR_RGB ( '',0.7921568627450980005, 0.8196078431372548767, 0.9333333333333333481 ) ;
#66 = CARTESIAN_POINT ( 'NONE',  ( 0.000000000000000000, 0.000000000000000000, 0.000000000000000000 ) ) ;
#67 = CARTESIAN_POINT ( 'NONE',  ( 2.449293598294707400E-16, 4.000000000000000000, 0.000000000000000000 ) ) ;
#68 = EDGE_CURVE ( 'NONE', #259, #26, #218, .T. ) ;
#69 = ORIENTED_EDGE ( 'NONE', *, *, #179, .F. ) ;
#70 = CARTESIAN_POINT ( 'NONE',  ( 0.000000000000000000, 1.625000000000000000, 0.000000000000000000 ) ) ;
#71 = CARTESIAN_POINT ( 'NONE',  ( -3.032960542342103792E-32, 1.625000000000000000, 0.000000000000000000 ) ) ;
#72 = SURFACE_STYLE_USAGE ( .BOTH. , #197 ) ;
#73 = CARTESIAN_POINT ( 'NONE',  ( 2.449293598294707400E-16, 4.000000000000000000, 0.000000000000000000 ) ) ;
#74 = AXIS2_PLACEMENT_3D ( 'NONE', #15, #289, #269 ) ;
#75 = STYLED_ITEM ( 'NONE', ( #270 ), #292 ) ;
#76 = CARTESIAN_POINT ( 'NONE',  ( 0.000000000000000000, 0.000000000000000000, 0.000000000000000000 ) ) ;
#77 = VERTEX_POINT ( 'NONE', #214 ) ;
#78 = CIRCLE ( 'NONE', #255, 0.3749999999999997780 ) ;
#79 = CARTESIAN_POINT ( 'NONE',  ( 0.000000000000000000, 0.000000000000000000, 0.000000000000000000 ) ) ;
#80 = ORIENTED_EDGE ( 'NONE', *, *, #106, .F. ) ;
#81 =( GEOMETRIC_REPRESENTATION_CONTEXT ( 3 ) GLOBAL_UNCERTAINTY_ASSIGNED_CONTEXT ( ( #212 ) ) GLOBAL_UNIT_ASSIGNED_CONTEXT ( ( #187, #34, #32 ) ) REPRESENTATION_CONTEXT ( 'NONE', 'WORKASPACE' ) );
#82 = STYLED_ITEM ( 'NONE', ( #284 ), #201 ) ;
#83 =( NAMED_UNIT ( * ) PLANE_ANGLE_UNIT ( ) SI_UNIT ( $, .RADIAN. ) );
#84 = ADVANCED_FACE ( 'NONE', ( #297 ), #10, .F. ) ;
#85 = PRODUCT_CONTEXT ( 'NONE', #173, 'mechanical' ) ;
#86 = MECHANICAL_DESIGN_GEOMETRIC_PRESENTATION_REPRESENTATION (  '', ( #82 ), #104 ) ;
#87 = DIRECTION ( 'NONE',  ( 1.031281515071456169E-16, 1.000000000000000000, -0.000000000000000000 ) ) ;
#88 = VECTOR ( 'NONE', #244, 39.37007874015748143 ) ;
#89 = EDGE_LOOP ( 'NONE', ( #279, #178 ) ) ;
#90 =( LENGTH_UNIT ( ) NAMED_UNIT ( * ) SI_UNIT ( $, .METRE. ) );
#91 = CARTESIAN_POINT ( 'NONE',  ( 0.000000000000000000, 1.625000000000000000, -0.3750000000000000555 ) ) ;
#92 = EDGE_CURVE ( 'NONE', #259, #77, #59, .T. ) ;
#93 = EDGE_LOOP ( 'NONE', ( #159, #43, #135, #293 ) ) ;
#94 = CARTESIAN_POINT ( 'NONE',  ( 0.000000000000000000, 1.625000000000000000, 0.000000000000000000 ) ) ;
#95 = MANIFOLD_SOLID_BREP ( 'Revolve - Tool Body (Straight Shanked)', #238 ) ;
#96 = CYLINDRICAL_SURFACE ( 'NONE', #174, 0.3750000000000000555 ) ;
#97 = CARTESIAN_POINT ( 'NONE',  ( 0.3750000000000001665, 4.000000000000000000, 4.592425496802572986E-17 ) ) ;
#98 = DIRECTION ( 'NONE',  ( 1.031281515071456046E-16, 1.000000000000000000, -0.000000000000000000 ) ) ;
#99 = COLOUR_RGB ( '',1.000000000000000000, 0.000000000000000000, 0.000000000000000000 ) ;
#100 = SURFACE_STYLE_FILL_AREA ( #19 ) ;
#101 = LENGTH_MEASURE_WITH_UNIT ( LENGTH_MEASURE( 0.02539999999999999897 ), #117 );
#102 = SURFACE_STYLE_USAGE ( .BOTH. , #147 ) ;
#103 = SURFACE_STYLE_FILL_AREA ( #24 ) ;
#104 =( GEOMETRIC_REPRESENTATION_CONTEXT ( 3 ) GLOBAL_UNCERTAINTY_ASSIGNED_CONTEXT ( ( #216 ) ) GLOBAL_UNIT_ASSIGNED_CONTEXT ( ( #290, #167, #282 ) ) REPRESENTATION_CONTEXT ( 'NONE', 'WORKASPACE' ) );
#105 = SURFACE_SIDE_STYLE ('',( #103 ) ) ;
#106 = EDGE_CURVE ( 'NONE', #26, #113, #145, .T. ) ;
#107 = PRESENTATION_LAYER_ASSIGNMENT (  '', '', ( #304 ) ) ;
#108 = DIRECTION ( 'NONE',  ( -0.000000000000000000, -1.000000000000000000, -0.000000000000000000 ) ) ;
#109 = PRODUCT_DEFINITION ( 'UNKNOWN', '', #239, #40 ) ;
#110 = DIMENSIONAL_EXPONENTS ( 1.000000000000000000, 0.000000000000000000, 0.000000000000000000, 0.000000000000000000, 0.000000000000000000, 0.000000000000000000, 0.000000000000000000 ) ;
#111 = AXIS2_PLACEMENT_3D ( 'NONE', #195, #51, #18 ) ;
#112 =( GEOMETRIC_REPRESENTATION_CONTEXT ( 3 ) GLOBAL_UNCERTAINTY_ASSIGNED_CONTEXT ( ( #132 ) ) GLOBAL_UNIT_ASSIGNED_CONTEXT ( ( #291, #273, #267 ) ) REPRESENTATION_CONTEXT ( 'NONE', 'WORKASPACE' ) );
#113 = VERTEX_POINT ( 'NONE', #115 ) ;
#114 = SURFACE_SIDE_STYLE ('',( #29 ) ) ;
#115 = CARTESIAN_POINT ( 'NONE',  ( 4.592425496802575451E-17, 0.000000000000000000, 0.3750000000000000555 ) ) ;
#116 = CIRCLE ( 'NONE', #295, 0.3750000000000000555 ) ;
#117 =( LENGTH_UNIT ( ) NAMED_UNIT ( * ) SI_UNIT ( $, .METRE. ) );
#118 = DIMENSIONAL_EXPONENTS ( 1.000000000000000000, 0.000000000000000000, 0.000000000000000000, 0.000000000000000000, 0.000000000000000000, 0.000000000000000000, 0.000000000000000000 ) ;
#119 = FILL_AREA_STYLE_COLOUR ( '', #99 ) ;
#120 = DIRECTION ( 'NONE',  ( -1.000000000000000000, 0.000000000000000000, 0.000000000000000000 ) ) ;
#121 = COLOUR_RGB ( '',0.7921568627450980005, 0.8196078431372548767, 0.9333333333333333481 ) ;
#122 = CIRCLE ( 'NONE', #305, 0.3749999999999997780 ) ;
#123 = UNCERTAINTY_MEASURE_WITH_UNIT (LENGTH_MEASURE( 1.000000000000000082E-05 ), #283, 'distance_accuracy_value', 'NONE');
#124 = DIRECTION ( 'NONE',  ( -0.000000000000000000, -1.000000000000000000, -0.000000000000000000 ) ) ;
#125 = DIRECTION ( 'NONE',  ( 0.000000000000000000, 1.000000000000000000, 0.000000000000000000 ) ) ;
#126 = DIRECTION ( 'NONE',  ( -1.000000000000000000, 0.000000000000000000, 0.000000000000000000 ) ) ;
#127 = PRODUCT_RELATED_PRODUCT_CATEGORY ( 'part', '', ( #184 ) ) ;
#128 = ORIENTED_EDGE ( 'NONE', *, *, #237, .T. ) ;
#129 = STYLED_ITEM ( 'NONE', ( #130 ), #300 ) ;
#130 = PRESENTATION_STYLE_ASSIGNMENT (( #303 ) ) ;
#131 = ADVANCED_FACE ( 'NONE', ( #217 ), #38, .T. ) ;
#132 = UNCERTAINTY_MEASURE_WITH_UNIT (LENGTH_MEASURE( 1.000000000000000082E-05 ), #291, 'distance_accuracy_value', 'NONE');
#133 = STYLED_ITEM ( 'NONE', ( #31 ), #151 ) ;
#134 = ORIENTED_EDGE ( 'NONE', *, *, #68, .T. ) ;
#135 = ORIENTED_EDGE ( 'NONE', *, *, #232, .F. ) ;
#136 = FACE_OUTER_BOUND ( 'NONE', #241, .T. ) ;
#137 = AXIS2_PLACEMENT_3D ( 'NONE', #94, #125, #223 ) ;
#138 = ORIENTED_EDGE ( 'NONE', *, *, #140, .T. ) ;
#139 = PRODUCT_DEFINITION_SHAPE ( 'NONE', 'NONE',  #109 ) ;
#140 = EDGE_CURVE ( 'NONE', #77, #113, #28, .T. ) ;
#141 = FILL_AREA_STYLE ('',( #219 ) ) ;
#142 = DIRECTION ( 'NONE',  ( -0.000000000000000000, -1.000000000000000000, -0.000000000000000000 ) ) ;
#143 = SURFACE_SIDE_STYLE ('',( #52 ) ) ;
#144 = CARTESIAN_POINT ( 'NONE',  ( 2.449293598294707400E-16, 4.000000000000000000, 0.000000000000000000 ) ) ;
#145 = LINE ( 'NONE', #222, #88 ) ;
#146 = DIMENSIONAL_EXPONENTS ( 1.000000000000000000, 0.000000000000000000, 0.000000000000000000, 0.000000000000000000, 0.000000000000000000, 0.000000000000000000, 0.000000000000000000 ) ;
#147 = SURFACE_SIDE_STYLE ('',( #100 ) ) ;
#148 =( NAMED_UNIT ( * ) SI_UNIT ( $, .STERADIAN. ) SOLID_ANGLE_UNIT ( ) );
#149 = MECHANICAL_DESIGN_GEOMETRIC_PRESENTATION_REPRESENTATION (  '', ( #181 ), #81 ) ;
#150 = UNCERTAINTY_MEASURE_WITH_UNIT (LENGTH_MEASURE( 1.000000000000000082E-05 ), #23, 'distance_accuracy_value', 'NONE');
#151 = ADVANCED_FACE ( 'NONE', ( #213 ), #96, .T. ) ;
#152 = PRESENTATION_STYLE_ASSIGNMENT (( #210 ) ) ;
#153 = MECHANICAL_DESIGN_GEOMETRIC_PRESENTATION_REPRESENTATION (  '', ( #75 ), #112 ) ;
#154 = DIRECTION ( 'NONE',  ( 0.000000000000000000, -1.000000000000000000, -0.000000000000000000 ) ) ;
#155 = EDGE_CURVE ( 'NONE', #208, #272, #169, .T. ) ;
#156 = AXIS2_PLACEMENT_3D ( 'NONE', #66, #154, #41 ) ;
#157 = CARTESIAN_POINT ( 'NONE',  ( 0.000000000000000000, 0.000000000000000000, 0.000000000000000000 ) ) ;
#158 = APPLICATION_PROTOCOL_DEFINITION ( 'draft international standard', 'automotive_design', 1998, #262 ) ;
#159 = ORIENTED_EDGE ( 'NONE', *, *, #44, .T. ) ;
#160 = EDGE_LOOP ( 'NONE', ( #80, #128, #233, #69 ) ) ;
#161 = ADVANCED_FACE ( 'NONE', ( #175 ), #275, .T. ) ;
#162 = PRESENTATION_LAYER_ASSIGNMENT (  '', '', ( #129 ) ) ;
#163 =( LENGTH_UNIT ( ) NAMED_UNIT ( * ) SI_UNIT ( $, .METRE. ) );
#164 = CARTESIAN_POINT ( 'NONE',  ( 0.3750000000000000555, 4.000000000000000000, 4.592425496802573602E-17 ) ) ;
#165 = ORIENTED_EDGE ( 'NONE', *, *, #276, .T. ) ;
#166 = FILL_AREA_STYLE_COLOUR ( '', #17 ) ;
#167 =( NAMED_UNIT ( * ) PLANE_ANGLE_UNIT ( ) SI_UNIT ( $, .RADIAN. ) );
#168 = EDGE_LOOP ( 'NONE', ( #138, #278 ) ) ;
#169 = LINE ( 'NONE', #97, #227 ) ;
#170 = DIRECTION ( 'NONE',  ( -0.000000000000000000, -1.000000000000000000, -0.000000000000000000 ) ) ;
#171 = EDGE_LOOP ( 'NONE', ( #231, #4, #12, #235 ) ) ;
#172 = DIRECTION ( 'NONE',  ( 0.000000000000000000, 0.000000000000000000, -1.000000000000000000 ) ) ;
#173 = APPLICATION_CONTEXT ( 'automotive_design' ) ;
#174 = AXIS2_PLACEMENT_3D ( 'NONE', #79, #191, #14 ) ;
#175 = FACE_OUTER_BOUND ( 'NONE', #171, .T. ) ;
#176 = CIRCLE ( 'NONE', #111, 0.3750000000000000555 ) ;
#177 =( GEOMETRIC_REPRESENTATION_CONTEXT ( 3 ) GLOBAL_UNCERTAINTY_ASSIGNED_CONTEXT ( ( #150 ) ) GLOBAL_UNIT_ASSIGNED_CONTEXT ( ( #23, #83, #225 ) ) REPRESENTATION_CONTEXT ( 'NONE', 'WORKASPACE' ) );
#178 = ORIENTED_EDGE ( 'NONE', *, *, #5, .F. ) ;
#179 = EDGE_CURVE ( 'NONE', #113, #77, #25, .T. ) ;
#180 = PLANE ( 'NONE',  #220 ) ;
#181 = STYLED_ITEM ( 'NONE', ( #299 ), #3 ) ;
#182 = CARTESIAN_POINT ( 'NONE',  ( 2.449293598294707400E-16, 4.000000000000000000, 0.000000000000000000 ) ) ;
#183 = LENGTH_MEASURE_WITH_UNIT ( LENGTH_MEASURE( 0.02539999999999999897 ), #247 );
#184 = PRODUCT ( '03660', '03660', '', ( #85 ) ) ;
#185 = CARTESIAN_POINT ( 'NONE',  ( -0.3750000000000000555, 1.625000000000000000, 0.000000000000000000 ) ) ;
#186 = AXIS2_PLACEMENT_3D ( 'NONE', #73, #58, #126 ) ;
#187 =( CONVERSION_BASED_UNIT ( 'INCH', #192 ) LENGTH_UNIT ( ) NAMED_UNIT ( #118 ) );
#188 = DIRECTION ( 'NONE',  ( 1.031281515071456046E-16, 1.000000000000000000, -0.000000000000000000 ) ) ;
#189 = FILL_AREA_STYLE ('',( #30 ) ) ;
#190 = LENGTH_MEASURE_WITH_UNIT ( LENGTH_MEASURE( 0.02539999999999999897 ), #60 );
#191 = DIRECTION ( 'NONE',  ( -0.000000000000000000, -1.000000000000000000, -0.000000000000000000 ) ) ;
#192 = LENGTH_MEASURE_WITH_UNIT ( LENGTH_MEASURE( 0.02539999999999999897 ), #163 );
#193 = FILL_AREA_STYLE ('',( #119 ) ) ;
#194 = DIRECTION ( 'NONE',  ( 1.031281515071456169E-16, 1.000000000000000000, -0.000000000000000000 ) ) ;
#195 = CARTESIAN_POINT ( 'NONE',  ( -3.032960542342103792E-32, 1.625000000000000000, 0.000000000000000000 ) ) ;
#196 = SURFACE_STYLE_USAGE ( .BOTH. , #62 ) ;
#197 = SURFACE_SIDE_STYLE ('',( #215 ) ) ;
#198 =( CONVERSION_BASED_UNIT ( 'INCH', #101 ) LENGTH_UNIT ( ) NAMED_UNIT ( #242 ) );
#199 = PLANE ( 'NONE',  #156 ) ;
#200 = PRESENTATION_LAYER_ASSIGNMENT (  '', '', ( #75 ) ) ;
#201 = MANIFOLD_SOLID_BREP ( 'Revolve - Cutting Edge', #21 ) ;
#202 =( GEOMETRIC_REPRESENTATION_CONTEXT ( 3 ) GLOBAL_UNCERTAINTY_ASSIGNED_CONTEXT ( ( #123 ) ) GLOBAL_UNIT_ASSIGNED_CONTEXT ( ( #283, #254, #205 ) ) REPRESENTATION_CONTEXT ( 'NONE', 'WORKASPACE' ) );
#203 = ORIENTED_EDGE ( 'NONE', *, *, #92, .F. ) ;
#204 = CARTESIAN_POINT ( 'NONE',  ( 0.3750000000000000555, 1.625000000000000000, 4.592425496802573602E-17 ) ) ;
#205 =( NAMED_UNIT ( * ) SI_UNIT ( $, .STERADIAN. ) SOLID_ANGLE_UNIT ( ) );
#206 = ORIENTED_EDGE ( 'NONE', *, *, #68, .F. ) ;
#207 = CARTESIAN_POINT ( 'NONE',  ( -0.3749999999999996114, 4.000000000000000000, 0.000000000000000000 ) ) ;
#208 = VERTEX_POINT ( 'NONE', #204 ) ;
#209 = DIMENSIONAL_EXPONENTS ( 1.000000000000000000, 0.000000000000000000, 0.000000000000000000, 0.000000000000000000, 0.000000000000000000, 0.000000000000000000, 0.000000000000000000 ) ;
#210 = SURFACE_STYLE_USAGE ( .BOTH. , #114 ) ;
#211 = CARTESIAN_POINT ( 'NONE',  ( 0.000000000000000000, 1.625000000000000000, 0.000000000000000000 ) ) ;
#212 = UNCERTAINTY_MEASURE_WITH_UNIT (LENGTH_MEASURE( 1.000000000000000082E-05 ), #187, 'distance_accuracy_value', 'NONE');
#213 = FACE_OUTER_BOUND ( 'NONE', #160, .T. ) ;
#214 = CARTESIAN_POINT ( 'NONE',  ( 0.000000000000000000, 0.000000000000000000, -0.3750000000000000555 ) ) ;
#215 = SURFACE_STYLE_FILL_AREA ( #189 ) ;
#216 = UNCERTAINTY_MEASURE_WITH_UNIT (LENGTH_MEASURE( 1.000000000000000082E-05 ), #290, 'distance_accuracy_value', 'NONE');
#217 = FACE_OUTER_BOUND ( 'NONE', #93, .T. ) ;
#218 = CIRCLE ( 'NONE', #294, 0.3750000000000000555 ) ;
#219 = FILL_AREA_STYLE_COLOUR ( '', #121 ) ;
#220 = AXIS2_PLACEMENT_3D ( 'NONE', #258, #280, #48 ) ;
#221 = ADVANCED_FACE ( 'NONE', ( #308 ), #180, .F. ) ;
#222 = CARTESIAN_POINT ( 'NONE',  ( 4.592425496802575451E-17, 0.000000000000000000, 0.3750000000000000555 ) ) ;
#223 = DIRECTION ( 'NONE',  ( 0.000000000000000000, -0.000000000000000000, 1.000000000000000000 ) ) ;
#224 = FILL_AREA_STYLE_COLOUR ( '', #281 ) ;
#225 =( NAMED_UNIT ( * ) SI_UNIT ( $, .STERADIAN. ) SOLID_ANGLE_UNIT ( ) );
#226 = AXIS2_PLACEMENT_3D ( 'NONE', #76, #170, #172 ) ;
#227 = VECTOR ( 'NONE', #194, 39.37007874015748143 ) ;
#228 = CARTESIAN_POINT ( 'NONE',  ( -0.3749999999999995004, 4.000000000000000000, 0.000000000000000000 ) ) ;
#229 = CIRCLE ( 'NONE', #249, 0.3750000000000000555 ) ;
#230 = VECTOR ( 'NONE', #87, 39.37007874015748143 ) ;
#231 = ORIENTED_EDGE ( 'NONE', *, *, #155, .F. ) ;
#232 = EDGE_CURVE ( 'NONE', #306, #272, #78, .T. ) ;
#233 = ORIENTED_EDGE ( 'NONE', *, *, #92, .T. ) ;
#234 = DIRECTION ( 'NONE',  ( 1.031281515071456046E-16, 1.000000000000000000, -0.000000000000000000 ) ) ;
#235 = ORIENTED_EDGE ( 'NONE', *, *, #276, .F. ) ;
#236 = DIRECTION ( 'NONE',  ( -1.000000000000000000, 1.031281515071456169E-16, 0.000000000000000000 ) ) ;
#237 = EDGE_CURVE ( 'NONE', #26, #259, #116, .T. ) ;
#238 = CLOSED_SHELL ( 'NONE', ( #131, #84, #161, #221 ) ) ;
#239 = PRODUCT_DEFINITION_FORMATION_WITH_SPECIFIED_SOURCE ( 'ANY', '', #184, .NOT_KNOWN. ) ;
#240 = ORIENTED_EDGE ( 'NONE', *, *, #106, .T. ) ;
#241 = EDGE_LOOP ( 'NONE', ( #206, #286 ) ) ;
#242 = DIMENSIONAL_EXPONENTS ( 1.000000000000000000, 0.000000000000000000, 0.000000000000000000, 0.000000000000000000, 0.000000000000000000, 0.000000000000000000, 0.000000000000000000 ) ;
#243 = CARTESIAN_POINT ( 'NONE',  ( 0.000000000000000000, 0.000000000000000000, -0.3750000000000000555 ) ) ;
#244 = DIRECTION ( 'NONE',  ( -0.000000000000000000, -1.000000000000000000, -0.000000000000000000 ) ) ;
#245 = AXIS2_PLACEMENT_3D ( 'NONE', #157, #256, #257 ) ;
#246 = DIRECTION ( 'NONE',  ( 0.000000000000000000, 0.000000000000000000, -1.000000000000000000 ) ) ;
#247 =( LENGTH_UNIT ( ) NAMED_UNIT ( * ) SI_UNIT ( $, .METRE. ) );
#248 = LENGTH_MEASURE_WITH_UNIT ( LENGTH_MEASURE( 0.02539999999999999897 ), #251 );
#249 = AXIS2_PLACEMENT_3D ( 'NONE', #71, #98, #120 ) ;
#250 = PRESENTATION_LAYER_ASSIGNMENT (  '', '', ( #82 ) ) ;
#251 =( LENGTH_UNIT ( ) NAMED_UNIT ( * ) SI_UNIT ( $, .METRE. ) );
#252 = EDGE_CURVE ( 'NONE', #253, #306, #309, .T. ) ;
#253 = VERTEX_POINT ( 'NONE', #185 ) ;
#254 =( NAMED_UNIT ( * ) PLANE_ANGLE_UNIT ( ) SI_UNIT ( $, .RADIAN. ) );
#255 = AXIS2_PLACEMENT_3D ( 'NONE', #67, #234, #7 ) ;
#256 = DIRECTION ( 'NONE',  ( 0.000000000000000000, 0.000000000000000000, 1.000000000000000000 ) ) ;
#257 = DIRECTION ( 'NONE',  ( 1.000000000000000000, 0.000000000000000000, 0.000000000000000000 ) ) ;
#258 = CARTESIAN_POINT ( 'NONE',  ( 0.3750000000000000555, 4.000000000000000000, 0.000000000000000000 ) ) ;
#259 = VERTEX_POINT ( 'NONE', #91 ) ;
#260 = VECTOR ( 'NONE', #6, 39.37007874015748143 ) ;
#261 =( GEOMETRIC_REPRESENTATION_CONTEXT ( 3 ) GLOBAL_UNCERTAINTY_ASSIGNED_CONTEXT ( ( #13 ) ) GLOBAL_UNIT_ASSIGNED_CONTEXT ( ( #11, #61, #148 ) ) REPRESENTATION_CONTEXT ( 'NONE', 'WORKASPACE' ) );
#262 = APPLICATION_CONTEXT ( 'automotive_design' ) ;
#263 = DIRECTION ( 'NONE',  ( 0.000000000000000000, 0.000000000000000000, -1.000000000000000000 ) ) ;
#264 = FACE_OUTER_BOUND ( 'NONE', #42, .T. ) ;
#265 = FILL_AREA_STYLE ('',( #166 ) ) ;
#266 = CARTESIAN_POINT ( 'NONE',  ( 1.994140431240145858E-33, 1.625000000000000000, 0.000000000000000000 ) ) ;
#267 =( NAMED_UNIT ( * ) SI_UNIT ( $, .STERADIAN. ) SOLID_ANGLE_UNIT ( ) );
#268 =( GEOMETRIC_REPRESENTATION_CONTEXT ( 3 ) GLOBAL_UNCERTAINTY_ASSIGNED_CONTEXT ( ( #35 ) ) GLOBAL_UNIT_ASSIGNED_CONTEXT ( ( #198, #56, #33 ) ) REPRESENTATION_CONTEXT ( 'NONE', 'WORKASPACE' ) );
#269 = DIRECTION ( 'NONE',  ( 0.000000000000000000, 0.000000000000000000, -1.000000000000000000 ) ) ;
#270 = PRESENTATION_STYLE_ASSIGNMENT (( #196 ) ) ;
#271 = DIMENSIONAL_EXPONENTS ( 1.000000000000000000, 0.000000000000000000, 0.000000000000000000, 0.000000000000000000, 0.000000000000000000, 0.000000000000000000, 0.000000000000000000 ) ;
#272 = VERTEX_POINT ( 'NONE', #164 ) ;
#273 =( NAMED_UNIT ( * ) PLANE_ANGLE_UNIT ( ) SI_UNIT ( $, .RADIAN. ) );
#274 = MECHANICAL_DESIGN_GEOMETRIC_PRESENTATION_REPRESENTATION (  '', ( #129 ), #177 ) ;
#275 = CYLINDRICAL_SURFACE ( 'NONE', #22, 0.3749999999999998890 ) ;
#276 = EDGE_CURVE ( 'NONE', #272, #306, #122, .T. ) ;
#277 = MECHANICAL_DESIGN_GEOMETRIC_PRESENTATION_REPRESENTATION (  '', ( #133 ), #268 ) ;
#278 = ORIENTED_EDGE ( 'NONE', *, *, #179, .T. ) ;
#279 = ORIENTED_EDGE ( 'NONE', *, *, #44, .F. ) ;
#280 = DIRECTION ( 'NONE',  ( -1.031281515071456169E-16, -1.000000000000000000, 0.000000000000000000 ) ) ;
#281 = COLOUR_RGB ( '',1.000000000000000000, 0.000000000000000000, 0.000000000000000000 ) ;
#282 =( NAMED_UNIT ( * ) SI_UNIT ( $, .STERADIAN. ) SOLID_ANGLE_UNIT ( ) );
#283 =( CONVERSION_BASED_UNIT ( 'INCH', #183 ) LENGTH_UNIT ( ) NAMED_UNIT ( #50 ) );
#284 = PRESENTATION_STYLE_ASSIGNMENT (( #287 ) ) ;
#285 = ADVANCED_BREP_SHAPE_REPRESENTATION ( '03660', ( #201, #95, #245 ), #202 ) ;
#286 = ORIENTED_EDGE ( 'NONE', *, *, #237, .F. ) ;
#287 = SURFACE_STYLE_USAGE ( .BOTH. , #105 ) ;
#288 = MECHANICAL_DESIGN_GEOMETRIC_PRESENTATION_REPRESENTATION (  '', ( #304 ), #261 ) ;
#289 = DIRECTION ( 'NONE',  ( -0.000000000000000000, -1.000000000000000000, -0.000000000000000000 ) ) ;
#290 =( CONVERSION_BASED_UNIT ( 'INCH', #8 ) LENGTH_UNIT ( ) NAMED_UNIT ( #271 ) );
#291 =( CONVERSION_BASED_UNIT ( 'INCH', #190 ) LENGTH_UNIT ( ) NAMED_UNIT ( #110 ) );
#292 = ADVANCED_FACE ( 'NONE', ( #136 ), #39, .T. ) ;
#293 = ORIENTED_EDGE ( 'NONE', *, *, #252, .F. ) ;
#294 = AXIS2_PLACEMENT_3D ( 'NONE', #211, #142, #263 ) ;
#295 = AXIS2_PLACEMENT_3D ( 'NONE', #70, #108, #46 ) ;
#296 = DIRECTION ( 'NONE',  ( 1.031281515071456046E-16, 1.000000000000000000, -0.000000000000000000 ) ) ;
#297 = FACE_OUTER_BOUND ( 'NONE', #89, .T. ) ;
#298 =( LENGTH_UNIT ( ) NAMED_UNIT ( * ) SI_UNIT ( $, .METRE. ) );
#299 = PRESENTATION_STYLE_ASSIGNMENT (( #72 ) ) ;
#300 = ADVANCED_FACE ( 'NONE', ( #20 ), #199, .T. ) ;
#301 = DIRECTION ( 'NONE',  ( -1.000000000000000000, 0.000000000000000000, 0.000000000000000000 ) ) ;
#302 = COLOUR_RGB ( '',1.000000000000000000, 0.000000000000000000, 0.000000000000000000 ) ;
#303 = SURFACE_STYLE_USAGE ( .BOTH. , #143 ) ;
#304 = STYLED_ITEM ( 'NONE', ( #152 ), #95 ) ;
#305 = AXIS2_PLACEMENT_3D ( 'NONE', #182, #188, #2 ) ;
#306 = VERTEX_POINT ( 'NONE', #228 ) ;
#307 = EDGE_LOOP ( 'NONE', ( #1, #165 ) ) ;
#308 = FACE_OUTER_BOUND ( 'NONE', #307, .T. ) ;
#309 = LINE ( 'NONE', #207, #230 ) ;
ENDSEC;
END-ISO-10303-21;
