ISO-10303-21;
HEADER;
FILE_DESCRIPTION (( 'STEP AP214' ),
    '1' );
FILE_NAME ('Micro_BMSM-004-2X.STEP',
    '2021-09-03T15:26:54',
    ( '' ),
    ( '' ),
    'SwSTEP 2.0',
    'SolidWorks 2020',
    '' );
FILE_SCHEMA (( 'AUTOMOTIVE_DESIGN' ));
ENDSEC;

DATA;
#1 = DIRECTION ( 'NONE',  ( 1.000000000000000000, 0.0000000000000000000, 0.0000000000000000000 ) ) ;
#2 = CIRCLE ( 'NONE', #268, 0.007866125999999999327 ) ;
#3 = DIRECTION ( 'NONE',  ( 1.000000000000000000, 0.0000000000000000000, 0.0000000000000000000 ) ) ;
#4 = DIRECTION ( 'NONE',  ( 1.000000000000000000, 0.0000000000000000000, 0.0000000000000000000 ) ) ;
#5 = CARTESIAN_POINT ( 'NONE',  ( 9.633226027589772019E-19, 0.0000000000000000000, 0.007866125999999999327 ) ) ;
#6 = VERTEX_POINT ( 'NONE', #191 ) ;
#7 = DIRECTION ( 'NONE',  ( -1.000000000000000000, 0.0000000000000000000, 1.224646799147353207E-16 ) ) ;
#8 = ORIENTED_EDGE ( 'NONE', *, *, #25, .F. ) ;
#9 = CLOSED_SHELL ( 'NONE', ( #303, #105, #162, #316, #98, #308, #275, #134, #11, #236, #255 ) ) ;
#10 = CARTESIAN_POINT ( 'NONE',  ( 0.04405499999999973326, 6.313666573004162521E-18, 1.496062999999999921 ) ) ;
#11 = ADVANCED_FACE ( 'NONE', ( #292 ), #153, .T. ) ;
#12 = EDGE_LOOP ( 'NONE', ( #129, #283 ) ) ;
#13 = DIRECTION ( 'NONE',  ( 0.0000000000000000000, 0.0000000000000000000, 1.000000000000000000 ) ) ;
#14 = PRODUCT_CONTEXT ( 'NONE', #24, 'mechanical' ) ;
#15 = CARTESIAN_POINT ( 'NONE',  ( 1.444983904138465514E-18, 0.0000000000000000000, 0.0000000000000000000 ) ) ;
#16 = VECTOR ( 'NONE', #87, 39.37007874015748143 ) ;
#17 =( GEOMETRIC_REPRESENTATION_CONTEXT ( 3 ) GLOBAL_UNCERTAINTY_ASSIGNED_CONTEXT ( ( #217 ) ) GLOBAL_UNIT_ASSIGNED_CONTEXT ( ( #82, #218, #312 ) ) REPRESENTATION_CONTEXT ( 'NONE', 'WORKASPACE' ) );
#18 = SURFACE_SIDE_STYLE ('',( #195 ) ) ;
#19 = FACE_OUTER_BOUND ( 'NONE', #208, .T. ) ;
#20 = DIRECTION ( 'NONE',  ( 0.0000000000000000000, 0.0000000000000000000, -1.000000000000000000 ) ) ;
#21 = EDGE_CURVE ( 'NONE', #306, #246, #83, .T. ) ;
#22 = CARTESIAN_POINT ( 'NONE',  ( -0.007866125999999997592, 0.0000000000000000000, 0.007866125999999999327 ) ) ;
#23 = VECTOR ( 'NONE', #39, 39.37007874015748143 ) ;
#24 = APPLICATION_CONTEXT ( 'automotive_design' ) ;
#25 = EDGE_CURVE ( 'NONE', #243, #145, #190, .T. ) ;
#26 = CARTESIAN_POINT ( 'NONE',  ( 2.892860668945877938E-18, 0.0000000000000000000, 0.02362200000000000064 ) ) ;
#27 = DIRECTION ( 'NONE',  ( -1.000000000000000000, 0.0000000000000000000, 0.0000000000000000000 ) ) ;
#28 = DIRECTION ( 'NONE',  ( -1.000000000000000000, 0.0000000000000000000, 1.356612038155888783E-16 ) ) ;
#29 = AXIS2_PLACEMENT_3D ( 'NONE', #175, #151, #239 ) ;
#30 = ORIENTED_EDGE ( 'NONE', *, *, #297, .T. ) ;
#31 = ORIENTED_EDGE ( 'NONE', *, *, #113, .T. ) ;
#32 = CARTESIAN_POINT ( 'NONE',  ( 0.007866126000000002796, 0.0000000000000000000, 0.02362200000000000064 ) ) ;
#33 = ORIENTED_EDGE ( 'NONE', *, *, #118, .T. ) ;
#34 = DIRECTION ( 'NONE',  ( 1.000000000000000000, 0.0000000000000000000, 0.0000000000000000000 ) ) ;
#35 = AXIS2_PLACEMENT_3D ( 'NONE', #127, #75, #204 ) ;
#36 = AXIS2_PLACEMENT_3D ( 'NONE', #5, #156, #4 ) ;
#37 = LINE ( 'NONE', #251, #193 ) ;
#38 = AXIS2_PLACEMENT_3D ( 'NONE', #141, #120, #274 ) ;
#39 = DIRECTION ( 'NONE',  ( -0.0000000000000000000, -0.0000000000000000000, -1.000000000000000000 ) ) ;
#40 = EDGE_CURVE ( 'NONE', #179, #243, #291, .T. ) ;
#41 = CARTESIAN_POINT ( 'NONE',  ( 2.892860668945877938E-18, 0.0000000000000000000, 0.02362200000000000064 ) ) ;
#42 = DIRECTION ( 'NONE',  ( 0.0000000000000000000, -1.000000000000000000, 0.0000000000000000000 ) ) ;
#43 = CARTESIAN_POINT ( 'NONE',  ( -0.007866125999999999327, 0.0000000000000000000, 9.633226027589772019E-19 ) ) ;
#44 = EDGE_CURVE ( 'NONE', #306, #179, #46, .T. ) ;
#45 = CARTESIAN_POINT ( 'NONE',  ( 0.0000000000000000000, 0.0000000000000000000, 1.496062999999999921 ) ) ;
#46 = CIRCLE ( 'NONE', #165, 0.04405499999999973326 ) ;
#47 = CARTESIAN_POINT ( 'NONE',  ( 0.0000000000000000000, 0.0000000000000000000, 1.481062999999999574 ) ) ;
#48 = ORIENTED_EDGE ( 'NONE', *, *, #178, .T. ) ;
#49 = PLANE ( 'NONE',  #35 ) ;
#50 = CIRCLE ( 'NONE', #114, 0.05905500000000000332 ) ;
#51 = ORIENTED_EDGE ( 'NONE', *, *, #25, .T. ) ;
#52 = CARTESIAN_POINT ( 'NONE',  ( -0.05905500000000000332, 0.0000000000000000000, 1.481062999999999574 ) ) ;
#53 = ORIENTED_EDGE ( 'NONE', *, *, #72, .F. ) ;
#54 = EDGE_CURVE ( 'NONE', #145, #6, #309, .T. ) ;
#55 = CARTESIAN_POINT ( 'NONE',  ( 0.0000000000000000000, 0.0000000000000000000, 0.0000000000000000000 ) ) ;
#56 = ORIENTED_EDGE ( 'NONE', *, *, #76, .T. ) ;
#57 = DIRECTION ( 'NONE',  ( -1.224646799147353207E-16, -0.0000000000000000000, -1.000000000000000000 ) ) ;
#58 =( GEOMETRIC_REPRESENTATION_CONTEXT ( 3 ) GLOBAL_UNCERTAINTY_ASSIGNED_CONTEXT ( ( #88 ) ) GLOBAL_UNIT_ASSIGNED_CONTEXT ( ( #142, #298, #101 ) ) REPRESENTATION_CONTEXT ( 'NONE', 'WORKASPACE' ) );
#59 = ORIENTED_EDGE ( 'NONE', *, *, #287, .F. ) ;
#60 = EDGE_LOOP ( 'NONE', ( #313, #59, #213, #185 ) ) ;
#61 = SURFACE_STYLE_USAGE ( .BOTH. , #138 ) ;
#62 = CARTESIAN_POINT ( 'NONE',  ( -0.04405499999999973326, 0.0000000000000000000, 1.496062999999999921 ) ) ;
#63 = CARTESIAN_POINT ( 'NONE',  ( 0.04405499999999973326, 5.395181473643630390E-18, 1.496062999999999921 ) ) ;
#64 = DIRECTION ( 'NONE',  ( 1.000000000000000000, 0.0000000000000000000, 0.0000000000000000000 ) ) ;
#65 = CARTESIAN_POINT ( 'NONE',  ( 9.633226027589772019E-19, 0.0000000000000000000, 0.007866125999999999327 ) ) ;
#66 = AXIS2_PLACEMENT_3D ( 'NONE', #47, #184, #286 ) ;
#67 = CARTESIAN_POINT ( 'NONE',  ( 0.0000000000000000000, 0.0000000000000000000, 0.0000000000000000000 ) ) ;
#68 = CYLINDRICAL_SURFACE ( 'NONE', #288, 0.05905500000000000332 ) ;
#69 = CONICAL_SURFACE ( 'NONE', #302, 0.04405499999999973326, 0.7853981633974491672 ) ;
#70 = CYLINDRICAL_SURFACE ( 'NONE', #229, 0.05905500000000000332 ) ;
#71 = VERTEX_POINT ( 'NONE', #15 ) ;
#72 = EDGE_CURVE ( 'NONE', #311, #289, #222, .T. ) ;
#73 = CARTESIAN_POINT ( 'NONE',  ( 0.0000000000000000000, 0.0000000000000000000, 1.496062999999999921 ) ) ;
#74 = CIRCLE ( 'NONE', #225, 0.007866125999999999327 ) ;
#75 = DIRECTION ( 'NONE',  ( 0.0000000000000000000, 0.0000000000000000000, 1.000000000000000000 ) ) ;
#76 = EDGE_CURVE ( 'NONE', #6, #145, #273, .T. ) ;
#77 = DIMENSIONAL_EXPONENTS ( 1.000000000000000000, 0.0000000000000000000, 0.0000000000000000000, 0.0000000000000000000, 0.0000000000000000000, 0.0000000000000000000, 0.0000000000000000000 ) ;
#78 = ORIENTED_EDGE ( 'NONE', *, *, #110, .T. ) ;
#79 = SURFACE_STYLE_FILL_AREA ( #109 ) ;
#80 = STYLED_ITEM ( 'NONE', ( #226 ), #232 ) ;
#81 = ORIENTED_EDGE ( 'NONE', *, *, #54, .F. ) ;
#82 =( CONVERSION_BASED_UNIT ( 'INCH', #215 ) LENGTH_UNIT ( ) NAMED_UNIT ( #206 ) );
#83 = LINE ( 'NONE', #63, #284 ) ;
#84 = EDGE_CURVE ( 'NONE', #246, #6, #37, .T. ) ;
#85 = ORIENTED_EDGE ( 'NONE', *, *, #244, .T. ) ;
#86 = AXIS2_PLACEMENT_3D ( 'NONE', #55, #96, #7 ) ;
#87 = DIRECTION ( 'NONE',  ( -1.224646799147353207E-16, -0.0000000000000000000, -1.000000000000000000 ) ) ;
#88 = UNCERTAINTY_MEASURE_WITH_UNIT (LENGTH_MEASURE( 1.000000000000000082E-05 ), #142, 'distance_accuracy_value', 'NONE');
#89 = DIRECTION ( 'NONE',  ( -1.000000000000000000, 1.224646799147353207E-16, 0.0000000000000000000 ) ) ;
#90 = DIRECTION ( 'NONE',  ( 1.000000000000000000, 0.0000000000000000000, 0.0000000000000000000 ) ) ;
#91 = COLOUR_RGB ( '',0.7921568627450980005, 0.8196078431372548767, 0.9333333333333333481 ) ;
#92 = CARTESIAN_POINT ( 'NONE',  ( -0.007866125999999997592, 4.097737137561835638E-18, 0.02362200000000000064 ) ) ;
#93 = CARTESIAN_POINT ( 'NONE',  ( 9.633226027589772019E-19, 0.0000000000000000000, 0.007866125999999999327 ) ) ;
#94 = CYLINDRICAL_SURFACE ( 'NONE', #86, 0.007866125999999999327 ) ;
#95 = COLOUR_RGB ( '',0.7921568627450980005, 0.8196078431372548767, 0.9333333333333333481 ) ;
#96 = DIRECTION ( 'NONE',  ( -1.224646799147353207E-16, -0.0000000000000000000, -1.000000000000000000 ) ) ;
#97 = EDGE_LOOP ( 'NONE', ( #305, #205, #132, #238 ) ) ;
#98 = ADVANCED_FACE ( 'NONE', ( #19 ), #68, .T. ) ;
#99 =( LENGTH_UNIT ( ) NAMED_UNIT ( * ) SI_UNIT ( $, .METRE. ) );
#100 = ORIENTED_EDGE ( 'NONE', *, *, #137, .F. ) ;
#101 =( NAMED_UNIT ( * ) SI_UNIT ( $, .STERADIAN. ) SOLID_ANGLE_UNIT ( ) );
#102 = ORIENTED_EDGE ( 'NONE', *, *, #122, .F. ) ;
#103 = APPLICATION_PROTOCOL_DEFINITION ( 'draft international standard', 'automotive_design', 1998, #233 ) ;
#104 = LINE ( 'NONE', #212, #128 ) ;
#105 = ADVANCED_FACE ( 'NONE', ( #299 ), #325, .T. ) ;
#106 = AXIS2_PLACEMENT_3D ( 'NONE', #26, #144, #90 ) ;
#107 = MECHANICAL_DESIGN_GEOMETRIC_PRESENTATION_REPRESENTATION (  '', ( #269 ), #17 ) ;
#108 = VERTEX_POINT ( 'NONE', #92 ) ;
#109 = FILL_AREA_STYLE ('',( #133 ) ) ;
#110 = EDGE_CURVE ( 'NONE', #71, #289, #2, .T. ) ;
#111 =( NAMED_UNIT ( * ) PLANE_ANGLE_UNIT ( ) SI_UNIT ( $, .RADIAN. ) );
#112 = CARTESIAN_POINT ( 'NONE',  ( 2.892860668945877938E-18, 0.0000000000000000000, 0.02362200000000000064 ) ) ;
#113 = EDGE_CURVE ( 'NONE', #243, #246, #50, .T. ) ;
#114 = AXIS2_PLACEMENT_3D ( 'NONE', #300, #320, #1 ) ;
#115 = SURFACE_STYLE_USAGE ( .BOTH. , #18 ) ;
#116 = DIRECTION ( 'NONE',  ( 1.224646799147353207E-16, 1.000000000000000000, -0.0000000000000000000 ) ) ;
#117 = CONICAL_SURFACE ( 'NONE', #203, 0.04405499999999973326, 0.7853981633974491672 ) ;
#118 = EDGE_CURVE ( 'NONE', #71, #157, #180, .T. ) ;
#119 = DIRECTION ( 'NONE',  ( 1.224646799147353207E-16, 0.0000000000000000000, 1.000000000000000000 ) ) ;
#120 = DIRECTION ( 'NONE',  ( -1.224646799147353207E-16, -0.0000000000000000000, -1.000000000000000000 ) ) ;
#121 = DIRECTION ( 'NONE',  ( 1.224646799147353207E-16, 0.0000000000000000000, 1.000000000000000000 ) ) ;
#122 = EDGE_CURVE ( 'NONE', #108, #311, #188, .T. ) ;
#123 = ORIENTED_EDGE ( 'NONE', *, *, #322, .T. ) ;
#124 = EDGE_LOOP ( 'NONE', ( #314, #152, #85, #56 ) ) ;
#125 = FACE_OUTER_BOUND ( 'NONE', #12, .T. ) ;
#126 = ORIENTED_EDGE ( 'NONE', *, *, #322, .F. ) ;
#127 = CARTESIAN_POINT ( 'NONE',  ( 0.0000000000000000000, 0.0000000000000000000, 1.496062999999999921 ) ) ;
#128 = VECTOR ( 'NONE', #253, 39.37007874015747433 ) ;
#129 = ORIENTED_EDGE ( 'NONE', *, *, #287, .T. ) ;
#130 = SHAPE_DEFINITION_REPRESENTATION ( #296, #278 ) ;
#131 = DIRECTION ( 'NONE',  ( 1.000000000000000000, 0.0000000000000000000, 0.0000000000000000000 ) ) ;
#132 = ORIENTED_EDGE ( 'NONE', *, *, #113, .F. ) ;
#133 = FILL_AREA_STYLE_COLOUR ( '', #91 ) ;
#134 = ADVANCED_FACE ( 'NONE', ( #172 ), #69, .T. ) ;
#135 = UNCERTAINTY_MEASURE_WITH_UNIT (LENGTH_MEASURE( 1.000000000000000082E-05 ), #258, 'distance_accuracy_value', 'NONE');
#136 = CIRCLE ( 'NONE', #38, 0.007866125999999999327 ) ;
#137 = EDGE_CURVE ( 'NONE', #108, #157, #148, .T. ) ;
#138 = SURFACE_SIDE_STYLE ('',( #79 ) ) ;
#139 = DIRECTION ( 'NONE',  ( -0.7071067811865482389, 0.0000000000000000000, -0.7071067811865469066 ) ) ;
#140 = PRODUCT ( 'Micro_BMSM-004-2X', 'Micro_BMSM-004-2X', '', ( #14 ) ) ;
#141 = CARTESIAN_POINT ( 'NONE',  ( 2.892860668945877938E-18, 0.0000000000000000000, 0.02362200000000000064 ) ) ;
#142 =( CONVERSION_BASED_UNIT ( 'INCH', #272 ) LENGTH_UNIT ( ) NAMED_UNIT ( #77 ) );
#143 = DIRECTION ( 'NONE',  ( -1.000000000000000000, 0.0000000000000000000, 0.0000000000000000000 ) ) ;
#144 = DIRECTION ( 'NONE',  ( 1.224646799147353207E-16, 0.0000000000000000000, 1.000000000000000000 ) ) ;
#145 = VERTEX_POINT ( 'NONE', #227 ) ;
#146 = AXIS2_PLACEMENT_3D ( 'NONE', #220, #166, #270 ) ;
#147 = PRODUCT_DEFINITION_FORMATION_WITH_SPECIFIED_SOURCE ( 'ANY', '', #140, .NOT_KNOWN. ) ;
#148 = LINE ( 'NONE', #43, #202 ) ;
#149 = DIMENSIONAL_EXPONENTS ( 1.000000000000000000, 0.0000000000000000000, 0.0000000000000000000, 0.0000000000000000000, 0.0000000000000000000, 0.0000000000000000000, 0.0000000000000000000 ) ;
#150 = CARTESIAN_POINT ( 'NONE',  ( 0.007866126000000002796, 0.0000000000000000000, 0.02362200000000000064 ) ) ;
#151 = DIRECTION ( 'NONE',  ( 0.0000000000000000000, 0.0000000000000000000, 1.000000000000000000 ) ) ;
#152 = ORIENTED_EDGE ( 'NONE', *, *, #186, .F. ) ;
#153 = CONICAL_SURFACE ( 'NONE', #174, 0.007866125999999999327, 0.1745329251994339192 ) ;
#154 = FACE_OUTER_BOUND ( 'NONE', #259, .T. ) ;
#155 = ORIENTED_EDGE ( 'NONE', *, *, #54, .T. ) ;
#156 = DIRECTION ( 'NONE',  ( 0.0000000000000000000, 1.000000000000000000, 0.0000000000000000000 ) ) ;
#157 = VERTEX_POINT ( 'NONE', #22 ) ;
#158 = FACE_OUTER_BOUND ( 'NONE', #262, .T. ) ;
#159 = ORIENTED_EDGE ( 'NONE', *, *, #137, .T. ) ;
#160 = CARTESIAN_POINT ( 'NONE',  ( 0.007866125999999999327, 9.633226027589772019E-19, -9.633226027589772019E-19 ) ) ;
#161 = ORIENTED_EDGE ( 'NONE', *, *, #84, .F. ) ;
#162 = ADVANCED_FACE ( 'NONE', ( #198 ), #315, .T. ) ;
#163 = DIRECTION ( 'NONE',  ( 1.224646799147353207E-16, 0.0000000000000000000, 1.000000000000000000 ) ) ;
#164 = ORIENTED_EDGE ( 'NONE', *, *, #244, .F. ) ;
#165 = AXIS2_PLACEMENT_3D ( 'NONE', #214, #13, #64 ) ;
#166 = DIRECTION ( 'NONE',  ( -1.224646799147353207E-16, -0.0000000000000000000, -1.000000000000000000 ) ) ;
#167 = CARTESIAN_POINT ( 'NONE',  ( 0.0000000000000000000, 0.0000000000000000000, 0.0000000000000000000 ) ) ;
#168 = CARTESIAN_POINT ( 'NONE',  ( -0.04405499999999973326, 0.0000000000000000000, 1.496062999999999921 ) ) ;
#169 =( LENGTH_UNIT ( ) NAMED_UNIT ( * ) SI_UNIT ( $, .METRE. ) );
#170 = PRESENTATION_LAYER_ASSIGNMENT (  '', '', ( #80 ) ) ;
#171 = CARTESIAN_POINT ( 'NONE',  ( 9.633226027589772019E-19, 0.0000000000000000000, 0.007866125999999999327 ) ) ;
#172 = FACE_OUTER_BOUND ( 'NONE', #60, .T. ) ;
#173 = DIRECTION ( 'NONE',  ( -1.000000000000000000, 0.0000000000000000000, 1.224646799147353207E-16 ) ) ;
#174 = AXIS2_PLACEMENT_3D ( 'NONE', #112, #163, #131 ) ;
#175 = CARTESIAN_POINT ( 'NONE',  ( 0.0000000000000000000, 0.0000000000000000000, 1.496062999999999921 ) ) ;
#176 = CARTESIAN_POINT ( 'NONE',  ( 0.007866125999999999327, 9.633226027589772019E-19, 0.007866125999999997592 ) ) ;
#177 = EDGE_LOOP ( 'NONE', ( #201, #78, #126 ) ) ;
#178 = EDGE_CURVE ( 'NONE', #289, #157, #211, .T. ) ;
#179 = VERTEX_POINT ( 'NONE', #168 ) ;
#180 = CIRCLE ( 'NONE', #249, 0.007866125999999999327 ) ;
#181 = CARTESIAN_POINT ( 'NONE',  ( 9.633226027589772019E-19, 0.0000000000000000000, 0.007866125999999999327 ) ) ;
#182 =( GEOMETRIC_REPRESENTATION_CONTEXT ( 3 ) GLOBAL_UNCERTAINTY_ASSIGNED_CONTEXT ( ( #135 ) ) GLOBAL_UNIT_ASSIGNED_CONTEXT ( ( #258, #111, #264 ) ) REPRESENTATION_CONTEXT ( 'NONE', 'WORKASPACE' ) );
#183 = EDGE_LOOP ( 'NONE', ( #161, #30, #51, #210 ) ) ;
#184 = DIRECTION ( 'NONE',  ( 0.0000000000000000000, 0.0000000000000000000, -1.000000000000000000 ) ) ;
#185 = ORIENTED_EDGE ( 'NONE', *, *, #297, .F. ) ;
#186 = EDGE_CURVE ( 'NONE', #311, #108, #136, .T. ) ;
#187 =( LENGTH_UNIT ( ) NAMED_UNIT ( * ) SI_UNIT ( $, .METRE. ) );
#188 = CIRCLE ( 'NONE', #216, 0.007866125999999999327 ) ;
#189 = ORIENTED_EDGE ( 'NONE', *, *, #110, .F. ) ;
#190 = LINE ( 'NONE', #267, #23 ) ;
#191 = CARTESIAN_POINT ( 'NONE',  ( 0.05905500000000004496, 7.232151672364700045E-18, 0.3139285304829000367 ) ) ;
#192 = DIRECTION ( 'NONE',  ( 0.7071067811865482389, 8.659560562354941486E-17, -0.7071067811865469066 ) ) ;
#193 = VECTOR ( 'NONE', #323, 39.37007874015748143 ) ;
#194 = CARTESIAN_POINT ( 'NONE',  ( 3.844515700169158931E-17, 0.0000000000000000000, 0.3139285304829000367 ) ) ;
#195 = SURFACE_STYLE_FILL_AREA ( #248 ) ;
#196 = VECTOR ( 'NONE', #254, 39.37007874015748143 ) ;
#197 = CARTESIAN_POINT ( 'NONE',  ( 0.0000000000000000000, 0.0000000000000000000, 1.496062999999999921 ) ) ;
#198 = FACE_OUTER_BOUND ( 'NONE', #266, .T. ) ;
#199 = PRODUCT_RELATED_PRODUCT_CATEGORY ( 'part', '', ( #140 ) ) ;
#200 = DIRECTION ( 'NONE',  ( -0.0000000000000000000, -0.0000000000000000000, -1.000000000000000000 ) ) ;
#201 = ORIENTED_EDGE ( 'NONE', *, *, #118, .F. ) ;
#202 = VECTOR ( 'NONE', #321, 39.37007874015748143 ) ;
#203 = AXIS2_PLACEMENT_3D ( 'NONE', #73, #281, #27 ) ;
#204 = DIRECTION ( 'NONE',  ( 1.000000000000000000, 0.0000000000000000000, -0.0000000000000000000 ) ) ;
#205 = ORIENTED_EDGE ( 'NONE', *, *, #21, .T. ) ;
#206 = DIMENSIONAL_EXPONENTS ( 1.000000000000000000, 0.0000000000000000000, 0.0000000000000000000, 0.0000000000000000000, 0.0000000000000000000, 0.0000000000000000000, 0.0000000000000000000 ) ;
#207 = CARTESIAN_POINT ( 'NONE',  ( 0.0000000000000000000, 0.0000000000000000000, 1.496062999999999921 ) ) ;
#208 = EDGE_LOOP ( 'NONE', ( #31, #240, #81, #8 ) ) ;
#209 = CARTESIAN_POINT ( 'NONE',  ( 9.633226027589772019E-19, 0.0000000000000000000, 0.007866125999999999327 ) ) ;
#210 = ORIENTED_EDGE ( 'NONE', *, *, #76, .F. ) ;
#211 = CIRCLE ( 'NONE', #224, 0.007866125999999999327 ) ;
#212 = CARTESIAN_POINT ( 'NONE',  ( -0.007866125999999997592, 9.633226027589773945E-19, 0.02362200000000000064 ) ) ;
#213 = ORIENTED_EDGE ( 'NONE', *, *, #40, .T. ) ;
#214 = CARTESIAN_POINT ( 'NONE',  ( 0.0000000000000000000, 0.0000000000000000000, 1.496062999999999921 ) ) ;
#215 = LENGTH_MEASURE_WITH_UNIT ( LENGTH_MEASURE( 0.02539999999999999897 ), #187 );
#216 = AXIS2_PLACEMENT_3D ( 'NONE', #41, #277, #143 ) ;
#217 = UNCERTAINTY_MEASURE_WITH_UNIT (LENGTH_MEASURE( 1.000000000000000082E-05 ), #82, 'distance_accuracy_value', 'NONE');
#218 =( NAMED_UNIT ( * ) PLANE_ANGLE_UNIT ( ) SI_UNIT ( $, .RADIAN. ) );
#219 = PRODUCT_DEFINITION ( 'UNKNOWN', '', #147, #317 ) ;
#220 = CARTESIAN_POINT ( 'NONE',  ( 3.844515700169158931E-17, 0.0000000000000000000, 0.3139285304829000367 ) ) ;
#221 = DIRECTION ( 'NONE',  ( 0.0000000000000000000, 0.0000000000000000000, 1.000000000000000000 ) ) ;
#222 = LINE ( 'NONE', #160, #16 ) ;
#223 = AXIS2_PLACEMENT_3D ( 'NONE', #67, #250, #173 ) ;
#224 = AXIS2_PLACEMENT_3D ( 'NONE', #93, #119, #230 ) ;
#225 = AXIS2_PLACEMENT_3D ( 'NONE', #181, #121, #28 ) ;
#226 = PRESENTATION_STYLE_ASSIGNMENT (( #115 ) ) ;
#227 = CARTESIAN_POINT ( 'NONE',  ( -0.05905499999999996169, 0.0000000000000000000, 0.3139285304829000367 ) ) ;
#228 = ORIENTED_EDGE ( 'NONE', *, *, #186, .T. ) ;
#229 = AXIS2_PLACEMENT_3D ( 'NONE', #207, #200, #280 ) ;
#230 = DIRECTION ( 'NONE',  ( -1.000000000000000000, 0.0000000000000000000, 1.356612038155888783E-16 ) ) ;
#231 = DIRECTION ( 'NONE',  ( 0.0000000000000000000, 0.0000000000000000000, -1.000000000000000000 ) ) ;
#232 = MANIFOLD_SOLID_BREP ( 'Fillet1', #9 ) ;
#233 = APPLICATION_CONTEXT ( 'automotive_design' ) ;
#234 = SPHERICAL_SURFACE ( 'NONE', #36, 0.007866125999999999327 ) ;
#235 = ORIENTED_EDGE ( 'NONE', *, *, #293, .T. ) ;
#236 = ADVANCED_FACE ( 'NONE', ( #154 ), #94, .T. ) ;
#237 = FACE_OUTER_BOUND ( 'NONE', #183, .T. ) ;
#238 = ORIENTED_EDGE ( 'NONE', *, *, #40, .F. ) ;
#239 = DIRECTION ( 'NONE',  ( 1.000000000000000000, 0.0000000000000000000, 0.0000000000000000000 ) ) ;
#240 = ORIENTED_EDGE ( 'NONE', *, *, #84, .T. ) ;
#241 = DIRECTION ( 'NONE',  ( 0.0000000000000000000, 1.000000000000000000, 0.0000000000000000000 ) ) ;
#242 = ORIENTED_EDGE ( 'NONE', *, *, #72, .T. ) ;
#243 = VERTEX_POINT ( 'NONE', #52 ) ;
#244 = EDGE_CURVE ( 'NONE', #311, #6, #301, .T. ) ;
#245 = PRESENTATION_STYLE_ASSIGNMENT (( #61 ) ) ;
#246 = VERTEX_POINT ( 'NONE', #310 ) ;
#247 = APPLICATION_PROTOCOL_DEFINITION ( 'draft international standard', 'automotive_design', 1998, #24 ) ;
#248 = FILL_AREA_STYLE ('',( #295 ) ) ;
#249 = AXIS2_PLACEMENT_3D ( 'NONE', #65, #116, #89 ) ;
#250 = DIRECTION ( 'NONE',  ( -1.224646799147353207E-16, -0.0000000000000000000, -1.000000000000000000 ) ) ;
#251 = CARTESIAN_POINT ( 'NONE',  ( 0.05905500000000000332, 7.232151672364695422E-18, 1.496062999999999921 ) ) ;
#252 = DIRECTION ( 'NONE',  ( -0.0000000000000000000, -0.0000000000000000000, -1.000000000000000000 ) ) ;
#253 = DIRECTION ( 'NONE',  ( -0.1736481776669312194, 2.126576849575783625E-17, 0.9848077530122080203 ) ) ;
#254 = DIRECTION ( 'NONE',  ( 0.1736481776669314137, 0.0000000000000000000, 0.9848077530122077983 ) ) ;
#255 = ADVANCED_FACE ( 'NONE', ( #260 ), #234, .T. ) ;
#256 = AXIS2_PLACEMENT_3D ( 'NONE', #209, #241, #34 ) ;
#257 = AXIS2_PLACEMENT_3D ( 'NONE', #167, #221, #3 ) ;
#258 =( CONVERSION_BASED_UNIT ( 'INCH', #282 ) LENGTH_UNIT ( ) NAMED_UNIT ( #149 ) );
#259 = EDGE_LOOP ( 'NONE', ( #53, #228, #159, #123 ) ) ;
#260 = FACE_OUTER_BOUND ( 'NONE', #177, .T. ) ;
#261 = ORIENTED_EDGE ( 'NONE', *, *, #178, .F. ) ;
#262 = EDGE_LOOP ( 'NONE', ( #189, #33, #261 ) ) ;
#263 = AXIS2_PLACEMENT_3D ( 'NONE', #194, #57, #265 ) ;
#264 =( NAMED_UNIT ( * ) SI_UNIT ( $, .STERADIAN. ) SOLID_ANGLE_UNIT ( ) );
#265 = DIRECTION ( 'NONE',  ( 1.000000000000000000, 0.0000000000000000000, 0.0000000000000000000 ) ) ;
#266 = EDGE_LOOP ( 'NONE', ( #102, #235, #155, #164 ) ) ;
#267 = CARTESIAN_POINT ( 'NONE',  ( -0.05905500000000000332, 0.0000000000000000000, 1.496062999999999921 ) ) ;
#268 = AXIS2_PLACEMENT_3D ( 'NONE', #171, #42, #231 ) ;
#269 = STYLED_ITEM ( 'NONE', ( #245 ), #278 ) ;
#270 = DIRECTION ( 'NONE',  ( 1.000000000000000000, 0.0000000000000000000, 0.0000000000000000000 ) ) ;
#271 = DIRECTION ( 'NONE',  ( -1.000000000000000000, 0.0000000000000000000, 0.0000000000000000000 ) ) ;
#272 = LENGTH_MEASURE_WITH_UNIT ( LENGTH_MEASURE( 0.02539999999999999897 ), #169 );
#273 = CIRCLE ( 'NONE', #263, 0.05905500000000000332 ) ;
#274 = DIRECTION ( 'NONE',  ( -1.000000000000000000, 0.0000000000000000000, 0.0000000000000000000 ) ) ;
#275 = ADVANCED_FACE ( 'NONE', ( #125 ), #49, .T. ) ;
#276 = DIRECTION ( 'NONE',  ( -1.000000000000000000, 0.0000000000000000000, 0.0000000000000000000 ) ) ;
#277 = DIRECTION ( 'NONE',  ( -1.224646799147353207E-16, -0.0000000000000000000, -1.000000000000000000 ) ) ;
#278 = ADVANCED_BREP_SHAPE_REPRESENTATION ( 'Micro_BMSM-004-2X', ( #232, #257 ), #182 ) ;
#279 = CIRCLE ( 'NONE', #29, 0.04405499999999973326 ) ;
#280 = DIRECTION ( 'NONE',  ( -1.000000000000000000, 0.0000000000000000000, 0.0000000000000000000 ) ) ;
#281 = DIRECTION ( 'NONE',  ( 0.0000000000000000000, 0.0000000000000000000, -1.000000000000000000 ) ) ;
#282 = LENGTH_MEASURE_WITH_UNIT ( LENGTH_MEASURE( 0.02539999999999999897 ), #99 );
#283 = ORIENTED_EDGE ( 'NONE', *, *, #44, .T. ) ;
#284 = VECTOR ( 'NONE', #192, 39.37007874015748143 ) ;
#285 = EDGE_LOOP ( 'NONE', ( #290, #242, #48, #100 ) ) ;
#286 = DIRECTION ( 'NONE',  ( 1.000000000000000000, 0.0000000000000000000, 0.0000000000000000000 ) ) ;
#287 = EDGE_CURVE ( 'NONE', #179, #306, #279, .T. ) ;
#288 = AXIS2_PLACEMENT_3D ( 'NONE', #197, #252, #271 ) ;
#289 = VERTEX_POINT ( 'NONE', #176 ) ;
#290 = ORIENTED_EDGE ( 'NONE', *, *, #122, .T. ) ;
#291 = LINE ( 'NONE', #62, #324 ) ;
#292 = FACE_OUTER_BOUND ( 'NONE', #124, .T. ) ;
#293 = EDGE_CURVE ( 'NONE', #108, #145, #104, .T. ) ;
#294 = MECHANICAL_DESIGN_GEOMETRIC_PRESENTATION_REPRESENTATION (  '', ( #80 ), #58 ) ;
#295 = FILL_AREA_STYLE_COLOUR ( '', #95 ) ;
#296 = PRODUCT_DEFINITION_SHAPE ( 'NONE', 'NONE',  #219 ) ;
#297 = EDGE_CURVE ( 'NONE', #246, #243, #318, .T. ) ;
#298 =( NAMED_UNIT ( * ) PLANE_ANGLE_UNIT ( ) SI_UNIT ( $, .RADIAN. ) );
#299 = FACE_OUTER_BOUND ( 'NONE', #285, .T. ) ;
#300 = CARTESIAN_POINT ( 'NONE',  ( 0.0000000000000000000, 0.0000000000000000000, 1.481062999999999574 ) ) ;
#301 = LINE ( 'NONE', #32, #196 ) ;
#302 = AXIS2_PLACEMENT_3D ( 'NONE', #45, #20, #276 ) ;
#303 = ADVANCED_FACE ( 'NONE', ( #158 ), #304, .T. ) ;
#304 = SPHERICAL_SURFACE ( 'NONE', #256, 0.007866125999999999327 ) ;
#305 = ORIENTED_EDGE ( 'NONE', *, *, #44, .F. ) ;
#306 = VERTEX_POINT ( 'NONE', #10 ) ;
#307 = FACE_OUTER_BOUND ( 'NONE', #97, .T. ) ;
#308 = ADVANCED_FACE ( 'NONE', ( #237 ), #70, .T. ) ;
#309 = CIRCLE ( 'NONE', #146, 0.05905500000000000332 ) ;
#310 = CARTESIAN_POINT ( 'NONE',  ( 0.05905500000000000332, 7.232151672364695422E-18, 1.481062999999999574 ) ) ;
#311 = VERTEX_POINT ( 'NONE', #150 ) ;
#312 =( NAMED_UNIT ( * ) SI_UNIT ( $, .STERADIAN. ) SOLID_ANGLE_UNIT ( ) );
#313 = ORIENTED_EDGE ( 'NONE', *, *, #21, .F. ) ;
#314 = ORIENTED_EDGE ( 'NONE', *, *, #293, .F. ) ;
#315 = CONICAL_SURFACE ( 'NONE', #106, 0.007866125999999999327, 0.1745329251994339192 ) ;
#316 = ADVANCED_FACE ( 'NONE', ( #307 ), #117, .T. ) ;
#317 = PRODUCT_DEFINITION_CONTEXT ( 'detailed design', #233, 'design' ) ;
#318 = CIRCLE ( 'NONE', #66, 0.05905500000000000332 ) ;
#319 = PRESENTATION_LAYER_ASSIGNMENT (  '', '', ( #269 ) ) ;
#320 = DIRECTION ( 'NONE',  ( 0.0000000000000000000, 0.0000000000000000000, -1.000000000000000000 ) ) ;
#321 = DIRECTION ( 'NONE',  ( -1.224646799147353207E-16, -0.0000000000000000000, -1.000000000000000000 ) ) ;
#322 = EDGE_CURVE ( 'NONE', #157, #289, #74, .T. ) ;
#323 = DIRECTION ( 'NONE',  ( -0.0000000000000000000, -0.0000000000000000000, -1.000000000000000000 ) ) ;
#324 = VECTOR ( 'NONE', #139, 39.37007874015748143 ) ;
#325 = CYLINDRICAL_SURFACE ( 'NONE', #223, 0.007866125999999999327 ) ;
ENDSEC;
END-ISO-10303-21;
