ISO-10303-21;
HEADER;
FILE_DESCRIPTION (( 'STEP AP214' ),
    '1' );
FILE_NAME ('Micro_MRF-187-031.STEP',
    '2021-09-02T21:11:12',
    ( '' ),
    ( '' ),
    'SwSTEP 2.0',
    'SolidWorks 2020',
    '' );
FILE_SCHEMA (( 'AUTOMOTIVE_DESIGN' ));
ENDSEC;

DATA;
#1 = CONICAL_SURFACE ( 'NONE', #197, 0.07874999999999980627, 0.7853981633974466137 ) ;
#2 = DIRECTION ( 'NONE',  ( 0.7071067811865463515, 8.659560562354916834E-17, -0.7071067811865486830 ) ) ;
#3 = DIRECTION ( 'NONE',  ( -0.0000000000000000000, -0.0000000000000000000, 1.000000000000000000 ) ) ;
#4 = FILL_AREA_STYLE_COLOUR ( '', #129 ) ;
#5 = DIMENSIONAL_EXPONENTS ( 1.000000000000000000, 0.0000000000000000000, 0.0000000000000000000, 0.0000000000000000000, 0.0000000000000000000, 0.0000000000000000000, 0.0000000000000000000 ) ;
#6 = CIRCLE ( 'NONE', #66, 0.03013688578021898531 ) ;
#7 = CARTESIAN_POINT ( 'NONE',  ( 0.0000000000000000000, 0.0000000000000000000, 2.000000000000000000 ) ) ;
#8 = CARTESIAN_POINT ( 'NONE',  ( -0.07874999999999980627, 0.0000000000000000000, 2.000000000000000000 ) ) ;
#9 = LENGTH_MEASURE_WITH_UNIT ( LENGTH_MEASURE( 0.02539999999999999897 ), #219 );
#10 = CIRCLE ( 'NONE', #23, 0.09375000000000001388 ) ;
#11 =( CONVERSION_BASED_UNIT ( 'INCH', #38 ) LENGTH_UNIT ( ) NAMED_UNIT ( #201 ) );
#12 = VERTEX_POINT ( 'NONE', #63 ) ;
#13 = DIRECTION ( 'NONE',  ( 1.000000000000000000, 0.0000000000000000000, 0.0000000000000000000 ) ) ;
#14 = ORIENTED_EDGE ( 'NONE', *, *, #52, .T. ) ;
#15 = ORIENTED_EDGE ( 'NONE', *, *, #156, .F. ) ;
#16 = DIRECTION ( 'NONE',  ( 1.000000000000000000, 0.0000000000000000000, 0.0000000000000000000 ) ) ;
#17 = AXIS2_PLACEMENT_3D ( 'NONE', #217, #22, #237 ) ;
#18 = AXIS2_PLACEMENT_3D ( 'NONE', #85, #231, #190 ) ;
#19 = CARTESIAN_POINT ( 'NONE',  ( 0.0000000000000000000, 0.0000000000000000000, 0.2605322200887127404 ) ) ;
#20 = ADVANCED_FACE ( 'NONE', ( #61 ), #167, .T. ) ;
#21 = CARTESIAN_POINT ( 'NONE',  ( 0.0000000000000000000, 0.0000000000000000000, 1.984999999999999654 ) ) ;
#22 = DIRECTION ( 'NONE',  ( -0.0000000000000000000, -0.0000000000000000000, 1.000000000000000000 ) ) ;
#23 = AXIS2_PLACEMENT_3D ( 'NONE', #21, #213, #16 ) ;
#24 = PRODUCT_DEFINITION_FORMATION_WITH_SPECIFIED_SOURCE ( 'ANY', '', #103, .NOT_KNOWN. ) ;
#25 = EDGE_LOOP ( 'NONE', ( #56, #104, #246 ) ) ;
#26 = UNCERTAINTY_MEASURE_WITH_UNIT (LENGTH_MEASURE( 1.000000000000000082E-05 ), #113, 'distance_accuracy_value', 'NONE');
#27 = CARTESIAN_POINT ( 'NONE',  ( 0.0000000000000000000, 0.0000000000000000000, 0.03120000000000001592 ) ) ;
#28 = DIRECTION ( 'NONE',  ( -0.7071067811865463515, 0.0000000000000000000, -0.7071067811865486830 ) ) ;
#29 = EDGE_CURVE ( 'NONE', #162, #96, #10, .T. ) ;
#30 = FACE_OUTER_BOUND ( 'NONE', #73, .T. ) ;
#31 =( GEOMETRIC_REPRESENTATION_CONTEXT ( 3 ) GLOBAL_UNCERTAINTY_ASSIGNED_CONTEXT ( ( #150 ) ) GLOBAL_UNIT_ASSIGNED_CONTEXT ( ( #54, #207, #265 ) ) REPRESENTATION_CONTEXT ( 'NONE', 'WORKASPACE' ) );
#32 = DIRECTION ( 'NONE',  ( 0.0000000000000000000, 0.0000000000000000000, 1.000000000000000000 ) ) ;
#33 =( GEOMETRIC_REPRESENTATION_CONTEXT ( 3 ) GLOBAL_UNCERTAINTY_ASSIGNED_CONTEXT ( ( #26 ) ) GLOBAL_UNIT_ASSIGNED_CONTEXT ( ( #113, #50, #155 ) ) REPRESENTATION_CONTEXT ( 'NONE', 'WORKASPACE' ) );
#34 = CARTESIAN_POINT ( 'NONE',  ( 0.0000000000000000000, 0.0000000000000000000, 0.0000000000000000000 ) ) ;
#35 = VERTEX_POINT ( 'NONE', #105 ) ;
#36 = ORIENTED_EDGE ( 'NONE', *, *, #92, .T. ) ;
#37 = ORIENTED_EDGE ( 'NONE', *, *, #84, .F. ) ;
#38 = LENGTH_MEASURE_WITH_UNIT ( LENGTH_MEASURE( 0.02539999999999999897 ), #116 );
#39 = ORIENTED_EDGE ( 'NONE', *, *, #164, .T. ) ;
#40 = LINE ( 'NONE', #64, #275 ) ;
#41 = DIRECTION ( 'NONE',  ( 1.000000000000000000, 0.0000000000000000000, 0.0000000000000000000 ) ) ;
#42 = AXIS2_PLACEMENT_3D ( 'NONE', #7, #91, #263 ) ;
#43 = DIRECTION ( 'NONE',  ( -0.2588190451025145222, 3.169619151431688520E-17, 0.9659258262890699775 ) ) ;
#44 = CARTESIAN_POINT ( 'NONE',  ( 0.0000000000000000000, 0.0000000000000000000, 0.02312484579280157937 ) ) ;
#45 = DIRECTION ( 'NONE',  ( -0.0000000000000000000, -0.0000000000000000000, -1.000000000000000000 ) ) ;
#46 = CARTESIAN_POINT ( 'NONE',  ( -0.09375000000000001388, 0.0000000000000000000, 1.984999999999999654 ) ) ;
#47 = CYLINDRICAL_SURFACE ( 'NONE', #97, 0.09375000000000001388 ) ;
#48 = DIRECTION ( 'NONE',  ( 0.0000000000000000000, 1.000000000000000000, 0.0000000000000000000 ) ) ;
#49 = EDGE_CURVE ( 'NONE', #162, #166, #126, .T. ) ;
#50 =( NAMED_UNIT ( * ) PLANE_ANGLE_UNIT ( ) SI_UNIT ( $, .RADIAN. ) );
#51 = DIRECTION ( 'NONE',  ( -1.224646799147353207E-16, -1.000000000000000000, -0.0000000000000000000 ) ) ;
#52 = EDGE_CURVE ( 'NONE', #144, #166, #195, .T. ) ;
#53 = CARTESIAN_POINT ( 'NONE',  ( 0.03013688578021898531, 0.0000000000000000000, 0.02312484579280157937 ) ) ;
#54 =( CONVERSION_BASED_UNIT ( 'INCH', #138 ) LENGTH_UNIT ( ) NAMED_UNIT ( #154 ) );
#55 = ORIENTED_EDGE ( 'NONE', *, *, #214, .T. ) ;
#56 = ORIENTED_EDGE ( 'NONE', *, *, #164, .F. ) ;
#57 = EDGE_CURVE ( 'NONE', #96, #35, #83, .T. ) ;
#58 = SHAPE_DEFINITION_REPRESENTATION ( #244, #240 ) ;
#59 = SURFACE_STYLE_USAGE ( .BOTH. , #209 ) ;
#60 = ORIENTED_EDGE ( 'NONE', *, *, #92, .F. ) ;
#61 = FACE_OUTER_BOUND ( 'NONE', #210, .T. ) ;
#62 = CARTESIAN_POINT ( 'NONE',  ( 0.0000000000000000000, 0.0000000000000000000, 0.02312484579280157937 ) ) ;
#63 = CARTESIAN_POINT ( 'NONE',  ( -1.910449006669871549E-18, 0.0000000000000000000, 4.268512490100411279E-18 ) ) ;
#64 = CARTESIAN_POINT ( 'NONE',  ( 0.07874999999999980627, 9.644093543285380530E-18, 2.000000000000000000 ) ) ;
#65 = SPHERICAL_SURFACE ( 'NONE', #168, 0.03120000000000000898 ) ;
#66 = AXIS2_PLACEMENT_3D ( 'NONE', #62, #232, #41 ) ;
#67 = PRESENTATION_STYLE_ASSIGNMENT (( #177 ) ) ;
#68 = DIRECTION ( 'NONE',  ( 0.0000000000000000000, 0.0000000000000000000, 1.000000000000000000 ) ) ;
#69 = VECTOR ( 'NONE', #45, 39.37007874015748143 ) ;
#70 = AXIS2_PLACEMENT_3D ( 'NONE', #109, #196, #180 ) ;
#71 = SURFACE_STYLE_FILL_AREA ( #131 ) ;
#72 = SURFACE_STYLE_FILL_AREA ( #165 ) ;
#73 = EDGE_LOOP ( 'NONE', ( #77, #117, #249, #60 ) ) ;
#74 = APPLICATION_PROTOCOL_DEFINITION ( 'draft international standard', 'automotive_design', 1998, #141 ) ;
#75 = EDGE_CURVE ( 'NONE', #147, #245, #119, .T. ) ;
#76 =( GEOMETRIC_REPRESENTATION_CONTEXT ( 3 ) GLOBAL_UNCERTAINTY_ASSIGNED_CONTEXT ( ( #255 ) ) GLOBAL_UNIT_ASSIGNED_CONTEXT ( ( #11, #78, #269 ) ) REPRESENTATION_CONTEXT ( 'NONE', 'WORKASPACE' ) );
#77 = ORIENTED_EDGE ( 'NONE', *, *, #57, .F. ) ;
#78 =( NAMED_UNIT ( * ) PLANE_ANGLE_UNIT ( ) SI_UNIT ( $, .RADIAN. ) );
#79 = ORIENTED_EDGE ( 'NONE', *, *, #89, .F. ) ;
#80 = ORIENTED_EDGE ( 'NONE', *, *, #75, .T. ) ;
#81 = ORIENTED_EDGE ( 'NONE', *, *, #199, .T. ) ;
#82 = CARTESIAN_POINT ( 'NONE',  ( -0.03013688578021898531, 7.585883906353946703E-18, 0.02312484579280157937 ) ) ;
#83 = LINE ( 'NONE', #174, #69 ) ;
#84 = EDGE_CURVE ( 'NONE', #245, #96, #40, .T. ) ;
#85 = CARTESIAN_POINT ( 'NONE',  ( 0.0000000000000000000, 0.0000000000000000000, 2.000000000000000000 ) ) ;
#86 = DIRECTION ( 'NONE',  ( 0.0000000000000000000, 0.0000000000000000000, -1.000000000000000000 ) ) ;
#87 = SURFACE_SIDE_STYLE ('',( #71 ) ) ;
#88 = AXIS2_PLACEMENT_3D ( 'NONE', #262, #68, #157 ) ;
#89 = EDGE_CURVE ( 'NONE', #166, #35, #181, .T. ) ;
#90 = DIRECTION ( 'NONE',  ( -0.0000000000000000000, -1.000000000000000000, 0.0000000000000000000 ) ) ;
#91 = DIRECTION ( 'NONE',  ( 0.0000000000000000000, 0.0000000000000000000, 1.000000000000000000 ) ) ;
#92 = EDGE_CURVE ( 'NONE', #35, #166, #114, .T. ) ;
#93 = CONICAL_SURFACE ( 'NONE', #18, 0.07874999999999980627, 0.7853981633974466137 ) ;
#94 = CARTESIAN_POINT ( 'NONE',  ( 0.07874999999999980627, 1.056257864264590573E-17, 2.000000000000000000 ) ) ;
#95 = DIRECTION ( 'NONE',  ( 0.2588190451025145222, 0.0000000000000000000, 0.9659258262890699775 ) ) ;
#96 = VERTEX_POINT ( 'NONE', #100 ) ;
#97 = AXIS2_PLACEMENT_3D ( 'NONE', #159, #111, #203 ) ;
#98 = APPLICATION_CONTEXT ( 'automotive_design' ) ;
#99 = EDGE_CURVE ( 'NONE', #266, #144, #272, .T. ) ;
#100 = CARTESIAN_POINT ( 'NONE',  ( 0.09375000000000001388, 1.148106374200643863E-17, 1.984999999999999654 ) ) ;
#101 = DIRECTION ( 'NONE',  ( -0.0000000000000000000, -0.0000000000000000000, -1.000000000000000000 ) ) ;
#102 = ADVANCED_FACE ( 'NONE', ( #146 ), #1, .T. ) ;
#103 = PRODUCT ( 'Micro_MRF-187-031', 'Micro_MRF-187-031', '', ( #142 ) ) ;
#104 = ORIENTED_EDGE ( 'NONE', *, *, #230, .T. ) ;
#105 = CARTESIAN_POINT ( 'NONE',  ( 0.09375000000000001388, 1.148106374200643863E-17, 0.2605322200887127404 ) ) ;
#106 = AXIS2_PLACEMENT_3D ( 'NONE', #170, #216, #192 ) ;
#107 = DIRECTION ( 'NONE',  ( 1.000000000000000000, 0.0000000000000000000, 0.0000000000000000000 ) ) ;
#108 = FACE_OUTER_BOUND ( 'NONE', #151, .T. ) ;
#109 = CARTESIAN_POINT ( 'NONE',  ( 0.0000000000000000000, 0.0000000000000000000, 2.000000000000000000 ) ) ;
#110 = MECHANICAL_DESIGN_GEOMETRIC_PRESENTATION_REPRESENTATION (  '', ( #143 ), #31 ) ;
#111 = DIRECTION ( 'NONE',  ( -0.0000000000000000000, -0.0000000000000000000, -1.000000000000000000 ) ) ;
#112 = CARTESIAN_POINT ( 'NONE',  ( 0.0000000000000000000, 0.0000000000000000000, 0.03120000000000001592 ) ) ;
#113 =( CONVERSION_BASED_UNIT ( 'INCH', #9 ) LENGTH_UNIT ( ) NAMED_UNIT ( #5 ) );
#114 = CIRCLE ( 'NONE', #271, 0.09375000000000001388 ) ;
#115 = CIRCLE ( 'NONE', #247, 0.09375000000000001388 ) ;
#116 =( LENGTH_UNIT ( ) NAMED_UNIT ( * ) SI_UNIT ( $, .METRE. ) );
#117 = ORIENTED_EDGE ( 'NONE', *, *, #156, .T. ) ;
#118 = ADVANCED_FACE ( 'NONE', ( #254 ), #149, .T. ) ;
#119 = CIRCLE ( 'NONE', #106, 0.07874999999999980627 ) ;
#120 = ORIENTED_EDGE ( 'NONE', *, *, #29, .T. ) ;
#121 = FILL_AREA_STYLE_COLOUR ( '', #132 ) ;
#122 = ORIENTED_EDGE ( 'NONE', *, *, #99, .F. ) ;
#123 = DIRECTION ( 'NONE',  ( -0.0000000000000000000, -1.000000000000000000, 0.0000000000000000000 ) ) ;
#124 = EDGE_LOOP ( 'NONE', ( #186, #176, #137, #36 ) ) ;
#125 = CIRCLE ( 'NONE', #178, 0.03120000000000000898 ) ;
#126 = LINE ( 'NONE', #127, #205 ) ;
#127 = CARTESIAN_POINT ( 'NONE',  ( -0.09375000000000001388, 0.0000000000000000000, 2.000000000000000000 ) ) ;
#128 = CARTESIAN_POINT ( 'NONE',  ( -0.07874999999999980627, 0.0000000000000000000, 2.000000000000000000 ) ) ;
#129 = COLOUR_RGB ( '',0.7921568627450980005, 0.8196078431372548767, 0.9333333333333333481 ) ;
#130 = PRODUCT_RELATED_PRODUCT_CATEGORY ( 'part', '', ( #103 ) ) ;
#131 = FILL_AREA_STYLE ('',( #4 ) ) ;
#132 = COLOUR_RGB ( '',0.7921568627450980005, 0.8196078431372548767, 0.9333333333333333481 ) ;
#133 = LINE ( 'NONE', #224, #227 ) ;
#134 = DIRECTION ( 'NONE',  ( 1.000000000000000000, -1.224646799147353207E-16, 0.0000000000000000000 ) ) ;
#135 = CIRCLE ( 'NONE', #42, 0.07874999999999980627 ) ;
#136 = EDGE_LOOP ( 'NONE', ( #270, #267, #184, #208 ) ) ;
#137 = ORIENTED_EDGE ( 'NONE', *, *, #252, .T. ) ;
#138 = LENGTH_MEASURE_WITH_UNIT ( LENGTH_MEASURE( 0.02539999999999999897 ), #211 );
#139 = ORIENTED_EDGE ( 'NONE', *, *, #75, .F. ) ;
#140 = EDGE_CURVE ( 'NONE', #144, #266, #6, .T. ) ;
#141 = APPLICATION_CONTEXT ( 'automotive_design' ) ;
#142 = PRODUCT_CONTEXT ( 'NONE', #141, 'mechanical' ) ;
#143 = STYLED_ITEM ( 'NONE', ( #228 ), #240 ) ;
#144 = VERTEX_POINT ( 'NONE', #82 ) ;
#145 = DIRECTION ( 'NONE',  ( 1.000000000000000000, 0.0000000000000000000, 0.0000000000000000000 ) ) ;
#146 = FACE_OUTER_BOUND ( 'NONE', #212, .T. ) ;
#147 = VERTEX_POINT ( 'NONE', #128 ) ;
#148 = ADVANCED_FACE ( 'NONE', ( #218 ), #93, .T. ) ;
#149 = SPHERICAL_SURFACE ( 'NONE', #239, 0.03120000000000000898 ) ;
#150 = UNCERTAINTY_MEASURE_WITH_UNIT (LENGTH_MEASURE( 1.000000000000000082E-05 ), #54, 'distance_accuracy_value', 'NONE');
#151 = EDGE_LOOP ( 'NONE', ( #80, #55 ) ) ;
#152 = ADVANCED_FACE ( 'NONE', ( #171 ), #161, .T. ) ;
#153 = FACE_OUTER_BOUND ( 'NONE', #160, .T. ) ;
#154 = DIMENSIONAL_EXPONENTS ( 1.000000000000000000, 0.0000000000000000000, 0.0000000000000000000, 0.0000000000000000000, 0.0000000000000000000, 0.0000000000000000000, 0.0000000000000000000 ) ;
#155 =( NAMED_UNIT ( * ) SI_UNIT ( $, .STERADIAN. ) SOLID_ANGLE_UNIT ( ) );
#156 = EDGE_CURVE ( 'NONE', #96, #162, #115, .T. ) ;
#157 = DIRECTION ( 'NONE',  ( 1.000000000000000000, 0.0000000000000000000, -0.0000000000000000000 ) ) ;
#158 = STYLED_ITEM ( 'NONE', ( #67 ), #183 ) ;
#159 = CARTESIAN_POINT ( 'NONE',  ( 0.0000000000000000000, 0.0000000000000000000, 2.000000000000000000 ) ) ;
#160 = EDGE_LOOP ( 'NONE', ( #120, #225, #79, #268 ) ) ;
#161 = CONICAL_SURFACE ( 'NONE', #193, 0.1031249999999999528, 0.2617993877991429685 ) ;
#162 = VERTEX_POINT ( 'NONE', #46 ) ;
#163 = APPLICATION_PROTOCOL_DEFINITION ( 'draft international standard', 'automotive_design', 1998, #98 ) ;
#164 = EDGE_CURVE ( 'NONE', #12, #144, #233, .T. ) ;
#165 = FILL_AREA_STYLE ('',( #121 ) ) ;
#166 = VERTEX_POINT ( 'NONE', #200 ) ;
#167 = CONICAL_SURFACE ( 'NONE', #17, 0.1031249999999999528, 0.2617993877991429685 ) ;
#168 = AXIS2_PLACEMENT_3D ( 'NONE', #112, #90, #257 ) ;
#169 = ORIENTED_EDGE ( 'NONE', *, *, #230, .F. ) ;
#170 = CARTESIAN_POINT ( 'NONE',  ( 0.0000000000000000000, 0.0000000000000000000, 2.000000000000000000 ) ) ;
#171 = FACE_OUTER_BOUND ( 'NONE', #124, .T. ) ;
#172 = CARTESIAN_POINT ( 'NONE',  ( 0.0000000000000000000, 0.0000000000000000000, 0.03120000000000001592 ) ) ;
#173 = AXIS2_PLACEMENT_3D ( 'NONE', #238, #48, #32 ) ;
#174 = CARTESIAN_POINT ( 'NONE',  ( 0.09375000000000001388, 1.148106374200643863E-17, 2.000000000000000000 ) ) ;
#175 = ADVANCED_FACE ( 'NONE', ( #242 ), #65, .T. ) ;
#176 = ORIENTED_EDGE ( 'NONE', *, *, #140, .T. ) ;
#177 = SURFACE_STYLE_USAGE ( .BOTH. , #87 ) ;
#178 = AXIS2_PLACEMENT_3D ( 'NONE', #27, #51, #134 ) ;
#179 = PLANE ( 'NONE',  #88 ) ;
#180 = DIRECTION ( 'NONE',  ( -1.000000000000000000, 0.0000000000000000000, 0.0000000000000000000 ) ) ;
#181 = CIRCLE ( 'NONE', #226, 0.09375000000000001388 ) ;
#182 = VECTOR ( 'NONE', #28, 39.37007874015748143 ) ;
#183 = MANIFOLD_SOLID_BREP ( 'Cut-Revolve1', #253 ) ;
#184 = ORIENTED_EDGE ( 'NONE', *, *, #29, .F. ) ;
#185 = AXIS2_PLACEMENT_3D ( 'NONE', #34, #223, #13 ) ;
#186 = ORIENTED_EDGE ( 'NONE', *, *, #52, .F. ) ;
#187 = EDGE_LOOP ( 'NONE', ( #169, #39, #122 ) ) ;
#188 = AXIS2_PLACEMENT_3D ( 'NONE', #44, #3, #107 ) ;
#189 = CARTESIAN_POINT ( 'NONE',  ( 0.0000000000000000000, 0.0000000000000000000, 2.000000000000000000 ) ) ;
#190 = DIRECTION ( 'NONE',  ( -1.000000000000000000, 0.0000000000000000000, 0.0000000000000000000 ) ) ;
#191 = CARTESIAN_POINT ( 'NONE',  ( 0.0000000000000000000, 0.0000000000000000000, 0.2605322200887127404 ) ) ;
#192 = DIRECTION ( 'NONE',  ( 1.000000000000000000, 0.0000000000000000000, 0.0000000000000000000 ) ) ;
#193 = AXIS2_PLACEMENT_3D ( 'NONE', #251, #261, #221 ) ;
#194 = ADVANCED_FACE ( 'NONE', ( #30 ), #47, .T. ) ;
#195 = LINE ( 'NONE', #273, #258 ) ;
#196 = DIRECTION ( 'NONE',  ( -0.0000000000000000000, -0.0000000000000000000, -1.000000000000000000 ) ) ;
#197 = AXIS2_PLACEMENT_3D ( 'NONE', #189, #86, #274 ) ;
#198 = PRODUCT_DEFINITION_CONTEXT ( 'detailed design', #98, 'design' ) ;
#199 = EDGE_CURVE ( 'NONE', #147, #162, #202, .T. ) ;
#200 = CARTESIAN_POINT ( 'NONE',  ( -0.09375000000000001388, 0.0000000000000000000, 0.2605322200887127404 ) ) ;
#201 = DIMENSIONAL_EXPONENTS ( 1.000000000000000000, 0.0000000000000000000, 0.0000000000000000000, 0.0000000000000000000, 0.0000000000000000000, 0.0000000000000000000, 0.0000000000000000000 ) ;
#202 = LINE ( 'NONE', #8, #182 ) ;
#203 = DIRECTION ( 'NONE',  ( -1.000000000000000000, 0.0000000000000000000, 0.0000000000000000000 ) ) ;
#204 = ADVANCED_FACE ( 'NONE', ( #153 ), #243, .T. ) ;
#205 = VECTOR ( 'NONE', #101, 39.37007874015748143 ) ;
#206 = MECHANICAL_DESIGN_GEOMETRIC_PRESENTATION_REPRESENTATION (  '', ( #158 ), #33 ) ;
#207 =( NAMED_UNIT ( * ) PLANE_ANGLE_UNIT ( ) SI_UNIT ( $, .RADIAN. ) );
#208 = ORIENTED_EDGE ( 'NONE', *, *, #199, .F. ) ;
#209 = SURFACE_SIDE_STYLE ('',( #72 ) ) ;
#210 = EDGE_LOOP ( 'NONE', ( #256, #14, #229, #222 ) ) ;
#211 =( LENGTH_UNIT ( ) NAMED_UNIT ( * ) SI_UNIT ( $, .METRE. ) );
#212 = EDGE_LOOP ( 'NONE', ( #37, #139, #81, #15 ) ) ;
#213 = DIRECTION ( 'NONE',  ( 0.0000000000000000000, 0.0000000000000000000, -1.000000000000000000 ) ) ;
#214 = EDGE_CURVE ( 'NONE', #245, #147, #135, .T. ) ;
#215 = DIRECTION ( 'NONE',  ( -1.000000000000000000, 0.0000000000000000000, 0.0000000000000000000 ) ) ;
#216 = DIRECTION ( 'NONE',  ( 0.0000000000000000000, 0.0000000000000000000, 1.000000000000000000 ) ) ;
#217 = CARTESIAN_POINT ( 'NONE',  ( 0.0000000000000000000, 0.0000000000000000000, 0.2955201964096716982 ) ) ;
#218 = FACE_OUTER_BOUND ( 'NONE', #136, .T. ) ;
#219 =( LENGTH_UNIT ( ) NAMED_UNIT ( * ) SI_UNIT ( $, .METRE. ) );
#220 = DIRECTION ( 'NONE',  ( 1.000000000000000000, 0.0000000000000000000, 0.0000000000000000000 ) ) ;
#221 = DIRECTION ( 'NONE',  ( 1.000000000000000000, 0.0000000000000000000, 0.0000000000000000000 ) ) ;
#222 = ORIENTED_EDGE ( 'NONE', *, *, #252, .F. ) ;
#223 = DIRECTION ( 'NONE',  ( 0.0000000000000000000, 0.0000000000000000000, 1.000000000000000000 ) ) ;
#224 = CARTESIAN_POINT ( 'NONE',  ( 0.1031249999999999528, 0.0000000000000000000, 0.2955201964096716982 ) ) ;
#225 = ORIENTED_EDGE ( 'NONE', *, *, #57, .T. ) ;
#226 = AXIS2_PLACEMENT_3D ( 'NONE', #19, #236, #145 ) ;
#227 = VECTOR ( 'NONE', #95, 39.37007874015748143 ) ;
#228 = PRESENTATION_STYLE_ASSIGNMENT (( #59 ) ) ;
#229 = ORIENTED_EDGE ( 'NONE', *, *, #89, .T. ) ;
#230 = EDGE_CURVE ( 'NONE', #12, #266, #125, .T. ) ;
#231 = DIRECTION ( 'NONE',  ( 0.0000000000000000000, 0.0000000000000000000, -1.000000000000000000 ) ) ;
#232 = DIRECTION ( 'NONE',  ( -0.0000000000000000000, -0.0000000000000000000, 1.000000000000000000 ) ) ;
#233 = CIRCLE ( 'NONE', #173, 0.03120000000000001592 ) ;
#234 = DIRECTION ( 'NONE',  ( 1.000000000000000000, 0.0000000000000000000, 0.0000000000000000000 ) ) ;
#235 = PRODUCT_DEFINITION ( 'UNKNOWN', '', #24, #198 ) ;
#236 = DIRECTION ( 'NONE',  ( 0.0000000000000000000, 0.0000000000000000000, -1.000000000000000000 ) ) ;
#237 = DIRECTION ( 'NONE',  ( 1.000000000000000000, 0.0000000000000000000, 0.0000000000000000000 ) ) ;
#238 = CARTESIAN_POINT ( 'NONE',  ( 0.0000000000000000000, 0.0000000000000000000, 0.03120000000000001592 ) ) ;
#239 = AXIS2_PLACEMENT_3D ( 'NONE', #172, #123, #215 ) ;
#240 = ADVANCED_BREP_SHAPE_REPRESENTATION ( 'Micro_MRF-187-031', ( #183, #185 ), #76 ) ;
#241 = DIRECTION ( 'NONE',  ( 0.0000000000000000000, 0.0000000000000000000, -1.000000000000000000 ) ) ;
#242 = FACE_OUTER_BOUND ( 'NONE', #25, .T. ) ;
#243 = CYLINDRICAL_SURFACE ( 'NONE', #70, 0.09375000000000001388 ) ;
#244 = PRODUCT_DEFINITION_SHAPE ( 'NONE', 'NONE',  #235 ) ;
#245 = VERTEX_POINT ( 'NONE', #94 ) ;
#246 = ORIENTED_EDGE ( 'NONE', *, *, #140, .F. ) ;
#247 = AXIS2_PLACEMENT_3D ( 'NONE', #259, #241, #220 ) ;
#248 = ADVANCED_FACE ( 'NONE', ( #108 ), #179, .T. ) ;
#249 = ORIENTED_EDGE ( 'NONE', *, *, #49, .T. ) ;
#250 = DIRECTION ( 'NONE',  ( 0.0000000000000000000, 0.0000000000000000000, -1.000000000000000000 ) ) ;
#251 = CARTESIAN_POINT ( 'NONE',  ( 0.0000000000000000000, 0.0000000000000000000, 0.2955201964096716982 ) ) ;
#252 = EDGE_CURVE ( 'NONE', #266, #35, #133, .T. ) ;
#253 = CLOSED_SHELL ( 'NONE', ( #175, #20, #148, #204, #194, #248, #102, #152, #118 ) ) ;
#254 = FACE_OUTER_BOUND ( 'NONE', #187, .T. ) ;
#255 = UNCERTAINTY_MEASURE_WITH_UNIT (LENGTH_MEASURE( 1.000000000000000082E-05 ), #11, 'distance_accuracy_value', 'NONE');
#256 = ORIENTED_EDGE ( 'NONE', *, *, #99, .T. ) ;
#257 = DIRECTION ( 'NONE',  ( -1.000000000000000000, 0.0000000000000000000, 0.0000000000000000000 ) ) ;
#258 = VECTOR ( 'NONE', #43, 39.37007874015748143 ) ;
#259 = CARTESIAN_POINT ( 'NONE',  ( 0.0000000000000000000, 0.0000000000000000000, 1.984999999999999654 ) ) ;
#260 = PRESENTATION_LAYER_ASSIGNMENT (  '', '', ( #158 ) ) ;
#261 = DIRECTION ( 'NONE',  ( -0.0000000000000000000, -0.0000000000000000000, 1.000000000000000000 ) ) ;
#262 = CARTESIAN_POINT ( 'NONE',  ( 0.0000000000000000000, 0.0000000000000000000, 2.000000000000000000 ) ) ;
#263 = DIRECTION ( 'NONE',  ( 1.000000000000000000, 0.0000000000000000000, 0.0000000000000000000 ) ) ;
#264 = PRESENTATION_LAYER_ASSIGNMENT (  '', '', ( #143 ) ) ;
#265 =( NAMED_UNIT ( * ) SI_UNIT ( $, .STERADIAN. ) SOLID_ANGLE_UNIT ( ) );
#266 = VERTEX_POINT ( 'NONE', #53 ) ;
#267 = ORIENTED_EDGE ( 'NONE', *, *, #84, .T. ) ;
#268 = ORIENTED_EDGE ( 'NONE', *, *, #49, .F. ) ;
#269 =( NAMED_UNIT ( * ) SI_UNIT ( $, .STERADIAN. ) SOLID_ANGLE_UNIT ( ) );
#270 = ORIENTED_EDGE ( 'NONE', *, *, #214, .F. ) ;
#271 = AXIS2_PLACEMENT_3D ( 'NONE', #191, #250, #234 ) ;
#272 = CIRCLE ( 'NONE', #188, 0.03013688578021898531 ) ;
#273 = CARTESIAN_POINT ( 'NONE',  ( -0.1031249999999999528, 1.262917011620707510E-17, 0.2955201964096716982 ) ) ;
#274 = DIRECTION ( 'NONE',  ( -1.000000000000000000, 0.0000000000000000000, 0.0000000000000000000 ) ) ;
#275 = VECTOR ( 'NONE', #2, 39.37007874015748143 ) ;
ENDSEC;
END-ISO-10303-21;
