ISO-10303-21;
HEADER;
FILE_DESCRIPTION (( 'STEP AP214' ),
    '1' );
FILE_NAME ('Micro_AEMM-020-2.STEP',
    '2022-03-15T14:23:03',
    ( '' ),
    ( '' ),
    'SwSTEP 2.0',
    'SolidWorks 2022',
    '' );
FILE_SCHEMA (( 'AUTOMOTIVE_DESIGN' ));
ENDSEC;

DATA;
#1 = DIRECTION ( 'NONE',  ( -1.000000000000000000, 0.000000000000000000, 0.000000000000000000 ) ) ;
#2 = DIRECTION ( 'NONE',  ( -1.224646799147353207E-16, -0.000000000000000000, -1.000000000000000000 ) ) ;
#3 = DIRECTION ( 'NONE',  ( 1.000000000000000000, 0.000000000000000000, -0.000000000000000000 ) ) ;
#4 = EDGE_CURVE ( 'NONE', #177, #85, #131, .T. ) ;
#5 = FACE_OUTER_BOUND ( 'NONE', #174, .T. ) ;
#6 = AXIS2_PLACEMENT_3D ( 'NONE', #77, #267, #26 ) ;
#7 = AXIS2_PLACEMENT_3D ( 'NONE', #29, #2, #68 ) ;
#8 = CARTESIAN_POINT ( 'NONE',  ( 0.000000000000000000, 0.000000000000000000, 1.953504000000000129 ) ) ;
#9 = EDGE_CURVE ( 'NONE', #150, #103, #139, .T. ) ;
#10 = CARTESIAN_POINT ( 'NONE',  ( 0.000000000000000000, 0.000000000000000000, 1.968503999999999809 ) ) ;
#11 = ORIENTED_EDGE ( 'NONE', *, *, #272, .T. ) ;
#12 = ADVANCED_FACE ( 'NONE', ( #198 ), #199, .T. ) ;
#13 = CARTESIAN_POINT ( 'NONE',  ( 2.410717224121564935E-17, 0.000000000000000000, 0.1968500000000000250 ) ) ;
#14 = VERTEX_POINT ( 'NONE', #71 ) ;
#15 = VECTOR ( 'NONE', #124, 39.37007874015748143 ) ;
#16 = ORIENTED_EDGE ( 'NONE', *, *, #9, .F. ) ;
#17 = EDGE_CURVE ( 'NONE', #268, #150, #250, .T. ) ;
#18 = ORIENTED_EDGE ( 'NONE', *, *, #4, .T. ) ;
#19 = EDGE_CURVE ( 'NONE', #103, #20, #121, .T. ) ;
#20 = VERTEX_POINT ( 'NONE', #202 ) ;
#21 = DIRECTION ( 'NONE',  ( -0.1736481776669311916, 2.126576849575783316E-17, 0.9848077530122080203 ) ) ;
#22 = COLOUR_RGB ( '',0.7921568627450980005, 0.8196078431372548767, 0.9333333333333333481 ) ;
#23 = CIRCLE ( 'NONE', #62, 0.03933062999999999837 ) ;
#24 = DIRECTION ( 'NONE',  ( -1.224646799147353207E-16, -0.000000000000000000, -1.000000000000000000 ) ) ;
#25 = DIRECTION ( 'NONE',  ( -0.000000000000000000, -0.000000000000000000, -1.000000000000000000 ) ) ;
#26 = DIRECTION ( 'NONE',  ( -1.000000000000000000, 0.000000000000000000, 0.000000000000000000 ) ) ;
#27 = CARTESIAN_POINT ( 'NONE',  ( 2.410717224121564935E-17, 0.000000000000000000, 0.1968500000000000250 ) ) ;
#28 =( LENGTH_UNIT ( ) NAMED_UNIT ( * ) SI_UNIT ( $, .METRE. ) );
#29 = CARTESIAN_POINT ( 'NONE',  ( 0.000000000000000000, 0.000000000000000000, 0.000000000000000000 ) ) ;
#30 = AXIS2_PLACEMENT_3D ( 'NONE', #8, #284, #261 ) ;
#31 = PLANE ( 'NONE',  #265 ) ;
#32 =( NAMED_UNIT ( * ) PLANE_ANGLE_UNIT ( ) SI_UNIT ( $, .RADIAN. ) );
#33 = PRESENTATION_LAYER_ASSIGNMENT (  '', '', ( #157 ) ) ;
#34 = VECTOR ( 'NONE', #51, 39.37007874015748143 ) ;
#35 = SHAPE_DEFINITION_REPRESENTATION ( #179, #295 ) ;
#36 = FACE_OUTER_BOUND ( 'NONE', #59, .T. ) ;
#37 = DIMENSIONAL_EXPONENTS ( 1.000000000000000000, 0.000000000000000000, 0.000000000000000000, 0.000000000000000000, 0.000000000000000000, 0.000000000000000000, 0.000000000000000000 ) ;
#38 = EDGE_CURVE ( 'NONE', #41, #20, #178, .T. ) ;
#39 = CONICAL_SURFACE ( 'NONE', #196, 0.03933062999999999837, 0.1745329251994338915 ) ;
#40 = PLANE ( 'NONE',  #74 ) ;
#41 = VERTEX_POINT ( 'NONE', #137 ) ;
#42 = ORIENTED_EDGE ( 'NONE', *, *, #75, .F. ) ;
#43 = EDGE_LOOP ( 'NONE', ( #149, #245, #128, #291 ) ) ;
#44 = ORIENTED_EDGE ( 'NONE', *, *, #38, .T. ) ;
#45 = DIRECTION ( 'NONE',  ( 0.000000000000000000, 0.000000000000000000, -1.000000000000000000 ) ) ;
#46 = DIRECTION ( 'NONE',  ( -1.224646799147353207E-16, -0.000000000000000000, -1.000000000000000000 ) ) ;
#47 =( GEOMETRIC_REPRESENTATION_CONTEXT ( 3 ) GLOBAL_UNCERTAINTY_ASSIGNED_CONTEXT ( ( #148 ) ) GLOBAL_UNIT_ASSIGNED_CONTEXT ( ( #76, #32, #207 ) ) REPRESENTATION_CONTEXT ( 'NONE', 'WORKASPACE' ) );
#48 = FACE_OUTER_BOUND ( 'NONE', #221, .T. ) ;
#49 = DIRECTION ( 'NONE',  ( -0.000000000000000000, -0.000000000000000000, -1.000000000000000000 ) ) ;
#50 = DIRECTION ( 'NONE',  ( -1.000000000000000000, 0.000000000000000000, 1.224646799147352961E-16 ) ) ;
#51 = DIRECTION ( 'NONE',  ( 0.1736481776669313859, 0.000000000000000000, 0.9848077530122077983 ) ) ;
#52 = CONICAL_SURFACE ( 'NONE', #87, 0.06374000000000018540, 0.7853981633974522758 ) ;
#53 = DIRECTION ( 'NONE',  ( -0.000000000000000000, -0.000000000000000000, -1.000000000000000000 ) ) ;
#54 = FILL_AREA_STYLE_COLOUR ( '', #22 ) ;
#55 = FILL_AREA_STYLE ('',( #57 ) ) ;
#56 = EDGE_CURVE ( 'NONE', #41, #177, #66, .T. ) ;
#57 = FILL_AREA_STYLE_COLOUR ( '', #188 ) ;
#58 =( LENGTH_UNIT ( ) NAMED_UNIT ( * ) SI_UNIT ( $, .METRE. ) );
#59 = EDGE_LOOP ( 'NONE', ( #64, #276, #44, #190 ) ) ;
#60 = PRODUCT_DEFINITION_CONTEXT ( 'detailed design', #213, 'design' ) ;
#61 = ORIENTED_EDGE ( 'NONE', *, *, #72, .T. ) ;
#62 = AXIS2_PLACEMENT_3D ( 'NONE', #255, #118, #225 ) ;
#63 =( NAMED_UNIT ( * ) PLANE_ANGLE_UNIT ( ) SI_UNIT ( $, .RADIAN. ) );
#64 = ORIENTED_EDGE ( 'NONE', *, *, #204, .F. ) ;
#65 = FACE_OUTER_BOUND ( 'NONE', #194, .T. ) ;
#66 = LINE ( 'NONE', #205, #282 ) ;
#67 = VECTOR ( 'NONE', #21, 39.37007874015747433 ) ;
#68 = DIRECTION ( 'NONE',  ( -1.000000000000000000, 0.000000000000000000, 1.224646799147352961E-16 ) ) ;
#69 = PRODUCT_CONTEXT ( 'NONE', #200, 'mechanical' ) ;
#70 = ADVANCED_FACE ( 'NONE', ( #226 ), #222, .T. ) ;
#71 = CARTESIAN_POINT ( 'NONE',  ( -0.03933062999999997061, 7.229740955140570430E-18, 0.1968500000000000250 ) ) ;
#72 = EDGE_CURVE ( 'NONE', #85, #177, #23, .T. ) ;
#73 = FACE_OUTER_BOUND ( 'NONE', #263, .T. ) ;
#74 = AXIS2_PLACEMENT_3D ( 'NONE', #251, #223, #165 ) ;
#75 = EDGE_CURVE ( 'NONE', #20, #103, #227, .T. ) ;
#76 =( CONVERSION_BASED_UNIT ( 'INCH', #201 ) LENGTH_UNIT ( ) NAMED_UNIT ( #220 ) );
#77 = CARTESIAN_POINT ( 'NONE',  ( 2.410717224121564935E-17, 0.000000000000000000, 0.1968500000000000250 ) ) ;
#78 = EDGE_CURVE ( 'NONE', #41, #14, #146, .T. ) ;
#79 = ADVANCED_FACE ( 'NONE', ( #48 ), #180, .T. ) ;
#80 = CARTESIAN_POINT ( 'NONE',  ( 0.03933062999999999837, 4.816613013794885432E-18, 0.000000000000000000 ) ) ;
#81 = CARTESIAN_POINT ( 'NONE',  ( 0.000000000000000000, 0.000000000000000000, 1.968503999999999809 ) ) ;
#82 = EDGE_LOOP ( 'NONE', ( #248, #132, #167, #193 ) ) ;
#83 = AXIS2_PLACEMENT_3D ( 'NONE', #27, #252, #1 ) ;
#84 = DIRECTION ( 'NONE',  ( 0.000000000000000000, 0.000000000000000000, 1.000000000000000000 ) ) ;
#85 = VERTEX_POINT ( 'NONE', #115 ) ;
#86 = ORIENTED_EDGE ( 'NONE', *, *, #89, .F. ) ;
#87 = AXIS2_PLACEMENT_3D ( 'NONE', #114, #112, #197 ) ;
#88 = ORIENTED_EDGE ( 'NONE', *, *, #9, .T. ) ;
#89 = EDGE_CURVE ( 'NONE', #150, #216, #125, .T. ) ;
#90 = LINE ( 'NONE', #155, #106 ) ;
#91 = CARTESIAN_POINT ( 'NONE',  ( -0.07874000000000000443, 0.000000000000000000, 1.968503999999999809 ) ) ;
#92 =( LENGTH_UNIT ( ) NAMED_UNIT ( * ) SI_UNIT ( $, .METRE. ) );
#93 = DIRECTION ( 'NONE',  ( -1.224646799147353207E-16, -0.000000000000000000, -1.000000000000000000 ) ) ;
#94 = CIRCLE ( 'NONE', #30, 0.07874000000000000443 ) ;
#95 = DIRECTION ( 'NONE',  ( -1.000000000000000000, 0.000000000000000000, 1.224646799147352961E-16 ) ) ;
#96 = SURFACE_SIDE_STYLE ('',( #231 ) ) ;
#97 = DIRECTION ( 'NONE',  ( -1.224646799147353207E-16, -0.000000000000000000, -1.000000000000000000 ) ) ;
#98 = CARTESIAN_POINT ( 'NONE',  ( 0.000000000000000000, 0.000000000000000000, 1.968503999999999809 ) ) ;
#99 = CYLINDRICAL_SURFACE ( 'NONE', #240, 0.07874000000000000443 ) ;
#100 = AXIS2_PLACEMENT_3D ( 'NONE', #258, #116, #95 ) ;
#101 = LINE ( 'NONE', #283, #289 ) ;
#102 = DIRECTION ( 'NONE',  ( 0.7071067811865502373, 8.659560562354966138E-17, -0.7071067811865446862 ) ) ;
#103 = VERTEX_POINT ( 'NONE', #257 ) ;
#104 = DIRECTION ( 'NONE',  ( 1.224646799147353207E-16, 0.000000000000000000, 1.000000000000000000 ) ) ;
#105 = ORIENTED_EDGE ( 'NONE', *, *, #170, .T. ) ;
#106 = VECTOR ( 'NONE', #176, 39.37007874015748143 ) ;
#107 = ADVANCED_FACE ( 'NONE', ( #73 ), #31, .F. ) ;
#108 = UNCERTAINTY_MEASURE_WITH_UNIT (LENGTH_MEASURE( 1.000000000000000082E-05 ), #290, 'distance_accuracy_value', 'NONE');
#109 = ORIENTED_EDGE ( 'NONE', *, *, #89, .T. ) ;
#110 = DIMENSIONAL_EXPONENTS ( 1.000000000000000000, 0.000000000000000000, 0.000000000000000000, 0.000000000000000000, 0.000000000000000000, 0.000000000000000000, 0.000000000000000000 ) ;
#111 = ORIENTED_EDGE ( 'NONE', *, *, #19, .F. ) ;
#112 = DIRECTION ( 'NONE',  ( 0.000000000000000000, 0.000000000000000000, -1.000000000000000000 ) ) ;
#113 = CARTESIAN_POINT ( 'NONE',  ( 0.03933063000000001919, 0.000000000000000000, 0.1968500000000000250 ) ) ;
#114 = CARTESIAN_POINT ( 'NONE',  ( 0.000000000000000000, 0.000000000000000000, 1.968503999999999809 ) ) ;
#115 = CARTESIAN_POINT ( 'NONE',  ( -0.03933062999999999837, 0.000000000000000000, 9.633226027589770864E-18 ) ) ;
#116 = DIRECTION ( 'NONE',  ( -1.224646799147353207E-16, -0.000000000000000000, -1.000000000000000000 ) ) ;
#117 = AXIS2_PLACEMENT_3D ( 'NONE', #10, #45, #243 ) ;
#118 = DIRECTION ( 'NONE',  ( -1.224646799147353207E-16, -0.000000000000000000, -1.000000000000000000 ) ) ;
#119 = CARTESIAN_POINT ( 'NONE',  ( 0.000000000000000000, 0.000000000000000000, 0.000000000000000000 ) ) ;
#120 = CIRCLE ( 'NONE', #203, 0.06374000000000018540 ) ;
#121 = CIRCLE ( 'NONE', #275, 0.07874000000000000443 ) ;
#122 = SURFACE_STYLE_USAGE ( .BOTH. , #236 ) ;
#123 = PRESENTATION_STYLE_ASSIGNMENT (( #122 ) ) ;
#124 = DIRECTION ( 'NONE',  ( -1.224646799147353207E-16, -0.000000000000000000, -1.000000000000000000 ) ) ;
#125 = CIRCLE ( 'NONE', #209, 0.07874000000000000443 ) ;
#126 = ORIENTED_EDGE ( 'NONE', *, *, #204, .T. ) ;
#127 =( NAMED_UNIT ( * ) SI_UNIT ( $, .STERADIAN. ) SOLID_ANGLE_UNIT ( ) );
#128 = ORIENTED_EDGE ( 'NONE', *, *, #145, .T. ) ;
#129 = ORIENTED_EDGE ( 'NONE', *, *, #19, .T. ) ;
#130 = MECHANICAL_DESIGN_GEOMETRIC_PRESENTATION_REPRESENTATION (  '', ( #219 ), #47 ) ;
#131 = CIRCLE ( 'NONE', #135, 0.03933062999999999837 ) ;
#132 = ORIENTED_EDGE ( 'NONE', *, *, #143, .F. ) ;
#133 = FACE_OUTER_BOUND ( 'NONE', #293, .T. ) ;
#134 = DIRECTION ( 'NONE',  ( 1.000000000000000000, 0.000000000000000000, 0.000000000000000000 ) ) ;
#135 = AXIS2_PLACEMENT_3D ( 'NONE', #273, #24, #50 ) ;
#136 = CARTESIAN_POINT ( 'NONE',  ( 0.000000000000000000, 0.000000000000000000, 1.968503999999999809 ) ) ;
#137 = CARTESIAN_POINT ( 'NONE',  ( 0.03933063000000001919, 0.000000000000000000, 0.1968500000000000250 ) ) ;
#138 = PRESENTATION_STYLE_ASSIGNMENT (( #279 ) ) ;
#139 = LINE ( 'NONE', #91, #235 ) ;
#140 = CARTESIAN_POINT ( 'NONE',  ( 0.000000000000000000, 0.000000000000000000, 1.953504000000000129 ) ) ;
#141 = DIRECTION ( 'NONE',  ( -1.000000000000000000, 0.000000000000000000, 0.000000000000000000 ) ) ;
#142 = AXIS2_PLACEMENT_3D ( 'NONE', #298, #93, #156 ) ;
#143 = EDGE_CURVE ( 'NONE', #268, #172, #120, .T. ) ;
#144 =( NAMED_UNIT ( * ) PLANE_ANGLE_UNIT ( ) SI_UNIT ( $, .RADIAN. ) );
#145 = EDGE_CURVE ( 'NONE', #14, #85, #154, .T. ) ;
#146 = CIRCLE ( 'NONE', #83, 0.03933062999999999837 ) ;
#147 = FACE_OUTER_BOUND ( 'NONE', #82, .T. ) ;
#148 = UNCERTAINTY_MEASURE_WITH_UNIT (LENGTH_MEASURE( 1.000000000000000082E-05 ), #76, 'distance_accuracy_value', 'NONE');
#149 = ORIENTED_EDGE ( 'NONE', *, *, #56, .F. ) ;
#150 = VERTEX_POINT ( 'NONE', #260 ) ;
#151 = ADVANCED_FACE ( 'NONE', ( #5 ), #99, .T. ) ;
#152 = EDGE_LOOP ( 'NONE', ( #218, #126, #129, #264 ) ) ;
#153 = ADVANCED_FACE ( 'NONE', ( #36 ), #285, .T. ) ;
#154 = LINE ( 'NONE', #238, #15 ) ;
#155 = CARTESIAN_POINT ( 'NONE',  ( 0.07874000000000000443, 9.642868896486258509E-18, 1.968503999999999809 ) ) ;
#156 = DIRECTION ( 'NONE',  ( 1.000000000000000000, 0.000000000000000000, 0.000000000000000000 ) ) ;
#157 = STYLED_ITEM ( 'NONE', ( #123 ), #164 ) ;
#158 = ORIENTED_EDGE ( 'NONE', *, *, #272, .F. ) ;
#159 = EDGE_CURVE ( 'NONE', #216, #150, #94, .T. ) ;
#160 = DIRECTION ( 'NONE',  ( 0.000000000000000000, 0.000000000000000000, -1.000000000000000000 ) ) ;
#161 = ORIENTED_EDGE ( 'NONE', *, *, #206, .F. ) ;
#162 = EDGE_CURVE ( 'NONE', #172, #216, #101, .T. ) ;
#163 = VECTOR ( 'NONE', #224, 39.37007874015748854 ) ;
#164 = MANIFOLD_SOLID_BREP ( 'Cut-Revolve1', #210 ) ;
#165 = DIRECTION ( 'NONE',  ( 1.000000000000000000, 0.000000000000000000, -0.000000000000000000 ) ) ;
#166 = PRODUCT_DEFINITION_FORMATION_WITH_SPECIFIED_SOURCE ( 'ANY', '', #195, .NOT_KNOWN. ) ;
#167 = ORIENTED_EDGE ( 'NONE', *, *, #17, .T. ) ;
#168 = DIRECTION ( 'NONE',  ( 1.000000000000000000, 0.000000000000000000, 0.000000000000000000 ) ) ;
#169 = ORIENTED_EDGE ( 'NONE', *, *, #159, .T. ) ;
#170 = EDGE_CURVE ( 'NONE', #14, #41, #173, .T. ) ;
#171 = ORIENTED_EDGE ( 'NONE', *, *, #143, .T. ) ;
#172 = VERTEX_POINT ( 'NONE', #269 ) ;
#173 = CIRCLE ( 'NONE', #6, 0.03933062999999999837 ) ;
#174 = EDGE_LOOP ( 'NONE', ( #109, #11, #111, #16 ) ) ;
#175 = PRODUCT_RELATED_PRODUCT_CATEGORY ( 'part', '', ( #195 ) ) ;
#176 = DIRECTION ( 'NONE',  ( -0.000000000000000000, -0.000000000000000000, -1.000000000000000000 ) ) ;
#177 = VERTEX_POINT ( 'NONE', #80 ) ;
#178 = LINE ( 'NONE', #113, #34 ) ;
#179 = PRODUCT_DEFINITION_SHAPE ( 'NONE', 'NONE',  #187 ) ;
#180 = CYLINDRICAL_SURFACE ( 'NONE', #253, 0.07874000000000000443 ) ;
#181 = DIRECTION ( 'NONE',  ( -1.000000000000000000, 0.000000000000000000, 0.000000000000000000 ) ) ;
#182 = ADVANCED_FACE ( 'NONE', ( #217 ), #39, .T. ) ;
#183 = DIRECTION ( 'NONE',  ( 0.000000000000000000, 0.000000000000000000, 1.000000000000000000 ) ) ;
#184 = PRESENTATION_LAYER_ASSIGNMENT (  '', '', ( #219 ) ) ;
#185 = CARTESIAN_POINT ( 'NONE',  ( 0.000000000000000000, 0.000000000000000000, 1.968503999999999809 ) ) ;
#186 = DIRECTION ( 'NONE',  ( 1.000000000000000000, 0.000000000000000000, 0.000000000000000000 ) ) ;
#187 = PRODUCT_DEFINITION ( 'UNKNOWN', '', #166, #60 ) ;
#188 = COLOUR_RGB ( '',0.7921568627450980005, 0.8196078431372548767, 0.9333333333333333481 ) ;
#189 = LENGTH_MEASURE_WITH_UNIT ( LENGTH_MEASURE( 0.02539999999999999897 ), #58 );
#190 = ORIENTED_EDGE ( 'NONE', *, *, #75, .T. ) ;
#191 = CARTESIAN_POINT ( 'NONE',  ( -0.03933062999999997061, 4.816613013794885432E-18, 0.1968500000000000250 ) ) ;
#192 = EDGE_LOOP ( 'NONE', ( #105, #242, #266, #229 ) ) ;
#193 = ORIENTED_EDGE ( 'NONE', *, *, #159, .F. ) ;
#194 = EDGE_LOOP ( 'NONE', ( #171, #244 ) ) ;
#195 = PRODUCT ( 'Micro_AEMM-020-2', 'Micro_AEMM-020-2', '', ( #69 ) ) ;
#196 = AXIS2_PLACEMENT_3D ( 'NONE', #13, #104, #288 ) ;
#197 = DIRECTION ( 'NONE',  ( -1.000000000000000000, 0.000000000000000000, 0.000000000000000000 ) ) ;
#198 = FACE_OUTER_BOUND ( 'NONE', #43, .T. ) ;
#199 = CYLINDRICAL_SURFACE ( 'NONE', #100, 0.03933062999999999837 ) ;
#200 = APPLICATION_CONTEXT ( 'automotive_design' ) ;
#201 = LENGTH_MEASURE_WITH_UNIT ( LENGTH_MEASURE( 0.02539999999999999897 ), #28 );
#202 = CARTESIAN_POINT ( 'NONE',  ( 0.07874000000000004607, 9.642868896486264672E-18, 0.4203516436035863446 ) ) ;
#203 = AXIS2_PLACEMENT_3D ( 'NONE', #98, #183, #280 ) ;
#204 = EDGE_CURVE ( 'NONE', #14, #103, #215, .T. ) ;
#205 = CARTESIAN_POINT ( 'NONE',  ( 0.03933062999999999837, 4.816613013794885432E-18, -4.816613013794885432E-18 ) ) ;
#206 = EDGE_CURVE ( 'NONE', #172, #268, #262, .T. ) ;
#207 =( NAMED_UNIT ( * ) SI_UNIT ( $, .STERADIAN. ) SOLID_ANGLE_UNIT ( ) );
#208 = DIRECTION ( 'NONE',  ( 0.000000000000000000, 0.000000000000000000, 1.000000000000000000 ) ) ;
#209 = AXIS2_PLACEMENT_3D ( 'NONE', #140, #160, #278 ) ;
#210 = CLOSED_SHELL ( 'NONE', ( #70, #182, #239, #151, #79, #287, #211, #153, #12, #107 ) ) ;
#211 = ADVANCED_FACE ( 'NONE', ( #147 ), #214, .T. ) ;
#212 = DIRECTION ( 'NONE',  ( 1.224646799147353207E-16, 0.000000000000000000, 1.000000000000000000 ) ) ;
#213 = APPLICATION_CONTEXT ( 'automotive_design' ) ;
#214 = CONICAL_SURFACE ( 'NONE', #117, 0.06374000000000018540, 0.7853981633974522758 ) ;
#215 = LINE ( 'NONE', #191, #67 ) ;
#216 = VERTEX_POINT ( 'NONE', #249 ) ;
#217 = FACE_OUTER_BOUND ( 'NONE', #152, .T. ) ;
#218 = ORIENTED_EDGE ( 'NONE', *, *, #170, .F. ) ;
#219 = STYLED_ITEM ( 'NONE', ( #138 ), #295 ) ;
#220 = DIMENSIONAL_EXPONENTS ( 1.000000000000000000, 0.000000000000000000, 0.000000000000000000, 0.000000000000000000, 0.000000000000000000, 0.000000000000000000, 0.000000000000000000 ) ;
#221 = EDGE_LOOP ( 'NONE', ( #158, #169, #88, #42 ) ) ;
#222 = CYLINDRICAL_SURFACE ( 'NONE', #7, 0.03933062999999999837 ) ;
#223 = DIRECTION ( 'NONE',  ( 0.000000000000000000, 0.000000000000000000, 1.000000000000000000 ) ) ;
#224 = DIRECTION ( 'NONE',  ( -0.7071067811865502373, 0.000000000000000000, -0.7071067811865446862 ) ) ;
#225 = DIRECTION ( 'NONE',  ( -1.000000000000000000, 0.000000000000000000, 1.224646799147352961E-16 ) ) ;
#226 = FACE_OUTER_BOUND ( 'NONE', #192, .T. ) ;
#227 = CIRCLE ( 'NONE', #142, 0.07874000000000000443 ) ;
#228 = APPLICATION_PROTOCOL_DEFINITION ( 'draft international standard', 'automotive_design', 1998, #200 ) ;
#229 = ORIENTED_EDGE ( 'NONE', *, *, #145, .F. ) ;
#230 = FILL_AREA_STYLE ('',( #54 ) ) ;
#231 = SURFACE_STYLE_FILL_AREA ( #230 ) ;
#232 = CARTESIAN_POINT ( 'NONE',  ( 2.410717224121564935E-17, 0.000000000000000000, 0.1968500000000000250 ) ) ;
#233 = APPLICATION_PROTOCOL_DEFINITION ( 'draft international standard', 'automotive_design', 1998, #213 ) ;
#234 = AXIS2_PLACEMENT_3D ( 'NONE', #81, #84, #168 ) ;
#235 = VECTOR ( 'NONE', #49, 39.37007874015748143 ) ;
#236 = SURFACE_SIDE_STYLE ('',( #237 ) ) ;
#237 = SURFACE_STYLE_FILL_AREA ( #55 ) ;
#238 = CARTESIAN_POINT ( 'NONE',  ( -0.03933062999999999837, 0.000000000000000000, 4.816613013794885432E-18 ) ) ;
#239 = ADVANCED_FACE ( 'NONE', ( #133 ), #52, .T. ) ;
#240 = AXIS2_PLACEMENT_3D ( 'NONE', #185, #53, #141 ) ;
#241 = MECHANICAL_DESIGN_GEOMETRIC_PRESENTATION_REPRESENTATION (  '', ( #157 ), #274 ) ;
#242 = ORIENTED_EDGE ( 'NONE', *, *, #56, .T. ) ;
#243 = DIRECTION ( 'NONE',  ( -1.000000000000000000, 0.000000000000000000, 0.000000000000000000 ) ) ;
#244 = ORIENTED_EDGE ( 'NONE', *, *, #206, .T. ) ;
#245 = ORIENTED_EDGE ( 'NONE', *, *, #78, .T. ) ;
#246 = UNCERTAINTY_MEASURE_WITH_UNIT (LENGTH_MEASURE( 1.000000000000000082E-05 ), #271, 'distance_accuracy_value', 'NONE');
#247 = AXIS2_PLACEMENT_3D ( 'NONE', #277, #259, #256 ) ;
#248 = ORIENTED_EDGE ( 'NONE', *, *, #162, .F. ) ;
#249 = CARTESIAN_POINT ( 'NONE',  ( 0.07874000000000000443, 9.642868896486258509E-18, 1.953504000000000129 ) ) ;
#250 = LINE ( 'NONE', #270, #163 ) ;
#251 = CARTESIAN_POINT ( 'NONE',  ( 0.000000000000000000, 0.000000000000000000, 1.968503999999999809 ) ) ;
#252 = DIRECTION ( 'NONE',  ( -1.224646799147353207E-16, -0.000000000000000000, -1.000000000000000000 ) ) ;
#253 = AXIS2_PLACEMENT_3D ( 'NONE', #136, #25, #181 ) ;
#254 = LENGTH_MEASURE_WITH_UNIT ( LENGTH_MEASURE( 0.02539999999999999897 ), #92 );
#255 = CARTESIAN_POINT ( 'NONE',  ( 5.898649710075393742E-34, 0.000000000000000000, 4.816613013794885432E-18 ) ) ;
#256 = DIRECTION ( 'NONE',  ( 1.000000000000000000, 0.000000000000000000, 0.000000000000000000 ) ) ;
#257 = CARTESIAN_POINT ( 'NONE',  ( -0.07873999999999994892, 0.000000000000000000, 0.4203516436035863446 ) ) ;
#258 = CARTESIAN_POINT ( 'NONE',  ( 0.000000000000000000, 0.000000000000000000, 0.000000000000000000 ) ) ;
#259 = DIRECTION ( 'NONE',  ( 0.000000000000000000, 0.000000000000000000, 1.000000000000000000 ) ) ;
#260 = CARTESIAN_POINT ( 'NONE',  ( -0.07874000000000000443, 0.000000000000000000, 1.953504000000000129 ) ) ;
#261 = DIRECTION ( 'NONE',  ( 1.000000000000000000, 0.000000000000000000, 0.000000000000000000 ) ) ;
#262 = CIRCLE ( 'NONE', #234, 0.06374000000000018540 ) ;
#263 = EDGE_LOOP ( 'NONE', ( #61, #18 ) ) ;
#264 = ORIENTED_EDGE ( 'NONE', *, *, #38, .F. ) ;
#265 = AXIS2_PLACEMENT_3D ( 'NONE', #119, #208, #3 ) ;
#266 = ORIENTED_EDGE ( 'NONE', *, *, #72, .F. ) ;
#267 = DIRECTION ( 'NONE',  ( -1.224646799147353207E-16, -0.000000000000000000, -1.000000000000000000 ) ) ;
#268 = VERTEX_POINT ( 'NONE', #297 ) ;
#269 = CARTESIAN_POINT ( 'NONE',  ( 0.06374000000000018540, 8.724383797125754882E-18, 1.968503999999999809 ) ) ;
#270 = CARTESIAN_POINT ( 'NONE',  ( -0.06374000000000018540, 0.000000000000000000, 1.968503999999999809 ) ) ;
#271 =( CONVERSION_BASED_UNIT ( 'INCH', #254 ) LENGTH_UNIT ( ) NAMED_UNIT ( #37 ) );
#272 = EDGE_CURVE ( 'NONE', #216, #20, #90, .T. ) ;
#273 = CARTESIAN_POINT ( 'NONE',  ( 5.898649710075393742E-34, 0.000000000000000000, 4.816613013794885432E-18 ) ) ;
#274 =( GEOMETRIC_REPRESENTATION_CONTEXT ( 3 ) GLOBAL_UNCERTAINTY_ASSIGNED_CONTEXT ( ( #108 ) ) GLOBAL_UNIT_ASSIGNED_CONTEXT ( ( #290, #63, #127 ) ) REPRESENTATION_CONTEXT ( 'NONE', 'WORKASPACE' ) );
#275 = AXIS2_PLACEMENT_3D ( 'NONE', #299, #46, #134 ) ;
#276 = ORIENTED_EDGE ( 'NONE', *, *, #78, .F. ) ;
#277 = CARTESIAN_POINT ( 'NONE',  ( 0.000000000000000000, 0.000000000000000000, 0.000000000000000000 ) ) ;
#278 = DIRECTION ( 'NONE',  ( 1.000000000000000000, 0.000000000000000000, 0.000000000000000000 ) ) ;
#279 = SURFACE_STYLE_USAGE ( .BOTH. , #96 ) ;
#280 = DIRECTION ( 'NONE',  ( 1.000000000000000000, 0.000000000000000000, 0.000000000000000000 ) ) ;
#281 =( GEOMETRIC_REPRESENTATION_CONTEXT ( 3 ) GLOBAL_UNCERTAINTY_ASSIGNED_CONTEXT ( ( #246 ) ) GLOBAL_UNIT_ASSIGNED_CONTEXT ( ( #271, #144, #286 ) ) REPRESENTATION_CONTEXT ( 'NONE', 'WORKASPACE' ) );
#282 = VECTOR ( 'NONE', #97, 39.37007874015748143 ) ;
#283 = CARTESIAN_POINT ( 'NONE',  ( 0.06374000000000018540, 7.805898697765251255E-18, 1.968503999999999809 ) ) ;
#284 = DIRECTION ( 'NONE',  ( 0.000000000000000000, 0.000000000000000000, -1.000000000000000000 ) ) ;
#285 = CONICAL_SURFACE ( 'NONE', #294, 0.03933062999999999837, 0.1745329251994338915 ) ;
#286 =( NAMED_UNIT ( * ) SI_UNIT ( $, .STERADIAN. ) SOLID_ANGLE_UNIT ( ) );
#287 = ADVANCED_FACE ( 'NONE', ( #65 ), #40, .T. ) ;
#288 = DIRECTION ( 'NONE',  ( 1.000000000000000000, 0.000000000000000000, 0.000000000000000000 ) ) ;
#289 = VECTOR ( 'NONE', #102, 39.37007874015748854 ) ;
#290 =( CONVERSION_BASED_UNIT ( 'INCH', #189 ) LENGTH_UNIT ( ) NAMED_UNIT ( #110 ) );
#291 = ORIENTED_EDGE ( 'NONE', *, *, #4, .F. ) ;
#292 = ORIENTED_EDGE ( 'NONE', *, *, #17, .F. ) ;
#293 = EDGE_LOOP ( 'NONE', ( #161, #296, #86, #292 ) ) ;
#294 = AXIS2_PLACEMENT_3D ( 'NONE', #232, #212, #186 ) ;
#295 = ADVANCED_BREP_SHAPE_REPRESENTATION ( 'Micro_AEMM-020-2', ( #164, #247 ), #281 ) ;
#296 = ORIENTED_EDGE ( 'NONE', *, *, #162, .T. ) ;
#297 = CARTESIAN_POINT ( 'NONE',  ( -0.06374000000000018540, 0.000000000000000000, 1.968503999999999809 ) ) ;
#298 = CARTESIAN_POINT ( 'NONE',  ( 5.147822948554610947E-17, 0.000000000000000000, 0.4203516436035863446 ) ) ;
#299 = CARTESIAN_POINT ( 'NONE',  ( 5.147822948554610947E-17, 0.000000000000000000, 0.4203516436035863446 ) ) ;
ENDSEC;
END-ISO-10303-21;
