ISO-10303-21;
HEADER;
FILE_DESCRIPTION (( 'STEP AP214' ),
    '1' );
FILE_NAME ('Micro_EMS-031-4X.STEP',
    '2021-09-01T17:32:53',
    ( '' ),
    ( '' ),
    'SwSTEP 2.0',
    'SolidWorks 2020',
    '' );
FILE_SCHEMA (( 'AUTOMOTIVE_DESIGN' ));
ENDSEC;

DATA;
#1 = DIRECTION ( 'NONE',  ( -1.224646799147353700E-16, -0.0000000000000000000, -1.000000000000000000 ) ) ;
#2 = CARTESIAN_POINT ( 'NONE',  ( -0.06249999999999997918, 0.0000000000000000000, 0.3440715893364554301 ) ) ;
#3 = CIRCLE ( 'NONE', #232, 0.04750000000000064587 ) ;
#4 =( GEOMETRIC_REPRESENTATION_CONTEXT ( 3 ) GLOBAL_UNCERTAINTY_ASSIGNED_CONTEXT ( ( #27 ) ) GLOBAL_UNIT_ASSIGNED_CONTEXT ( ( #97, #121, #68 ) ) REPRESENTATION_CONTEXT ( 'NONE', 'WORKASPACE' ) );
#5 = DIRECTION ( 'NONE',  ( -1.000000000000000000, 0.0000000000000000000, 0.0000000000000000000 ) ) ;
#6 = DIMENSIONAL_EXPONENTS ( 1.000000000000000000, 0.0000000000000000000, 0.0000000000000000000, 0.0000000000000000000, 0.0000000000000000000, 0.0000000000000000000, 0.0000000000000000000 ) ;
#7 = LINE ( 'NONE', #78, #118 ) ;
#8 = ADVANCED_FACE ( 'NONE', ( #21 ), #297, .T. ) ;
#9 = CARTESIAN_POINT ( 'NONE',  ( 9.552245033349369302E-18, 0.0000000000000000000, 0.07800000000000009703 ) ) ;
#10 = CARTESIAN_POINT ( 'NONE',  ( 0.0000000000000000000, 0.0000000000000000000, 0.0000000000000000000 ) ) ;
#11 = CARTESIAN_POINT ( 'NONE',  ( 4.213661705584329151E-17, 0.0000000000000000000, 0.3440715893364554301 ) ) ;
#12 = CIRCLE ( 'NONE', #267, 0.06250000000000002776 ) ;
#13 = PRESENTATION_STYLE_ASSIGNMENT (( #89 ) ) ;
#14 = FILL_AREA_STYLE ('',( #219 ) ) ;
#15 = VERTEX_POINT ( 'NONE', #48 ) ;
#16 = PRODUCT_DEFINITION ( 'UNKNOWN', '', #142, #281 ) ;
#17 = EDGE_CURVE ( 'NONE', #160, #199, #276, .T. ) ;
#18 = SURFACE_STYLE_FILL_AREA ( #14 ) ;
#19 =( GEOMETRIC_REPRESENTATION_CONTEXT ( 3 ) GLOBAL_UNCERTAINTY_ASSIGNED_CONTEXT ( ( #167 ) ) GLOBAL_UNIT_ASSIGNED_CONTEXT ( ( #34, #270, #84 ) ) REPRESENTATION_CONTEXT ( 'NONE', 'WORKASPACE' ) );
#20 = ORIENTED_EDGE ( 'NONE', *, *, #162, .T. ) ;
#21 = FACE_OUTER_BOUND ( 'NONE', #76, .T. ) ;
#22 = ORIENTED_EDGE ( 'NONE', *, *, #49, .T. ) ;
#23 = AXIS2_PLACEMENT_3D ( 'NONE', #251, #210, #45 ) ;
#24 = PRESENTATION_LAYER_ASSIGNMENT (  '', '', ( #88 ) ) ;
#25 = CARTESIAN_POINT ( 'NONE',  ( 9.552245033349369302E-18, 0.0000000000000000000, 0.07800000000000009703 ) ) ;
#26 = DIRECTION ( 'NONE',  ( 1.000000000000000000, 0.0000000000000000000, 0.0000000000000000000 ) ) ;
#27 = UNCERTAINTY_MEASURE_WITH_UNIT (LENGTH_MEASURE( 1.000000000000000082E-05 ), #97, 'distance_accuracy_value', 'NONE');
#28 = DIRECTION ( 'NONE',  ( 1.224646799147353700E-16, 0.0000000000000000000, 1.000000000000000000 ) ) ;
#29 = EDGE_CURVE ( 'NONE', #138, #160, #3, .T. ) ;
#30 = FACE_OUTER_BOUND ( 'NONE', #185, .T. ) ;
#31 = CARTESIAN_POINT ( 'NONE',  ( 0.0000000000000000000, 0.0000000000000000000, 0.0000000000000000000 ) ) ;
#32 = CARTESIAN_POINT ( 'NONE',  ( 0.06250000000000006939, 7.654042494670963708E-18, 0.3440715893364554301 ) ) ;
#33 = ADVANCED_BREP_SHAPE_REPRESENTATION ( 'Micro_EMS-031-4X', ( #226, #42 ), #245 ) ;
#34 =( CONVERSION_BASED_UNIT ( 'INCH', #61 ) LENGTH_UNIT ( ) NAMED_UNIT ( #107 ) );
#35 = CARTESIAN_POINT ( 'NONE',  ( 9.552245033349369302E-18, 0.0000000000000000000, 0.07800000000000009703 ) ) ;
#36 = CIRCLE ( 'NONE', #130, 0.06250000000000002776 ) ;
#37 = VERTEX_POINT ( 'NONE', #2 ) ;
#38 = PRODUCT_DEFINITION_SHAPE ( 'NONE', 'NONE',  #16 ) ;
#39 =( NAMED_UNIT ( * ) PLANE_ANGLE_UNIT ( ) SI_UNIT ( $, .RADIAN. ) );
#40 = ORIENTED_EDGE ( 'NONE', *, *, #17, .F. ) ;
#41 = VERTEX_POINT ( 'NONE', #229 ) ;
#42 = AXIS2_PLACEMENT_3D ( 'NONE', #139, #66, #275 ) ;
#43 = LINE ( 'NONE', #122, #110 ) ;
#44 = EDGE_CURVE ( 'NONE', #15, #299, #154, .T. ) ;
#45 = DIRECTION ( 'NONE',  ( -1.000000000000000000, 0.0000000000000000000, 1.224646799147353700E-16 ) ) ;
#46 = DIRECTION ( 'NONE',  ( 0.0000000000000000000, 0.0000000000000000000, 1.000000000000000000 ) ) ;
#47 = VECTOR ( 'NONE', #170, 39.37007874015748143 ) ;
#48 = CARTESIAN_POINT ( 'NONE',  ( -0.01558439999999999652, 4.781290526167081051E-18, 0.07800000000000009703 ) ) ;
#49 = EDGE_CURVE ( 'NONE', #205, #199, #12, .T. ) ;
#50 = ORIENTED_EDGE ( 'NONE', *, *, #49, .F. ) ;
#51 = EDGE_CURVE ( 'NONE', #138, #205, #43, .T. ) ;
#52 = DIRECTION ( 'NONE',  ( -1.000000000000000000, 0.0000000000000000000, 0.0000000000000000000 ) ) ;
#53 = CIRCLE ( 'NONE', #23, 0.01558440000000001387 ) ;
#54 = COLOUR_RGB ( '',0.7921568627450980005, 0.8196078431372548767, 0.9333333333333333481 ) ;
#55 = CARTESIAN_POINT ( 'NONE',  ( 0.01558440000000001387, 0.0000000000000000000, 0.07800000000000009703 ) ) ;
#56 = DIRECTION ( 'NONE',  ( -1.224646799147353700E-16, -0.0000000000000000000, -1.000000000000000000 ) ) ;
#57 = DIMENSIONAL_EXPONENTS ( 1.000000000000000000, 0.0000000000000000000, 0.0000000000000000000, 0.0000000000000000000, 0.0000000000000000000, 0.0000000000000000000, 0.0000000000000000000 ) ;
#58 = CARTESIAN_POINT ( 'NONE',  ( -0.01558440000000001387, 0.0000000000000000000, 3.817077115326407575E-18 ) ) ;
#59 = DIRECTION ( 'NONE',  ( -1.224646799147353700E-16, -0.0000000000000000000, -1.000000000000000000 ) ) ;
#60 = DIRECTION ( 'NONE',  ( -0.0000000000000000000, -0.0000000000000000000, -1.000000000000000000 ) ) ;
#61 = LENGTH_MEASURE_WITH_UNIT ( LENGTH_MEASURE( 0.02539999999999999897 ), #289 );
#62 = EDGE_CURVE ( 'NONE', #299, #41, #209, .T. ) ;
#63 =( LENGTH_UNIT ( ) NAMED_UNIT ( * ) SI_UNIT ( $, .METRE. ) );
#64 = CIRCLE ( 'NONE', #79, 0.06250000000000002776 ) ;
#65 = ORIENTED_EDGE ( 'NONE', *, *, #44, .T. ) ;
#66 = DIRECTION ( 'NONE',  ( 0.0000000000000000000, 0.0000000000000000000, 1.000000000000000000 ) ) ;
#67 = ORIENTED_EDGE ( 'NONE', *, *, #51, .F. ) ;
#68 =( NAMED_UNIT ( * ) SI_UNIT ( $, .STERADIAN. ) SOLID_ANGLE_UNIT ( ) );
#69 = EDGE_LOOP ( 'NONE', ( #114, #292, #99, #116 ) ) ;
#70 = EDGE_CURVE ( 'NONE', #41, #222, #53, .T. ) ;
#71 = DIRECTION ( 'NONE',  ( -0.7071067811865462405, 0.0000000000000000000, -0.7071067811865486830 ) ) ;
#72 = CARTESIAN_POINT ( 'NONE',  ( 0.0000000000000000000, 0.0000000000000000000, 0.0000000000000000000 ) ) ;
#73 = DIRECTION ( 'NONE',  ( -1.224646799147353700E-16, -0.0000000000000000000, -1.000000000000000000 ) ) ;
#74 = EDGE_CURVE ( 'NONE', #15, #222, #279, .T. ) ;
#75 = CONICAL_SURFACE ( 'NONE', #171, 0.04750000000000064587, 0.7853981633974466137 ) ;
#76 = EDGE_LOOP ( 'NONE', ( #225, #272 ) ) ;
#77 = CYLINDRICAL_SURFACE ( 'NONE', #147, 0.06250000000000002776 ) ;
#78 = CARTESIAN_POINT ( 'NONE',  ( -0.01558439999999999652, 1.908538557663201862E-18, 0.07800000000000009703 ) ) ;
#79 = AXIS2_PLACEMENT_3D ( 'NONE', #202, #85, #153 ) ;
#80 = DIRECTION ( 'NONE',  ( 1.000000000000000000, 0.0000000000000000000, 0.0000000000000000000 ) ) ;
#81 = DIRECTION ( 'NONE',  ( -1.000000000000000000, 0.0000000000000000000, 1.224646799147353700E-16 ) ) ;
#82 = ADVANCED_FACE ( 'NONE', ( #254 ), #144, .F. ) ;
#83 = CARTESIAN_POINT ( 'NONE',  ( -0.04750000000000064587, 0.0000000000000000000, 1.500000000000000222 ) ) ;
#84 =( NAMED_UNIT ( * ) SI_UNIT ( $, .STERADIAN. ) SOLID_ANGLE_UNIT ( ) );
#85 = DIRECTION ( 'NONE',  ( 0.0000000000000000000, 0.0000000000000000000, -1.000000000000000000 ) ) ;
#86 = ORIENTED_EDGE ( 'NONE', *, *, #74, .F. ) ;
#87 = EDGE_CURVE ( 'NONE', #15, #37, #7, .T. ) ;
#88 = STYLED_ITEM ( 'NONE', ( #264 ), #226 ) ;
#89 = SURFACE_STYLE_USAGE ( .BOTH. , #115 ) ;
#90 = DIRECTION ( 'NONE',  ( -1.000000000000000000, 0.0000000000000000000, 0.0000000000000000000 ) ) ;
#91 = ORIENTED_EDGE ( 'NONE', *, *, #70, .T. ) ;
#92 = CARTESIAN_POINT ( 'NONE',  ( 0.0000000000000000000, 0.0000000000000000000, 1.500000000000000222 ) ) ;
#93 = EDGE_LOOP ( 'NONE', ( #67, #290, #204, #50 ) ) ;
#94 = CIRCLE ( 'NONE', #259, 0.01558440000000001387 ) ;
#95 = ADVANCED_FACE ( 'NONE', ( #101 ), #228, .T. ) ;
#96 = ORIENTED_EDGE ( 'NONE', *, *, #137, .F. ) ;
#97 =( CONVERSION_BASED_UNIT ( 'INCH', #182 ) LENGTH_UNIT ( ) NAMED_UNIT ( #57 ) );
#98 = CARTESIAN_POINT ( 'NONE',  ( 0.0000000000000000000, 0.0000000000000000000, 1.485000000000000764 ) ) ;
#99 = ORIENTED_EDGE ( 'NONE', *, *, #74, .T. ) ;
#100 = LINE ( 'NONE', #129, #216 ) ;
#101 = FACE_OUTER_BOUND ( 'NONE', #220, .T. ) ;
#102 = DIRECTION ( 'NONE',  ( 1.000000000000000000, 0.0000000000000000000, 0.0000000000000000000 ) ) ;
#103 = CIRCLE ( 'NONE', #293, 0.01558440000000000519 ) ;
#104 = AXIS2_PLACEMENT_3D ( 'NONE', #298, #46, #165 ) ;
#105 = AXIS2_PLACEMENT_3D ( 'NONE', #198, #132, #157 ) ;
#106 = DIRECTION ( 'NONE',  ( -1.000000000000000000, 0.0000000000000000000, 0.0000000000000000000 ) ) ;
#107 = DIMENSIONAL_EXPONENTS ( 1.000000000000000000, 0.0000000000000000000, 0.0000000000000000000, 0.0000000000000000000, 0.0000000000000000000, 0.0000000000000000000, 0.0000000000000000000 ) ;
#108 = DIRECTION ( 'NONE',  ( -1.000000000000000000, 0.0000000000000000000, 1.224646799147353700E-16 ) ) ;
#109 = FACE_OUTER_BOUND ( 'NONE', #221, .T. ) ;
#110 = VECTOR ( 'NONE', #230, 39.37007874015748854 ) ;
#111 = CONICAL_SURFACE ( 'NONE', #274, 0.01558440000000000519, 0.1745329251994338360 ) ;
#112 = ADVANCED_FACE ( 'NONE', ( #282 ), #125, .T. ) ;
#113 = LENGTH_MEASURE_WITH_UNIT ( LENGTH_MEASURE( 0.02539999999999999897 ), #242 );
#114 = ORIENTED_EDGE ( 'NONE', *, *, #62, .F. ) ;
#115 = SURFACE_SIDE_STYLE ('',( #18 ) ) ;
#116 = ORIENTED_EDGE ( 'NONE', *, *, #70, .F. ) ;
#117 = ORIENTED_EDGE ( 'NONE', *, *, #29, .F. ) ;
#118 = VECTOR ( 'NONE', #231, 39.37007874015747433 ) ;
#119 = CARTESIAN_POINT ( 'NONE',  ( -0.04750000000000064587, 0.0000000000000000000, 1.500000000000000222 ) ) ;
#120 = STYLED_ITEM ( 'NONE', ( #13 ), #33 ) ;
#121 =( NAMED_UNIT ( * ) PLANE_ANGLE_UNIT ( ) SI_UNIT ( $, .RADIAN. ) );
#122 = CARTESIAN_POINT ( 'NONE',  ( 0.04750000000000064587, 5.817072295950006528E-18, 1.500000000000000222 ) ) ;
#123 = ADVANCED_FACE ( 'NONE', ( #212 ), #239, .T. ) ;
#124 = ORIENTED_EDGE ( 'NONE', *, *, #255, .F. ) ;
#125 = CYLINDRICAL_SURFACE ( 'NONE', #200, 0.01558440000000000866 ) ;
#126 = AXIS2_PLACEMENT_3D ( 'NONE', #25, #227, #183 ) ;
#127 = CARTESIAN_POINT ( 'NONE',  ( 0.06250000000000002776, 7.654042494670959086E-18, 1.485000000000000764 ) ) ;
#128 = DIRECTION ( 'NONE',  ( 0.0000000000000000000, 0.0000000000000000000, -1.000000000000000000 ) ) ;
#129 = CARTESIAN_POINT ( 'NONE',  ( -0.06250000000000002776, 0.0000000000000000000, 1.500000000000000222 ) ) ;
#130 = AXIS2_PLACEMENT_3D ( 'NONE', #146, #176, #102 ) ;
#131 = CARTESIAN_POINT ( 'NONE',  ( 0.0000000000000000000, 0.0000000000000000000, 1.500000000000000222 ) ) ;
#132 = DIRECTION ( 'NONE',  ( 0.0000000000000000000, 0.0000000000000000000, 1.000000000000000000 ) ) ;
#133 = VERTEX_POINT ( 'NONE', #32 ) ;
#134 = APPLICATION_PROTOCOL_DEFINITION ( 'draft international standard', 'automotive_design', 1998, #223 ) ;
#135 = ORIENTED_EDGE ( 'NONE', *, *, #250, .F. ) ;
#136 = ORIENTED_EDGE ( 'NONE', *, *, #148, .T. ) ;
#137 = EDGE_CURVE ( 'NONE', #37, #133, #184, .T. ) ;
#138 = VERTEX_POINT ( 'NONE', #263 ) ;
#139 = CARTESIAN_POINT ( 'NONE',  ( 0.0000000000000000000, 0.0000000000000000000, 0.0000000000000000000 ) ) ;
#140 = ORIENTED_EDGE ( 'NONE', *, *, #162, .F. ) ;
#141 = PRODUCT_CONTEXT ( 'NONE', #223, 'mechanical' ) ;
#142 = PRODUCT_DEFINITION_FORMATION_WITH_SPECIFIED_SOURCE ( 'ANY', '', #278, .NOT_KNOWN. ) ;
#143 = ORIENTED_EDGE ( 'NONE', *, *, #62, .T. ) ;
#144 = PLANE ( 'NONE',  #244 ) ;
#145 = ORIENTED_EDGE ( 'NONE', *, *, #158, .T. ) ;
#146 = CARTESIAN_POINT ( 'NONE',  ( 4.213661705584329151E-17, 0.0000000000000000000, 0.3440715893364554301 ) ) ;
#147 = AXIS2_PLACEMENT_3D ( 'NONE', #266, #246, #90 ) ;
#148 = EDGE_CURVE ( 'NONE', #222, #41, #94, .T. ) ;
#149 = DIRECTION ( 'NONE',  ( 1.000000000000000000, 0.0000000000000000000, 0.0000000000000000000 ) ) ;
#150 = CYLINDRICAL_SURFACE ( 'NONE', #164, 0.01558440000000000866 ) ;
#151 = SURFACE_STYLE_FILL_AREA ( #236 ) ;
#152 = DIRECTION ( 'NONE',  ( 1.224646799147353700E-16, 0.0000000000000000000, 1.000000000000000000 ) ) ;
#153 = DIRECTION ( 'NONE',  ( 1.000000000000000000, 0.0000000000000000000, 0.0000000000000000000 ) ) ;
#154 = CIRCLE ( 'NONE', #126, 0.01558440000000000519 ) ;
#155 = AXIS2_PLACEMENT_3D ( 'NONE', #214, #168, #52 ) ;
#156 = ORIENTED_EDGE ( 'NONE', *, *, #137, .T. ) ;
#157 = DIRECTION ( 'NONE',  ( 1.000000000000000000, 0.0000000000000000000, 0.0000000000000000000 ) ) ;
#158 = EDGE_CURVE ( 'NONE', #133, #37, #36, .T. ) ;
#159 = PRESENTATION_LAYER_ASSIGNMENT (  '', '', ( #120 ) ) ;
#160 = VERTEX_POINT ( 'NONE', #83 ) ;
#161 = CARTESIAN_POINT ( 'NONE',  ( 0.01558440000000000866, 1.908538557663202247E-18, -1.908538557663203017E-18 ) ) ;
#162 = EDGE_CURVE ( 'NONE', #299, #133, #192, .T. ) ;
#163 = EDGE_LOOP ( 'NONE', ( #136, #91 ) ) ;
#164 = AXIS2_PLACEMENT_3D ( 'NONE', #31, #56, #81 ) ;
#165 = DIRECTION ( 'NONE',  ( 1.000000000000000000, 0.0000000000000000000, -0.0000000000000000000 ) ) ;
#166 = ORIENTED_EDGE ( 'NONE', *, *, #255, .T. ) ;
#167 = UNCERTAINTY_MEASURE_WITH_UNIT (LENGTH_MEASURE( 1.000000000000000082E-05 ), #34, 'distance_accuracy_value', 'NONE');
#168 = DIRECTION ( 'NONE',  ( -0.0000000000000000000, -0.0000000000000000000, -1.000000000000000000 ) ) ;
#169 = EDGE_CURVE ( 'NONE', #199, #37, #100, .T. ) ;
#170 = DIRECTION ( 'NONE',  ( 0.1736481776669313304, 0.0000000000000000000, 0.9848077530122077983 ) ) ;
#171 = AXIS2_PLACEMENT_3D ( 'NONE', #193, #194, #173 ) ;
#172 = EDGE_CURVE ( 'NONE', #299, #15, #103, .T. ) ;
#173 = DIRECTION ( 'NONE',  ( -1.000000000000000000, 0.0000000000000000000, 0.0000000000000000000 ) ) ;
#174 = SURFACE_SIDE_STYLE ('',( #151 ) ) ;
#175 = ADVANCED_FACE ( 'NONE', ( #234 ), #261, .T. ) ;
#176 = DIRECTION ( 'NONE',  ( -1.224646799147353700E-16, -0.0000000000000000000, -1.000000000000000000 ) ) ;
#177 = VECTOR ( 'NONE', #60, 39.37007874015748143 ) ;
#178 = APPLICATION_CONTEXT ( 'automotive_design' ) ;
#179 = ORIENTED_EDGE ( 'NONE', *, *, #51, .T. ) ;
#180 = DIRECTION ( 'NONE',  ( 1.000000000000000000, 0.0000000000000000000, 0.0000000000000000000 ) ) ;
#181 = LINE ( 'NONE', #197, #177 ) ;
#182 = LENGTH_MEASURE_WITH_UNIT ( LENGTH_MEASURE( 0.02539999999999999897 ), #63 );
#183 = DIRECTION ( 'NONE',  ( -1.000000000000000000, 0.0000000000000000000, 0.0000000000000000000 ) ) ;
#184 = CIRCLE ( 'NONE', #285, 0.06250000000000002776 ) ;
#185 = EDGE_LOOP ( 'NONE', ( #117, #179, #124, #40 ) ) ;
#186 = DIRECTION ( 'NONE',  ( 1.000000000000000000, 0.0000000000000000000, 0.0000000000000000000 ) ) ;
#187 = EDGE_LOOP ( 'NONE', ( #252, #296, #20, #145 ) ) ;
#188 = AXIS2_PLACEMENT_3D ( 'NONE', #9, #28, #149 ) ;
#189 = ORIENTED_EDGE ( 'NONE', *, *, #169, .T. ) ;
#190 = FACE_OUTER_BOUND ( 'NONE', #69, .T. ) ;
#191 = UNCERTAINTY_MEASURE_WITH_UNIT (LENGTH_MEASURE( 1.000000000000000082E-05 ), #295, 'distance_accuracy_value', 'NONE');
#192 = LINE ( 'NONE', #55, #47 ) ;
#193 = CARTESIAN_POINT ( 'NONE',  ( 0.0000000000000000000, 0.0000000000000000000, 1.500000000000000222 ) ) ;
#194 = DIRECTION ( 'NONE',  ( 0.0000000000000000000, 0.0000000000000000000, -1.000000000000000000 ) ) ;
#195 = CARTESIAN_POINT ( 'NONE',  ( -0.06250000000000002776, 0.0000000000000000000, 1.485000000000000764 ) ) ;
#196 = ADVANCED_FACE ( 'NONE', ( #30 ), #75, .T. ) ;
#197 = CARTESIAN_POINT ( 'NONE',  ( 0.06250000000000002776, 7.654042494670959086E-18, 1.500000000000000222 ) ) ;
#198 = CARTESIAN_POINT ( 'NONE',  ( 0.0000000000000000000, 0.0000000000000000000, 1.500000000000000222 ) ) ;
#199 = VERTEX_POINT ( 'NONE', #195 ) ;
#200 = AXIS2_PLACEMENT_3D ( 'NONE', #10, #59, #286 ) ;
#201 = ADVANCED_FACE ( 'NONE', ( #190 ), #150, .T. ) ;
#202 = CARTESIAN_POINT ( 'NONE',  ( 0.0000000000000000000, 0.0000000000000000000, 1.485000000000000764 ) ) ;
#203 = ORIENTED_EDGE ( 'NONE', *, *, #250, .T. ) ;
#204 = ORIENTED_EDGE ( 'NONE', *, *, #17, .T. ) ;
#205 = VERTEX_POINT ( 'NONE', #127 ) ;
#206 = VECTOR ( 'NONE', #73, 39.37007874015748143 ) ;
#207 = COLOUR_RGB ( '',0.7921568627450980005, 0.8196078431372548767, 0.9333333333333333481 ) ;
#208 = SHAPE_DEFINITION_REPRESENTATION ( #38, #33 ) ;
#209 = LINE ( 'NONE', #161, #273 ) ;
#210 = DIRECTION ( 'NONE',  ( -1.224646799147353700E-16, -0.0000000000000000000, -1.000000000000000000 ) ) ;
#211 = ORIENTED_EDGE ( 'NONE', *, *, #158, .F. ) ;
#212 = FACE_OUTER_BOUND ( 'NONE', #93, .T. ) ;
#213 = FILL_AREA_STYLE_COLOUR ( '', #207 ) ;
#214 = CARTESIAN_POINT ( 'NONE',  ( 0.0000000000000000000, 0.0000000000000000000, 1.500000000000000222 ) ) ;
#215 = DIRECTION ( 'NONE',  ( -0.0000000000000000000, -0.0000000000000000000, -1.000000000000000000 ) ) ;
#216 = VECTOR ( 'NONE', #215, 39.37007874015748143 ) ;
#217 = CARTESIAN_POINT ( 'NONE',  ( 2.337285635691549169E-34, 0.0000000000000000000, 1.908538557663203788E-18 ) ) ;
#218 = FACE_OUTER_BOUND ( 'NONE', #187, .T. ) ;
#219 = FILL_AREA_STYLE_COLOUR ( '', #54 ) ;
#220 = EDGE_LOOP ( 'NONE', ( #256, #269, #156, #140 ) ) ;
#221 = EDGE_LOOP ( 'NONE', ( #135, #22, #189, #211 ) ) ;
#222 = VERTEX_POINT ( 'NONE', #58 ) ;
#223 = APPLICATION_CONTEXT ( 'automotive_design' ) ;
#224 = CIRCLE ( 'NONE', #105, 0.04750000000000064587 ) ;
#225 = ORIENTED_EDGE ( 'NONE', *, *, #294, .T. ) ;
#226 = MANIFOLD_SOLID_BREP ( 'Cut-Revolve1', #284 ) ;
#227 = DIRECTION ( 'NONE',  ( -1.224646799147353700E-16, -0.0000000000000000000, -1.000000000000000000 ) ) ;
#228 = CONICAL_SURFACE ( 'NONE', #188, 0.01558440000000000519, 0.1745329251994338360 ) ;
#229 = CARTESIAN_POINT ( 'NONE',  ( 0.01558440000000001560, 1.908538557663202632E-18, 0.0000000000000000000 ) ) ;
#230 = DIRECTION ( 'NONE',  ( 0.7071067811865462405, 8.659560562354916834E-17, -0.7071067811865486830 ) ) ;
#231 = DIRECTION ( 'NONE',  ( -0.1736481776669311639, 2.126576849575782392E-17, 0.9848077530122080203 ) ) ;
#232 = AXIS2_PLACEMENT_3D ( 'NONE', #92, #280, #186 ) ;
#233 = MECHANICAL_DESIGN_GEOMETRIC_PRESENTATION_REPRESENTATION (  '', ( #88 ), #19 ) ;
#234 = FACE_OUTER_BOUND ( 'NONE', #247, .T. ) ;
#235 = CARTESIAN_POINT ( 'NONE',  ( 9.552245033349369302E-18, 0.0000000000000000000, 0.07800000000000009703 ) ) ;
#236 = FILL_AREA_STYLE ('',( #213 ) ) ;
#237 = VECTOR ( 'NONE', #71, 39.37007874015748854 ) ;
#238 = SURFACE_STYLE_USAGE ( .BOTH. , #174 ) ;
#239 = CONICAL_SURFACE ( 'NONE', #253, 0.04750000000000064587, 0.7853981633974466137 ) ;
#240 = ADVANCED_FACE ( 'NONE', ( #109 ), #77, .T. ) ;
#241 =( NAMED_UNIT ( * ) SI_UNIT ( $, .STERADIAN. ) SOLID_ANGLE_UNIT ( ) );
#242 =( LENGTH_UNIT ( ) NAMED_UNIT ( * ) SI_UNIT ( $, .METRE. ) );
#243 = EDGE_LOOP ( 'NONE', ( #65, #143, #268, #86 ) ) ;
#244 = AXIS2_PLACEMENT_3D ( 'NONE', #72, #283, #287 ) ;
#245 =( GEOMETRIC_REPRESENTATION_CONTEXT ( 3 ) GLOBAL_UNCERTAINTY_ASSIGNED_CONTEXT ( ( #191 ) ) GLOBAL_UNIT_ASSIGNED_CONTEXT ( ( #295, #39, #241 ) ) REPRESENTATION_CONTEXT ( 'NONE', 'WORKASPACE' ) );
#246 = DIRECTION ( 'NONE',  ( -0.0000000000000000000, -0.0000000000000000000, -1.000000000000000000 ) ) ;
#247 = EDGE_LOOP ( 'NONE', ( #166, #203, #96, #271 ) ) ;
#248 = APPLICATION_PROTOCOL_DEFINITION ( 'draft international standard', 'automotive_design', 1998, #178 ) ;
#249 = DIRECTION ( 'NONE',  ( 0.0000000000000000000, 0.0000000000000000000, -1.000000000000000000 ) ) ;
#250 = EDGE_CURVE ( 'NONE', #205, #133, #181, .T. ) ;
#251 = CARTESIAN_POINT ( 'NONE',  ( 2.337285635691549169E-34, 0.0000000000000000000, 1.908538557663203788E-18 ) ) ;
#252 = ORIENTED_EDGE ( 'NONE', *, *, #87, .F. ) ;
#253 = AXIS2_PLACEMENT_3D ( 'NONE', #131, #128, #5 ) ;
#254 = FACE_OUTER_BOUND ( 'NONE', #163, .T. ) ;
#255 = EDGE_CURVE ( 'NONE', #199, #205, #64, .T. ) ;
#256 = ORIENTED_EDGE ( 'NONE', *, *, #44, .F. ) ;
#257 = ADVANCED_FACE ( 'NONE', ( #218 ), #111, .T. ) ;
#258 = DIRECTION ( 'NONE',  ( -1.224646799147353700E-16, -0.0000000000000000000, -1.000000000000000000 ) ) ;
#259 = AXIS2_PLACEMENT_3D ( 'NONE', #217, #258, #108 ) ;
#260 = DIRECTION ( 'NONE',  ( -1.224646799147353700E-16, -0.0000000000000000000, -1.000000000000000000 ) ) ;
#261 = CYLINDRICAL_SURFACE ( 'NONE', #155, 0.06250000000000002776 ) ;
#262 = PRODUCT_RELATED_PRODUCT_CATEGORY ( 'part', '', ( #278 ) ) ;
#263 = CARTESIAN_POINT ( 'NONE',  ( 0.04750000000000064587, 6.735557395310483192E-18, 1.500000000000000222 ) ) ;
#264 = PRESENTATION_STYLE_ASSIGNMENT (( #238 ) ) ;
#265 = MECHANICAL_DESIGN_GEOMETRIC_PRESENTATION_REPRESENTATION (  '', ( #120 ), #4 ) ;
#266 = CARTESIAN_POINT ( 'NONE',  ( 0.0000000000000000000, 0.0000000000000000000, 1.500000000000000222 ) ) ;
#267 = AXIS2_PLACEMENT_3D ( 'NONE', #98, #249, #26 ) ;
#268 = ORIENTED_EDGE ( 'NONE', *, *, #148, .F. ) ;
#269 = ORIENTED_EDGE ( 'NONE', *, *, #87, .T. ) ;
#270 =( NAMED_UNIT ( * ) PLANE_ANGLE_UNIT ( ) SI_UNIT ( $, .RADIAN. ) );
#271 = ORIENTED_EDGE ( 'NONE', *, *, #169, .F. ) ;
#272 = ORIENTED_EDGE ( 'NONE', *, *, #29, .T. ) ;
#273 = VECTOR ( 'NONE', #1, 39.37007874015748143 ) ;
#274 = AXIS2_PLACEMENT_3D ( 'NONE', #35, #152, #180 ) ;
#275 = DIRECTION ( 'NONE',  ( 1.000000000000000000, 0.0000000000000000000, 0.0000000000000000000 ) ) ;
#276 = LINE ( 'NONE', #119, #237 ) ;
#277 = CARTESIAN_POINT ( 'NONE',  ( -0.01558440000000000866, 0.0000000000000000000, 1.908538557663203017E-18 ) ) ;
#278 = PRODUCT ( 'Micro_EMS-031-4X', 'Micro_EMS-031-4X', '', ( #141 ) ) ;
#279 = LINE ( 'NONE', #277, #206 ) ;
#280 = DIRECTION ( 'NONE',  ( 0.0000000000000000000, 0.0000000000000000000, 1.000000000000000000 ) ) ;
#281 = PRODUCT_DEFINITION_CONTEXT ( 'detailed design', #178, 'design' ) ;
#282 = FACE_OUTER_BOUND ( 'NONE', #243, .T. ) ;
#283 = DIRECTION ( 'NONE',  ( 0.0000000000000000000, 0.0000000000000000000, 1.000000000000000000 ) ) ;
#284 = CLOSED_SHELL ( 'NONE', ( #112, #95, #196, #175, #240, #8, #123, #257, #201, #82 ) ) ;
#285 = AXIS2_PLACEMENT_3D ( 'NONE', #11, #288, #80 ) ;
#286 = DIRECTION ( 'NONE',  ( -1.000000000000000000, 0.0000000000000000000, 1.224646799147353700E-16 ) ) ;
#287 = DIRECTION ( 'NONE',  ( 1.000000000000000000, 0.0000000000000000000, -0.0000000000000000000 ) ) ;
#288 = DIRECTION ( 'NONE',  ( -1.224646799147353700E-16, -0.0000000000000000000, -1.000000000000000000 ) ) ;
#289 =( LENGTH_UNIT ( ) NAMED_UNIT ( * ) SI_UNIT ( $, .METRE. ) );
#290 = ORIENTED_EDGE ( 'NONE', *, *, #294, .F. ) ;
#291 = CARTESIAN_POINT ( 'NONE',  ( 0.01558440000000001387, 0.0000000000000000000, 0.07800000000000009703 ) ) ;
#292 = ORIENTED_EDGE ( 'NONE', *, *, #172, .T. ) ;
#293 = AXIS2_PLACEMENT_3D ( 'NONE', #235, #260, #106 ) ;
#294 = EDGE_CURVE ( 'NONE', #160, #138, #224, .T. ) ;
#295 =( CONVERSION_BASED_UNIT ( 'INCH', #113 ) LENGTH_UNIT ( ) NAMED_UNIT ( #6 ) );
#296 = ORIENTED_EDGE ( 'NONE', *, *, #172, .F. ) ;
#297 = PLANE ( 'NONE',  #104 ) ;
#298 = CARTESIAN_POINT ( 'NONE',  ( 0.0000000000000000000, 0.0000000000000000000, 1.500000000000000222 ) ) ;
#299 = VERTEX_POINT ( 'NONE', #291 ) ;
ENDSEC;
END-ISO-10303-21;
