ISO-10303-21;
HEADER;
FILE_DESCRIPTION (( 'STEP AP214' ),
    '1' );
FILE_NAME ('Micro_AEMM-100-4X.STEP',
    '2022-03-15T14:30:36',
    ( '' ),
    ( '' ),
    'SwSTEP 2.0',
    'SolidWorks 2022',
    '' );
FILE_SCHEMA (( 'AUTOMOTIVE_DESIGN' ));
ENDSEC;

DATA;
#1 = CARTESIAN_POINT ( 'NONE',  ( 0.000000000000000000, 0.000000000000000000, 0.000000000000000000 ) ) ;
#2 = MECHANICAL_DESIGN_GEOMETRIC_PRESENTATION_REPRESENTATION (  '', ( #210 ), #269 ) ;
#3 = ORIENTED_EDGE ( 'NONE', *, *, #21, .T. ) ;
#4 = ORIENTED_EDGE ( 'NONE', *, *, #88, .F. ) ;
#5 =( CONVERSION_BASED_UNIT ( 'INCH', #96 ) LENGTH_UNIT ( ) NAMED_UNIT ( #63 ) );
#6 = DIRECTION ( 'NONE',  ( 0.7071067811865354713, 8.659560562354783714E-17, -0.7071067811865594521 ) ) ;
#7 = VECTOR ( 'NONE', #188, 39.37007874015748143 ) ;
#8 = CARTESIAN_POINT ( 'NONE',  ( 0.000000000000000000, 0.000000000000000000, 2.819646000000000097 ) ) ;
#9 = LINE ( 'NONE', #236, #220 ) ;
#10 = CARTESIAN_POINT ( 'NONE',  ( -0.1818505000000002481, 0.000000000000000000, 2.834646000000000665 ) ) ;
#11 = EDGE_LOOP ( 'NONE', ( #224, #231, #272, #4 ) ) ;
#12 = LINE ( 'NONE', #257, #228 ) ;
#13 = MECHANICAL_DESIGN_GEOMETRIC_PRESENTATION_REPRESENTATION (  '', ( #137 ), #64 ) ;
#14 = CARTESIAN_POINT ( 'NONE',  ( 0.000000000000000000, 0.000000000000000000, 0.000000000000000000 ) ) ;
#15 = PRESENTATION_STYLE_ASSIGNMENT (( #39 ) ) ;
#16 =( LENGTH_UNIT ( ) NAMED_UNIT ( * ) SI_UNIT ( $, .METRE. ) );
#17 = CIRCLE ( 'NONE', #24, 0.1818505000000002481 ) ;
#18 = ORIENTED_EDGE ( 'NONE', *, *, #160, .F. ) ;
#19 =( LENGTH_UNIT ( ) NAMED_UNIT ( * ) SI_UNIT ( $, .METRE. ) );
#20 = ORIENTED_EDGE ( 'NONE', *, *, #225, .F. ) ;
#21 = EDGE_CURVE ( 'NONE', #258, #116, #248, .T. ) ;
#22 = ORIENTED_EDGE ( 'NONE', *, *, #38, .T. ) ;
#23 = ORIENTED_EDGE ( 'NONE', *, *, #135, .F. ) ;
#24 = AXIS2_PLACEMENT_3D ( 'NONE', #37, #103, #216 ) ;
#25 = ORIENTED_EDGE ( 'NONE', *, *, #43, .T. ) ;
#26 = PRESENTATION_STYLE_ASSIGNMENT (( #78 ) ) ;
#27 = DIRECTION ( 'NONE',  ( -1.224646799147353207E-16, -0.000000000000000000, -1.000000000000000000 ) ) ;
#28 = EDGE_LOOP ( 'NONE', ( #41, #198, #113, #271 ) ) ;
#29 = DIRECTION ( 'NONE',  ( -0.1736481776669311639, 2.126576849575782392E-17, 0.9848077530122080203 ) ) ;
#30 = CIRCLE ( 'NONE', #197, 0.1966536494999999996 ) ;
#31 = DIRECTION ( 'NONE',  ( -1.000000000000000000, 0.000000000000000000, 1.224646799147353207E-16 ) ) ;
#32 = CARTESIAN_POINT ( 'NONE',  ( -0.1968504999999999838, 0.000000000000000000, 2.834646000000000665 ) ) ;
#33 = EDGE_CURVE ( 'NONE', #229, #251, #179, .T. ) ;
#34 = CARTESIAN_POINT ( 'NONE',  ( 2.949332346337811403E-33, 0.000000000000000000, 2.408312624008205170E-17 ) ) ;
#35 = CARTESIAN_POINT ( 'NONE',  ( 0.1966536494999999996, 2.408312624008205170E-17, -2.408312624008205170E-17 ) ) ;
#36 = CYLINDRICAL_SURFACE ( 'NONE', #273, 0.1968504999999999838 ) ;
#37 = CARTESIAN_POINT ( 'NONE',  ( 0.000000000000000000, 0.000000000000000000, 2.834646000000000665 ) ) ;
#38 = EDGE_CURVE ( 'NONE', #116, #230, #209, .T. ) ;
#39 = SURFACE_STYLE_USAGE ( .BOTH. , #129 ) ;
#40 = LINE ( 'NONE', #199, #193 ) ;
#41 = ORIENTED_EDGE ( 'NONE', *, *, #38, .F. ) ;
#42 = ORIENTED_EDGE ( 'NONE', *, *, #109, .T. ) ;
#43 = EDGE_CURVE ( 'NONE', #230, #45, #161, .T. ) ;
#44 = CIRCLE ( 'NONE', #119, 0.1966536494999999996 ) ;
#45 = VERTEX_POINT ( 'NONE', #237 ) ;
#46 = ORIENTED_EDGE ( 'NONE', *, *, #109, .F. ) ;
#47 = DIRECTION ( 'NONE',  ( 0.000000000000000000, 0.000000000000000000, 1.000000000000000000 ) ) ;
#48 = DIRECTION ( 'NONE',  ( 1.000000000000000000, 0.000000000000000000, 0.000000000000000000 ) ) ;
#49 = CLOSED_SHELL ( 'NONE', ( #267, #84, #235, #77, #89, #293, #277, #222, #158, #195 ) ) ;
#50 = MANIFOLD_SOLID_BREP ( 'Cut-Revolve1', #49 ) ;
#51 = ORIENTED_EDGE ( 'NONE', *, *, #33, .F. ) ;
#52 = DIRECTION ( 'NONE',  ( -1.000000000000000000, 0.000000000000000000, 0.000000000000000000 ) ) ;
#53 = DIRECTION ( 'NONE',  ( 1.000000000000000000, 0.000000000000000000, 0.000000000000000000 ) ) ;
#54 = CARTESIAN_POINT ( 'NONE',  ( 0.1968504999999999838, 2.410723347355560646E-17, 2.819646000000000097 ) ) ;
#55 =( NAMED_UNIT ( * ) SI_UNIT ( $, .STERADIAN. ) SOLID_ANGLE_UNIT ( ) );
#56 = UNCERTAINTY_MEASURE_WITH_UNIT (LENGTH_MEASURE( 1.000000000000000082E-05 ), #266, 'distance_accuracy_value', 'NONE');
#57 = DIRECTION ( 'NONE',  ( -1.224646799147353207E-16, -0.000000000000000000, -1.000000000000000000 ) ) ;
#58 = FILL_AREA_STYLE_COLOUR ( '', #128 ) ;
#59 = CARTESIAN_POINT ( 'NONE',  ( 1.205361061354380629E-16, 0.000000000000000000, 0.9842519999999999047 ) ) ;
#60 = CARTESIAN_POINT ( 'NONE',  ( 0.1966536494999999996, 2.408312624008205170E-17, 0.000000000000000000 ) ) ;
#61 = UNCERTAINTY_MEASURE_WITH_UNIT (LENGTH_MEASURE( 1.000000000000000082E-05 ), #5, 'distance_accuracy_value', 'NONE');
#62 = DIRECTION ( 'NONE',  ( -1.224646799147353207E-16, -0.000000000000000000, -1.000000000000000000 ) ) ;
#63 = DIMENSIONAL_EXPONENTS ( 1.000000000000000000, 0.000000000000000000, 0.000000000000000000, 0.000000000000000000, 0.000000000000000000, 0.000000000000000000, 0.000000000000000000 ) ;
#64 =( GEOMETRIC_REPRESENTATION_CONTEXT ( 3 ) GLOBAL_UNCERTAINTY_ASSIGNED_CONTEXT ( ( #61 ) ) GLOBAL_UNIT_ASSIGNED_CONTEXT ( ( #5, #75, #55 ) ) REPRESENTATION_CONTEXT ( 'NONE', 'WORKASPACE' ) );
#65 = APPLICATION_CONTEXT ( 'automotive_design' ) ;
#66 = FACE_OUTER_BOUND ( 'NONE', #182, .T. ) ;
#67 =( NAMED_UNIT ( * ) PLANE_ANGLE_UNIT ( ) SI_UNIT ( $, .RADIAN. ) );
#68 = EDGE_CURVE ( 'NONE', #92, #140, #260, .T. ) ;
#69 = CARTESIAN_POINT ( 'NONE',  ( 0.000000000000000000, 0.000000000000000000, 2.834646000000000665 ) ) ;
#70 = CIRCLE ( 'NONE', #94, 0.1818505000000002481 ) ;
#71 = EDGE_LOOP ( 'NONE', ( #299, #156, #46, #20 ) ) ;
#72 = CIRCLE ( 'NONE', #144, 0.1968504999999999838 ) ;
#73 = EDGE_LOOP ( 'NONE', ( #3, #22, #295, #23 ) ) ;
#74 = EDGE_LOOP ( 'NONE', ( #190, #108, #111, #18 ) ) ;
#75 =( NAMED_UNIT ( * ) PLANE_ANGLE_UNIT ( ) SI_UNIT ( $, .RADIAN. ) );
#76 = CARTESIAN_POINT ( 'NONE',  ( 0.000000000000000000, 0.000000000000000000, 0.000000000000000000 ) ) ;
#77 = ADVANCED_FACE ( 'NONE', ( #256 ), #234, .T. ) ;
#78 = SURFACE_STYLE_USAGE ( .BOTH. , #281 ) ;
#79 = CARTESIAN_POINT ( 'NONE',  ( -0.1968504999999999838, 0.000000000000000000, 2.819646000000000097 ) ) ;
#80 = CARTESIAN_POINT ( 'NONE',  ( 0.000000000000000000, 0.000000000000000000, 2.819646000000000097 ) ) ;
#81 = FACE_OUTER_BOUND ( 'NONE', #275, .T. ) ;
#82 = AXIS2_PLACEMENT_3D ( 'NONE', #1, #47, #181 ) ;
#83 = DIRECTION ( 'NONE',  ( -1.000000000000000000, 0.000000000000000000, 0.000000000000000000 ) ) ;
#84 = ADVANCED_FACE ( 'NONE', ( #118 ), #154, .T. ) ;
#85 = DIRECTION ( 'NONE',  ( -1.000000000000000000, 0.000000000000000000, 1.224646799147353207E-16 ) ) ;
#86 = DIRECTION ( 'NONE',  ( -1.224646799147353207E-16, -0.000000000000000000, -1.000000000000000000 ) ) ;
#87 = LENGTH_MEASURE_WITH_UNIT ( LENGTH_MEASURE( 0.02539999999999999897 ), #16 );
#88 = EDGE_CURVE ( 'NONE', #116, #258, #208, .T. ) ;
#89 = ADVANCED_FACE ( 'NONE', ( #242 ), #36, .T. ) ;
#90 = PRODUCT_DEFINITION ( 'UNKNOWN', '', #170, #106 ) ;
#91 = ORIENTED_EDGE ( 'NONE', *, *, #252, .F. ) ;
#92 = VERTEX_POINT ( 'NONE', #60 ) ;
#93 = APPLICATION_PROTOCOL_DEFINITION ( 'draft international standard', 'automotive_design', 1998, #298 ) ;
#94 = AXIS2_PLACEMENT_3D ( 'NONE', #142, #233, #124 ) ;
#95 = DIRECTION ( 'NONE',  ( -1.224646799147353207E-16, -0.000000000000000000, -1.000000000000000000 ) ) ;
#96 = LENGTH_MEASURE_WITH_UNIT ( LENGTH_MEASURE( 0.02539999999999999897 ), #232 );
#97 = AXIS2_PLACEMENT_3D ( 'NONE', #8, #138, #101 ) ;
#98 = COLOUR_RGB ( '',0.7921568627450980005, 0.8196078431372548767, 0.9333333333333333481 ) ;
#99 = DIRECTION ( 'NONE',  ( 1.000000000000000000, 0.000000000000000000, -0.000000000000000000 ) ) ;
#100 = EDGE_CURVE ( 'NONE', #251, #229, #44, .T. ) ;
#101 = DIRECTION ( 'NONE',  ( 1.000000000000000000, 0.000000000000000000, 0.000000000000000000 ) ) ;
#102 = CARTESIAN_POINT ( 'NONE',  ( 0.000000000000000000, 0.000000000000000000, 2.834646000000000665 ) ) ;
#103 = DIRECTION ( 'NONE',  ( 0.000000000000000000, 0.000000000000000000, 1.000000000000000000 ) ) ;
#104 = CARTESIAN_POINT ( 'NONE',  ( 0.000000000000000000, 0.000000000000000000, 0.000000000000000000 ) ) ;
#105 = DIRECTION ( 'NONE',  ( 0.000000000000000000, 0.000000000000000000, 1.000000000000000000 ) ) ;
#106 = PRODUCT_DEFINITION_CONTEXT ( 'detailed design', #298, 'design' ) ;
#107 = DIRECTION ( 'NONE',  ( -0.7071067811865354713, 0.000000000000000000, -0.7071067811865594521 ) ) ;
#108 = ORIENTED_EDGE ( 'NONE', *, *, #169, .T. ) ;
#109 = EDGE_CURVE ( 'NONE', #140, #92, #30, .T. ) ;
#110 = EDGE_LOOP ( 'NONE', ( #253, #51, #274, #25 ) ) ;
#111 = ORIENTED_EDGE ( 'NONE', *, *, #112, .T. ) ;
#112 = EDGE_CURVE ( 'NONE', #45, #230, #72, .T. ) ;
#113 = ORIENTED_EDGE ( 'NONE', *, *, #135, .T. ) ;
#114 = AXIS2_PLACEMENT_3D ( 'NONE', #115, #168, #83 ) ;
#115 = CARTESIAN_POINT ( 'NONE',  ( 1.205361061354380629E-16, 0.000000000000000000, 0.9842519999999999047 ) ) ;
#116 = VERTEX_POINT ( 'NONE', #54 ) ;
#117 = CARTESIAN_POINT ( 'NONE',  ( 2.949332346337811403E-33, 0.000000000000000000, 2.408312624008205170E-17 ) ) ;
#118 = FACE_OUTER_BOUND ( 'NONE', #74, .T. ) ;
#119 = AXIS2_PLACEMENT_3D ( 'NONE', #59, #243, #284 ) ;
#120 = CARTESIAN_POINT ( 'NONE',  ( -0.1966536494999999996, 0.000000000000000000, 4.816625248016410340E-17 ) ) ;
#121 = CARTESIAN_POINT ( 'NONE',  ( 0.000000000000000000, 0.000000000000000000, 2.834646000000000665 ) ) ;
#122 = LINE ( 'NONE', #141, #200 ) ;
#123 = DIRECTION ( 'NONE',  ( -1.000000000000000000, 0.000000000000000000, 0.000000000000000000 ) ) ;
#124 = DIRECTION ( 'NONE',  ( 1.000000000000000000, 0.000000000000000000, 0.000000000000000000 ) ) ;
#125 = DIRECTION ( 'NONE',  ( -1.000000000000000000, 0.000000000000000000, 0.000000000000000000 ) ) ;
#126 = UNCERTAINTY_MEASURE_WITH_UNIT (LENGTH_MEASURE( 1.000000000000000082E-05 ), #247, 'distance_accuracy_value', 'NONE');
#127 = LINE ( 'NONE', #240, #202 ) ;
#128 = COLOUR_RGB ( '',0.7921568627450980005, 0.8196078431372548767, 0.9333333333333333481 ) ;
#129 = SURFACE_SIDE_STYLE ('',( #177 ) ) ;
#130 = EDGE_CURVE ( 'NONE', #270, #250, #17, .T. ) ;
#131 = DIRECTION ( 'NONE',  ( 1.000000000000000000, 0.000000000000000000, -0.000000000000000000 ) ) ;
#132 = PRESENTATION_LAYER_ASSIGNMENT (  '', '', ( #137 ) ) ;
#133 = AXIS2_PLACEMENT_3D ( 'NONE', #207, #238, #171 ) ;
#134 = EDGE_LOOP ( 'NONE', ( #42, #204 ) ) ;
#135 = EDGE_CURVE ( 'NONE', #258, #45, #194, .T. ) ;
#136 = EDGE_LOOP ( 'NONE', ( #91, #239, #180, #283 ) ) ;
#137 = STYLED_ITEM ( 'NONE', ( #26 ), #50 ) ;
#138 = DIRECTION ( 'NONE',  ( 0.000000000000000000, 0.000000000000000000, -1.000000000000000000 ) ) ;
#139 = AXIS2_PLACEMENT_3D ( 'NONE', #69, #268, #175 ) ;
#140 = VERTEX_POINT ( 'NONE', #120 ) ;
#141 = CARTESIAN_POINT ( 'NONE',  ( 0.1818505000000002481, 2.227026327483460228E-17, 2.834646000000000665 ) ) ;
#142 = CARTESIAN_POINT ( 'NONE',  ( 0.000000000000000000, 0.000000000000000000, 2.834646000000000665 ) ) ;
#143 = DIRECTION ( 'NONE',  ( 0.000000000000000000, 0.000000000000000000, -1.000000000000000000 ) ) ;
#144 = AXIS2_PLACEMENT_3D ( 'NONE', #259, #255, #145 ) ;
#145 = DIRECTION ( 'NONE',  ( 1.000000000000000000, 0.000000000000000000, 0.000000000000000000 ) ) ;
#146 = CARTESIAN_POINT ( 'NONE',  ( 0.1968505000000001226, 2.410723347355561878E-17, 0.9853683946618325695 ) ) ;
#147 = DIRECTION ( 'NONE',  ( -0.000000000000000000, -0.000000000000000000, -1.000000000000000000 ) ) ;
#148 = PLANE ( 'NONE',  #297 ) ;
#149 = AXIS2_PLACEMENT_3D ( 'NONE', #223, #292, #131 ) ;
#150 = ADVANCED_BREP_SHAPE_REPRESENTATION ( 'Micro_AEMM-100-4X', ( #50, #82 ), #203 ) ;
#151 = APPLICATION_PROTOCOL_DEFINITION ( 'draft international standard', 'automotive_design', 1998, #65 ) ;
#152 = FACE_OUTER_BOUND ( 'NONE', #11, .T. ) ;
#153 = PLANE ( 'NONE',  #149 ) ;
#154 = CONICAL_SURFACE ( 'NONE', #227, 0.1966536494999999996, 0.1745329251994338360 ) ;
#155 = AXIS2_PLACEMENT_3D ( 'NONE', #102, #287, #52 ) ;
#156 = ORIENTED_EDGE ( 'NONE', *, *, #252, .T. ) ;
#157 = ORIENTED_EDGE ( 'NONE', *, *, #130, .T. ) ;
#158 = ADVANCED_FACE ( 'NONE', ( #191 ), #265, .T. ) ;
#159 = ORIENTED_EDGE ( 'NONE', *, *, #21, .F. ) ;
#160 = EDGE_CURVE ( 'NONE', #229, #230, #127, .T. ) ;
#161 = CIRCLE ( 'NONE', #278, 0.1968504999999999838 ) ;
#162 = ORIENTED_EDGE ( 'NONE', *, *, #289, .F. ) ;
#163 = CONICAL_SURFACE ( 'NONE', #139, 0.1818505000000002481, 0.7853981633974312926 ) ;
#164 = DIMENSIONAL_EXPONENTS ( 1.000000000000000000, 0.000000000000000000, 0.000000000000000000, 0.000000000000000000, 0.000000000000000000, 0.000000000000000000, 0.000000000000000000 ) ;
#165 = FACE_OUTER_BOUND ( 'NONE', #134, .T. ) ;
#166 = CARTESIAN_POINT ( 'NONE',  ( 1.205361061354380629E-16, 0.000000000000000000, 0.9842519999999999047 ) ) ;
#167 = FACE_OUTER_BOUND ( 'NONE', #71, .T. ) ;
#168 = DIRECTION ( 'NONE',  ( -1.224646799147353207E-16, -0.000000000000000000, -1.000000000000000000 ) ) ;
#169 = EDGE_CURVE ( 'NONE', #251, #45, #9, .T. ) ;
#170 = PRODUCT_DEFINITION_FORMATION_WITH_SPECIFIED_SOURCE ( 'ANY', '', #249, .NOT_KNOWN. ) ;
#171 = DIRECTION ( 'NONE',  ( 1.000000000000000000, 0.000000000000000000, 0.000000000000000000 ) ) ;
#172 = DIRECTION ( 'NONE',  ( 1.000000000000000000, 0.000000000000000000, 0.000000000000000000 ) ) ;
#173 = DIRECTION ( 'NONE',  ( -0.000000000000000000, -0.000000000000000000, -1.000000000000000000 ) ) ;
#174 = EDGE_CURVE ( 'NONE', #250, #270, #70, .T. ) ;
#175 = DIRECTION ( 'NONE',  ( -1.000000000000000000, 0.000000000000000000, 0.000000000000000000 ) ) ;
#176 = AXIS2_PLACEMENT_3D ( 'NONE', #80, #143, #53 ) ;
#177 = SURFACE_STYLE_FILL_AREA ( #294 ) ;
#178 = LENGTH_MEASURE_WITH_UNIT ( LENGTH_MEASURE( 0.02539999999999999897 ), #19 );
#179 = CIRCLE ( 'NONE', #114, 0.1966536494999999996 ) ;
#180 = ORIENTED_EDGE ( 'NONE', *, *, #225, .T. ) ;
#181 = DIRECTION ( 'NONE',  ( 1.000000000000000000, 0.000000000000000000, 0.000000000000000000 ) ) ;
#182 = EDGE_LOOP ( 'NONE', ( #157, #185 ) ) ;
#183 = VECTOR ( 'NONE', #173, 39.37007874015748143 ) ;
#184 = SHAPE_DEFINITION_REPRESENTATION ( #245, #150 ) ;
#185 = ORIENTED_EDGE ( 'NONE', *, *, #174, .T. ) ;
#186 = VECTOR ( 'NONE', #282, 39.37007874015748143 ) ;
#187 = CARTESIAN_POINT ( 'NONE',  ( 0.1818505000000002481, 2.318874837419510283E-17, 2.834646000000000665 ) ) ;
#188 = DIRECTION ( 'NONE',  ( -0.000000000000000000, -0.000000000000000000, -1.000000000000000000 ) ) ;
#189 = CARTESIAN_POINT ( 'NONE',  ( -0.1966536494999998608, 2.409517985681882600E-17, 0.9842519999999999047 ) ) ;
#190 = ORIENTED_EDGE ( 'NONE', *, *, #100, .F. ) ;
#191 = FACE_OUTER_BOUND ( 'NONE', #136, .T. ) ;
#192 = AXIS2_PLACEMENT_3D ( 'NONE', #76, #62, #211 ) ;
#193 = VECTOR ( 'NONE', #107, 39.37007874015748854 ) ;
#194 = LINE ( 'NONE', #32, #183 ) ;
#195 = ADVANCED_FACE ( 'NONE', ( #165 ), #148, .F. ) ;
#196 = DIRECTION ( 'NONE',  ( 0.1736481776669313304, 0.000000000000000000, 0.9848077530122077983 ) ) ;
#197 = AXIS2_PLACEMENT_3D ( 'NONE', #117, #27, #85 ) ;
#198 = ORIENTED_EDGE ( 'NONE', *, *, #88, .T. ) ;
#199 = CARTESIAN_POINT ( 'NONE',  ( -0.1818505000000002481, 0.000000000000000000, 2.834646000000000665 ) ) ;
#200 = VECTOR ( 'NONE', #6, 39.37007874015748854 ) ;
#201 = ORIENTED_EDGE ( 'NONE', *, *, #241, .T. ) ;
#202 = VECTOR ( 'NONE', #196, 39.37007874015748143 ) ;
#203 =( GEOMETRIC_REPRESENTATION_CONTEXT ( 3 ) GLOBAL_UNCERTAINTY_ASSIGNED_CONTEXT ( ( #126 ) ) GLOBAL_UNIT_ASSIGNED_CONTEXT ( ( #247, #67, #296 ) ) REPRESENTATION_CONTEXT ( 'NONE', 'WORKASPACE' ) );
#204 = ORIENTED_EDGE ( 'NONE', *, *, #68, .T. ) ;
#205 =( NAMED_UNIT ( * ) SI_UNIT ( $, .STERADIAN. ) SOLID_ANGLE_UNIT ( ) );
#206 = CARTESIAN_POINT ( 'NONE',  ( 0.1968504999999999838, 2.410723347355560646E-17, 2.834646000000000665 ) ) ;
#207 = CARTESIAN_POINT ( 'NONE',  ( 1.205361061354380629E-16, 0.000000000000000000, 0.9842519999999999047 ) ) ;
#208 = CIRCLE ( 'NONE', #97, 0.1968504999999999838 ) ;
#209 = LINE ( 'NONE', #206, #7 ) ;
#210 = STYLED_ITEM ( 'NONE', ( #15 ), #150 ) ;
#211 = DIRECTION ( 'NONE',  ( -1.000000000000000000, 0.000000000000000000, 1.224646799147353207E-16 ) ) ;
#212 = DIRECTION ( 'NONE',  ( -0.000000000000000000, -0.000000000000000000, -1.000000000000000000 ) ) ;
#213 = DIRECTION ( 'NONE',  ( -1.000000000000000000, 0.000000000000000000, 1.224646799147353207E-16 ) ) ;
#214 = SURFACE_STYLE_FILL_AREA ( #254 ) ;
#215 = CYLINDRICAL_SURFACE ( 'NONE', #262, 0.1966536494999999996 ) ;
#216 = DIRECTION ( 'NONE',  ( 1.000000000000000000, 0.000000000000000000, 0.000000000000000000 ) ) ;
#217 = PRODUCT_RELATED_PRODUCT_CATEGORY ( 'part', '', ( #249 ) ) ;
#218 = FILL_AREA_STYLE_COLOUR ( '', #98 ) ;
#219 =( NAMED_UNIT ( * ) PLANE_ANGLE_UNIT ( ) SI_UNIT ( $, .RADIAN. ) );
#220 = VECTOR ( 'NONE', #29, 39.37007874015747433 ) ;
#221 = PRESENTATION_LAYER_ASSIGNMENT (  '', '', ( #210 ) ) ;
#222 = ADVANCED_FACE ( 'NONE', ( #288 ), #291, .T. ) ;
#223 = CARTESIAN_POINT ( 'NONE',  ( 0.000000000000000000, 0.000000000000000000, 2.834646000000000665 ) ) ;
#224 = ORIENTED_EDGE ( 'NONE', *, *, #241, .F. ) ;
#225 = EDGE_CURVE ( 'NONE', #251, #140, #12, .T. ) ;
#226 = PRODUCT_CONTEXT ( 'NONE', #65, 'mechanical' ) ;
#227 = AXIS2_PLACEMENT_3D ( 'NONE', #166, #285, #172 ) ;
#228 = VECTOR ( 'NONE', #86, 39.37007874015748143 ) ;
#229 = VERTEX_POINT ( 'NONE', #280 ) ;
#230 = VERTEX_POINT ( 'NONE', #146 ) ;
#231 = ORIENTED_EDGE ( 'NONE', *, *, #130, .F. ) ;
#232 =( LENGTH_UNIT ( ) NAMED_UNIT ( * ) SI_UNIT ( $, .METRE. ) );
#233 = DIRECTION ( 'NONE',  ( 0.000000000000000000, 0.000000000000000000, 1.000000000000000000 ) ) ;
#234 = CYLINDRICAL_SURFACE ( 'NONE', #244, 0.1968504999999999838 ) ;
#235 = ADVANCED_FACE ( 'NONE', ( #81 ), #286, .T. ) ;
#236 = CARTESIAN_POINT ( 'NONE',  ( -0.1966536494999998608, 2.408312624008205170E-17, 0.9842519999999999047 ) ) ;
#237 = CARTESIAN_POINT ( 'NONE',  ( -0.1968504999999998450, 0.000000000000000000, 0.9853683946618325695 ) ) ;
#238 = DIRECTION ( 'NONE',  ( 1.224646799147353207E-16, 0.000000000000000000, 1.000000000000000000 ) ) ;
#239 = ORIENTED_EDGE ( 'NONE', *, *, #33, .T. ) ;
#240 = CARTESIAN_POINT ( 'NONE',  ( 0.1966536495000001383, 0.000000000000000000, 0.9842519999999999047 ) ) ;
#241 = EDGE_CURVE ( 'NONE', #250, #116, #122, .T. ) ;
#242 = FACE_OUTER_BOUND ( 'NONE', #28, .T. ) ;
#243 = DIRECTION ( 'NONE',  ( -1.224646799147353207E-16, -0.000000000000000000, -1.000000000000000000 ) ) ;
#244 = AXIS2_PLACEMENT_3D ( 'NONE', #121, #212, #123 ) ;
#245 = PRODUCT_DEFINITION_SHAPE ( 'NONE', 'NONE',  #90 ) ;
#246 = DIMENSIONAL_EXPONENTS ( 1.000000000000000000, 0.000000000000000000, 0.000000000000000000, 0.000000000000000000, 0.000000000000000000, 0.000000000000000000, 0.000000000000000000 ) ;
#247 =( CONVERSION_BASED_UNIT ( 'INCH', #178 ) LENGTH_UNIT ( ) NAMED_UNIT ( #164 ) );
#248 = CIRCLE ( 'NONE', #176, 0.1968504999999999838 ) ;
#249 = PRODUCT ( 'Micro_AEMM-100-4X', 'Micro_AEMM-100-4X', '', ( #226 ) ) ;
#250 = VERTEX_POINT ( 'NONE', #187 ) ;
#251 = VERTEX_POINT ( 'NONE', #189 ) ;
#252 = EDGE_CURVE ( 'NONE', #229, #92, #263, .T. ) ;
#253 = ORIENTED_EDGE ( 'NONE', *, *, #169, .F. ) ;
#254 = FILL_AREA_STYLE ('',( #58 ) ) ;
#255 = DIRECTION ( 'NONE',  ( -1.224646799147353207E-16, -0.000000000000000000, -1.000000000000000000 ) ) ;
#256 = FACE_OUTER_BOUND ( 'NONE', #73, .T. ) ;
#257 = CARTESIAN_POINT ( 'NONE',  ( -0.1966536494999999996, 0.000000000000000000, 2.408312624008205170E-17 ) ) ;
#258 = VERTEX_POINT ( 'NONE', #79 ) ;
#259 = CARTESIAN_POINT ( 'NONE',  ( 1.206728250503579029E-16, 0.000000000000000000, 0.9853683946618325695 ) ) ;
#260 = CIRCLE ( 'NONE', #290, 0.1966536494999999996 ) ;
#261 = CARTESIAN_POINT ( 'NONE',  ( 1.206728250503579029E-16, 0.000000000000000000, 0.9853683946618325695 ) ) ;
#262 = AXIS2_PLACEMENT_3D ( 'NONE', #104, #57, #213 ) ;
#263 = LINE ( 'NONE', #35, #186 ) ;
#264 = CARTESIAN_POINT ( 'NONE',  ( 0.000000000000000000, 0.000000000000000000, 2.834646000000000665 ) ) ;
#265 = CYLINDRICAL_SURFACE ( 'NONE', #192, 0.1966536494999999996 ) ;
#266 =( CONVERSION_BASED_UNIT ( 'INCH', #87 ) LENGTH_UNIT ( ) NAMED_UNIT ( #246 ) );
#267 = ADVANCED_FACE ( 'NONE', ( #167 ), #215, .T. ) ;
#268 = DIRECTION ( 'NONE',  ( 0.000000000000000000, 0.000000000000000000, -1.000000000000000000 ) ) ;
#269 =( GEOMETRIC_REPRESENTATION_CONTEXT ( 3 ) GLOBAL_UNCERTAINTY_ASSIGNED_CONTEXT ( ( #56 ) ) GLOBAL_UNIT_ASSIGNED_CONTEXT ( ( #266, #219, #205 ) ) REPRESENTATION_CONTEXT ( 'NONE', 'WORKASPACE' ) );
#270 = VERTEX_POINT ( 'NONE', #10 ) ;
#271 = ORIENTED_EDGE ( 'NONE', *, *, #43, .F. ) ;
#272 = ORIENTED_EDGE ( 'NONE', *, *, #289, .T. ) ;
#273 = AXIS2_PLACEMENT_3D ( 'NONE', #264, #147, #125 ) ;
#274 = ORIENTED_EDGE ( 'NONE', *, *, #160, .T. ) ;
#275 = EDGE_LOOP ( 'NONE', ( #279, #201, #159, #162 ) ) ;
#276 = DIRECTION ( 'NONE',  ( -1.224646799147353207E-16, -0.000000000000000000, -1.000000000000000000 ) ) ;
#277 = ADVANCED_FACE ( 'NONE', ( #152 ), #163, .T. ) ;
#278 = AXIS2_PLACEMENT_3D ( 'NONE', #261, #276, #48 ) ;
#279 = ORIENTED_EDGE ( 'NONE', *, *, #174, .F. ) ;
#280 = CARTESIAN_POINT ( 'NONE',  ( 0.1966536495000001383, 0.000000000000000000, 0.9842519999999999047 ) ) ;
#281 = SURFACE_SIDE_STYLE ('',( #214 ) ) ;
#282 = DIRECTION ( 'NONE',  ( -1.224646799147353207E-16, -0.000000000000000000, -1.000000000000000000 ) ) ;
#283 = ORIENTED_EDGE ( 'NONE', *, *, #68, .F. ) ;
#284 = DIRECTION ( 'NONE',  ( -1.000000000000000000, 0.000000000000000000, 0.000000000000000000 ) ) ;
#285 = DIRECTION ( 'NONE',  ( 1.224646799147353207E-16, 0.000000000000000000, 1.000000000000000000 ) ) ;
#286 = CONICAL_SURFACE ( 'NONE', #155, 0.1818505000000002481, 0.7853981633974312926 ) ;
#287 = DIRECTION ( 'NONE',  ( 0.000000000000000000, 0.000000000000000000, -1.000000000000000000 ) ) ;
#288 = FACE_OUTER_BOUND ( 'NONE', #110, .T. ) ;
#289 = EDGE_CURVE ( 'NONE', #270, #258, #40, .T. ) ;
#290 = AXIS2_PLACEMENT_3D ( 'NONE', #34, #95, #31 ) ;
#291 = CONICAL_SURFACE ( 'NONE', #133, 0.1966536494999999996, 0.1745329251994338360 ) ;
#292 = DIRECTION ( 'NONE',  ( 0.000000000000000000, 0.000000000000000000, 1.000000000000000000 ) ) ;
#293 = ADVANCED_FACE ( 'NONE', ( #66 ), #153, .T. ) ;
#294 = FILL_AREA_STYLE ('',( #218 ) ) ;
#295 = ORIENTED_EDGE ( 'NONE', *, *, #112, .F. ) ;
#296 =( NAMED_UNIT ( * ) SI_UNIT ( $, .STERADIAN. ) SOLID_ANGLE_UNIT ( ) );
#297 = AXIS2_PLACEMENT_3D ( 'NONE', #14, #105, #99 ) ;
#298 = APPLICATION_CONTEXT ( 'automotive_design' ) ;
#299 = ORIENTED_EDGE ( 'NONE', *, *, #100, .T. ) ;
ENDSEC;
END-ISO-10303-21;
