ISO-10303-21;
HEADER;
FILE_DESCRIPTION (( 'STEP AP214' ),
    '1' );
FILE_NAME ('Micro_MMBM-005-5.STEP',
    '2021-09-03T16:23:04',
    ( '' ),
    ( '' ),
    'SwSTEP 2.0',
    'SolidWorks 2020',
    '' );
FILE_SCHEMA (( 'AUTOMOTIVE_DESIGN' ));
ENDSEC;

DATA;
#1 = DIRECTION ( 'NONE',  ( -1.000000000000000000, 0.0000000000000000000, 0.0000000000000000000 ) ) ;
#2 = LINE ( 'NONE', #30, #216 ) ;
#3 = FILL_AREA_STYLE_COLOUR ( '', #186 ) ;
#4 = CARTESIAN_POINT ( 'NONE',  ( 0.009841515750000005142, 1.205238076199577027E-18, 0.01968500000000000111 ) ) ;
#5 = CIRCLE ( 'NONE', #208, 0.009449000000000025087 ) ;
#6 = PRODUCT_CONTEXT ( 'NONE', #106, 'mechanical' ) ;
#7 = ORIENTED_EDGE ( 'NONE', *, *, #156, .F. ) ;
#8 = EDGE_CURVE ( 'NONE', #226, #128, #299, .T. ) ;
#9 = EDGE_LOOP ( 'NONE', ( #33, #264 ) ) ;
#10 = AXIS2_PLACEMENT_3D ( 'NONE', #182, #160, #328 ) ;
#11 = DIRECTION ( 'NONE',  ( 0.0000000000000000000, 0.0000000000000000000, -1.000000000000000000 ) ) ;
#12 = AXIS2_PLACEMENT_3D ( 'NONE', #144, #333, #93 ) ;
#13 = APPLICATION_PROTOCOL_DEFINITION ( 'draft international standard', 'automotive_design', 1998, #327 ) ;
#14 = FACE_OUTER_BOUND ( 'NONE', #78, .T. ) ;
#15 = VERTEX_POINT ( 'NONE', #244 ) ;
#16 = ADVANCED_FACE ( 'NONE', ( #104 ), #338, .T. ) ;
#17 = LINE ( 'NONE', #360, #123 ) ;
#18 = ORIENTED_EDGE ( 'NONE', *, *, #379, .F. ) ;
#19 = EDGE_LOOP ( 'NONE', ( #81, #73 ) ) ;
#20 = CARTESIAN_POINT ( 'NONE',  ( 0.0000000000000000000, 0.0000000000000000000, 1.953504000000000129 ) ) ;
#21 = ORIENTED_EDGE ( 'NONE', *, *, #175, .T. ) ;
#22 = DIRECTION ( 'NONE',  ( -0.0000000000000000000, -0.0000000000000000000, -1.000000000000000000 ) ) ;
#23 = DIMENSIONAL_EXPONENTS ( 1.000000000000000000, 0.0000000000000000000, 0.0000000000000000000, 0.0000000000000000000, 0.0000000000000000000, 0.0000000000000000000, 0.0000000000000000000 ) ;
#24 = CARTESIAN_POINT ( 'NONE',  ( 0.009841515750000005142, 1.205238076199577027E-18, 0.0000000000000000000 ) ) ;
#25 =( GEOMETRIC_REPRESENTATION_CONTEXT ( 3 ) GLOBAL_UNCERTAINTY_ASSIGNED_CONTEXT ( ( #339 ) ) GLOBAL_UNIT_ASSIGNED_CONTEXT ( ( #368, #29, #347 ) ) REPRESENTATION_CONTEXT ( 'NONE', 'WORKASPACE' ) );
#26 =( LENGTH_UNIT ( ) NAMED_UNIT ( * ) SI_UNIT ( $, .METRE. ) );
#27 =( GEOMETRIC_REPRESENTATION_CONTEXT ( 3 ) GLOBAL_UNCERTAINTY_ASSIGNED_CONTEXT ( ( #237 ) ) GLOBAL_UNIT_ASSIGNED_CONTEXT ( ( #154, #256, #342 ) ) REPRESENTATION_CONTEXT ( 'NONE', 'WORKASPACE' ) );
#28 = LINE ( 'NONE', #59, #31 ) ;
#29 =( NAMED_UNIT ( * ) PLANE_ANGLE_UNIT ( ) SI_UNIT ( $, .RADIAN. ) );
#30 = CARTESIAN_POINT ( 'NONE',  ( -0.06374000000000018540, 0.0000000000000000000, 1.968503999999999809 ) ) ;
#31 = VECTOR ( 'NONE', #375, 39.37007874015748854 ) ;
#32 = DIRECTION ( 'NONE',  ( 1.000000000000000000, 0.0000000000000000000, 0.0000000000000000000 ) ) ;
#33 = ORIENTED_EDGE ( 'NONE', *, *, #170, .T. ) ;
#34 = EDGE_CURVE ( 'NONE', #302, #142, #5, .T. ) ;
#35 = AXIS2_PLACEMENT_3D ( 'NONE', #77, #11, #131 ) ;
#36 = DIRECTION ( 'NONE',  ( 0.0000000000000000000, 0.0000000000000000000, 1.000000000000000000 ) ) ;
#37 = ORIENTED_EDGE ( 'NONE', *, *, #181, .F. ) ;
#38 = DIRECTION ( 'NONE',  ( -0.0000000000000000000, 0.0000000000000000000, -1.000000000000000000 ) ) ;
#39 = ORIENTED_EDGE ( 'NONE', *, *, #170, .F. ) ;
#40 = DIRECTION ( 'NONE',  ( -1.000000000000000000, 0.0000000000000000000, 0.0000000000000000000 ) ) ;
#41 = VERTEX_POINT ( 'NONE', #290 ) ;
#42 = APPLICATION_PROTOCOL_DEFINITION ( 'draft international standard', 'automotive_design', 1998, #106 ) ;
#43 = EDGE_LOOP ( 'NONE', ( #7, #277, #45, #192 ) ) ;
#44 = DIRECTION ( 'NONE',  ( -0.0000000000000000000, -0.0000000000000000000, -1.000000000000000000 ) ) ;
#45 = ORIENTED_EDGE ( 'NONE', *, *, #8, .F. ) ;
#46 = SURFACE_SIDE_STYLE ('',( #172 ) ) ;
#47 = STYLED_ITEM ( 'NONE', ( #171 ), #74 ) ;
#48 = LINE ( 'NONE', #24, #50 ) ;
#49 = CARTESIAN_POINT ( 'NONE',  ( -0.009449000000000002536, 0.0000000000000000000, 0.02191106743688862185 ) ) ;
#50 = VECTOR ( 'NONE', #148, 39.37007874015748143 ) ;
#51 =( LENGTH_UNIT ( ) NAMED_UNIT ( * ) SI_UNIT ( $, .METRE. ) );
#52 = VECTOR ( 'NONE', #153, 39.37007874015748143 ) ;
#53 = PRODUCT_DEFINITION_FORMATION_WITH_SPECIFIED_SOURCE ( 'ANY', '', #227, .NOT_KNOWN. ) ;
#54 = DIRECTION ( 'NONE',  ( 1.000000000000000000, 0.0000000000000000000, 0.0000000000000000000 ) ) ;
#55 = CARTESIAN_POINT ( 'NONE',  ( 0.009449000000000014679, 1.157168760514335788E-18, 0.0000000000000000000 ) ) ;
#56 = DIRECTION ( 'NONE',  ( -1.000000000000000000, 0.0000000000000000000, 0.0000000000000000000 ) ) ;
#57 = FACE_OUTER_BOUND ( 'NONE', #145, .T. ) ;
#58 = ORIENTED_EDGE ( 'NONE', *, *, #175, .F. ) ;
#59 = CARTESIAN_POINT ( 'NONE',  ( -0.009841515750000005142, 0.0000000000000000000, 0.01968500000000000111 ) ) ;
#60 = CIRCLE ( 'NONE', #285, 0.009841515750000005142 ) ;
#61 = ORIENTED_EDGE ( 'NONE', *, *, #34, .T. ) ;
#62 = UNCERTAINTY_MEASURE_WITH_UNIT (LENGTH_MEASURE( 1.000000000000000082E-05 ), #99, 'distance_accuracy_value', 'NONE');
#63 = AXIS2_PLACEMENT_3D ( 'NONE', #284, #197, #344 ) ;
#64 = CARTESIAN_POINT ( 'NONE',  ( 0.0000000000000000000, 0.0000000000000000000, 0.0000000000000000000 ) ) ;
#65 = VERTEX_POINT ( 'NONE', #286 ) ;
#66 = CARTESIAN_POINT ( 'NONE',  ( -0.07874000000000001831, 0.0000000000000000000, 1.953504000000000129 ) ) ;
#67 = VECTOR ( 'NONE', #271, 39.37007874015748143 ) ;
#68 =( GEOMETRIC_REPRESENTATION_CONTEXT ( 3 ) GLOBAL_UNCERTAINTY_ASSIGNED_CONTEXT ( ( #62 ) ) GLOBAL_UNIT_ASSIGNED_CONTEXT ( ( #99, #238, #352 ) ) REPRESENTATION_CONTEXT ( 'NONE', 'WORKASPACE' ) );
#69 = DIRECTION ( 'NONE',  ( 1.000000000000000000, 0.0000000000000000000, -0.0000000000000000000 ) ) ;
#70 = VERTEX_POINT ( 'NONE', #85 ) ;
#71 = ADVANCED_FACE ( 'NONE', ( #174 ), #231, .T. ) ;
#72 = DIRECTION ( 'NONE',  ( -1.000000000000000000, 0.0000000000000000000, 0.0000000000000000000 ) ) ;
#73 = ORIENTED_EDGE ( 'NONE', *, *, #317, .T. ) ;
#74 = MANIFOLD_SOLID_BREP ( 'Cut-Revolve1', #133 ) ;
#75 = PLANE ( 'NONE',  #76 ) ;
#76 = AXIS2_PLACEMENT_3D ( 'NONE', #300, #38, #248 ) ;
#77 = CARTESIAN_POINT ( 'NONE',  ( 0.0000000000000000000, 0.0000000000000000000, 1.968503999999999809 ) ) ;
#78 = EDGE_LOOP ( 'NONE', ( #61, #140, #272, #354 ) ) ;
#79 = AXIS2_PLACEMENT_3D ( 'NONE', #343, #307, #276 ) ;
#80 = CARTESIAN_POINT ( 'NONE',  ( 0.0000000000000000000, 0.0000000000000000000, 0.0000000000000000000 ) ) ;
#81 = ORIENTED_EDGE ( 'NONE', *, *, #279, .T. ) ;
#82 = ADVANCED_FACE ( 'NONE', ( #233 ), #283, .T. ) ;
#83 = PLANE ( 'NONE',  #280 ) ;
#84 = ORIENTED_EDGE ( 'NONE', *, *, #214, .T. ) ;
#85 = CARTESIAN_POINT ( 'NONE',  ( -0.009841515750000005142, 0.0000000000000000000, 0.01968500000000000111 ) ) ;
#86 = CIRCLE ( 'NONE', #179, 0.009449000000000025087 ) ;
#87 = EDGE_CURVE ( 'NONE', #164, #41, #273, .T. ) ;
#88 = AXIS2_PLACEMENT_3D ( 'NONE', #260, #258, #254 ) ;
#89 = CARTESIAN_POINT ( 'NONE',  ( 0.07874000000000001831, 9.642868896486260050E-18, 1.953504000000000129 ) ) ;
#90 = FACE_BOUND ( 'NONE', #306, .T. ) ;
#91 = DIRECTION ( 'NONE',  ( 1.000000000000000000, 0.0000000000000000000, 0.0000000000000000000 ) ) ;
#92 = CARTESIAN_POINT ( 'NONE',  ( 0.009449000000000025087, 1.157168760514336944E-18, 0.1968500000000000250 ) ) ;
#93 = DIRECTION ( 'NONE',  ( -1.000000000000000000, 0.0000000000000000000, 0.0000000000000000000 ) ) ;
#94 = DIRECTION ( 'NONE',  ( -0.0000000000000000000, -0.0000000000000000000, -1.000000000000000000 ) ) ;
#95 = AXIS2_PLACEMENT_3D ( 'NONE', #293, #291, #268 ) ;
#96 = CARTESIAN_POINT ( 'NONE',  ( 0.0000000000000000000, 0.0000000000000000000, 0.02191106743688862185 ) ) ;
#97 = CARTESIAN_POINT ( 'NONE',  ( 0.0000000000000000000, 0.0000000000000000000, 0.01968500000000000111 ) ) ;
#98 = CARTESIAN_POINT ( 'NONE',  ( 0.0000000000000000000, 0.0000000000000000000, 0.1968500000000000250 ) ) ;
#99 =( CONVERSION_BASED_UNIT ( 'INCH', #101 ) LENGTH_UNIT ( ) NAMED_UNIT ( #155 ) );
#100 = ADVANCED_FACE ( 'NONE', ( #121 ), #374, .T. ) ;
#101 = LENGTH_MEASURE_WITH_UNIT ( LENGTH_MEASURE( 0.02539999999999999897 ), #348 );
#102 = CARTESIAN_POINT ( 'NONE',  ( 0.0000000000000000000, 0.0000000000000000000, 0.0000000000000000000 ) ) ;
#103 = CARTESIAN_POINT ( 'NONE',  ( 0.0000000000000000000, 0.0000000000000000000, 0.01968500000000000111 ) ) ;
#104 = FACE_OUTER_BOUND ( 'NONE', #111, .T. ) ;
#105 = EDGE_CURVE ( 'NONE', #265, #15, #321, .T. ) ;
#106 = APPLICATION_CONTEXT ( 'automotive_design' ) ;
#107 = CARTESIAN_POINT ( 'NONE',  ( -0.06374000000000018540, 0.0000000000000000000, 1.968503999999999809 ) ) ;
#108 = ORIENTED_EDGE ( 'NONE', *, *, #8, .T. ) ;
#109 = ORIENTED_EDGE ( 'NONE', *, *, #184, .T. ) ;
#110 = CARTESIAN_POINT ( 'NONE',  ( 0.0000000000000000000, 0.0000000000000000000, 1.968503999999999809 ) ) ;
#111 = EDGE_LOOP ( 'NONE', ( #253, #275, #109, #332 ) ) ;
#112 = ORIENTED_EDGE ( 'NONE', *, *, #127, .T. ) ;
#113 = DIRECTION ( 'NONE',  ( -0.0000000000000000000, -0.0000000000000000000, -1.000000000000000000 ) ) ;
#114 = DIRECTION ( 'NONE',  ( -1.000000000000000000, 0.0000000000000000000, 0.0000000000000000000 ) ) ;
#115 = DIMENSIONAL_EXPONENTS ( 1.000000000000000000, 0.0000000000000000000, 0.0000000000000000000, 0.0000000000000000000, 0.0000000000000000000, 0.0000000000000000000, 0.0000000000000000000 ) ;
#116 = AXIS2_PLACEMENT_3D ( 'NONE', #311, #22, #146 ) ;
#117 = LENGTH_MEASURE_WITH_UNIT ( LENGTH_MEASURE( 0.02539999999999999897 ), #26 );
#118 = CARTESIAN_POINT ( 'NONE',  ( -0.07874000000000001831, 0.0000000000000000000, 1.968503999999999809 ) ) ;
#119 = PRESENTATION_STYLE_ASSIGNMENT (( #376 ) ) ;
#120 = ADVANCED_FACE ( 'NONE', ( #199 ), #298, .T. ) ;
#121 = FACE_OUTER_BOUND ( 'NONE', #188, .T. ) ;
#122 = DIRECTION ( 'NONE',  ( -0.0000000000000000000, -0.0000000000000000000, -1.000000000000000000 ) ) ;
#123 = VECTOR ( 'NONE', #221, 39.37007874015748143 ) ;
#124 = FILL_AREA_STYLE ('',( #3 ) ) ;
#125 = DIRECTION ( 'NONE',  ( -1.000000000000000000, 0.0000000000000000000, 0.0000000000000000000 ) ) ;
#126 = EDGE_LOOP ( 'NONE', ( #303, #326, #297, #365 ) ) ;
#127 = EDGE_CURVE ( 'NONE', #302, #164, #340, .T. ) ;
#128 = VERTEX_POINT ( 'NONE', #89 ) ;
#129 = CIRCLE ( 'NONE', #314, 0.06374000000000018540 ) ;
#130 = EDGE_CURVE ( 'NONE', #167, #65, #48, .T. ) ;
#131 = DIRECTION ( 'NONE',  ( -1.000000000000000000, 0.0000000000000000000, 0.0000000000000000000 ) ) ;
#132 = MECHANICAL_DESIGN_GEOMETRIC_PRESENTATION_REPRESENTATION (  '', ( #370 ), #68 ) ;
#133 = CLOSED_SHELL ( 'NONE', ( #355, #210, #100, #189, #71, #16, #295, #261, #134, #120, #359, #82, #205 ) ) ;
#134 = ADVANCED_FACE ( 'NONE', ( #90, #349 ), #75, .T. ) ;
#135 = DIRECTION ( 'NONE',  ( -0.0000000000000000000, -0.0000000000000000000, -1.000000000000000000 ) ) ;
#136 = ORIENTED_EDGE ( 'NONE', *, *, #152, .T. ) ;
#137 = VECTOR ( 'NONE', #122, 39.37007874015748143 ) ;
#138 = CYLINDRICAL_SURFACE ( 'NONE', #185, 0.009449000000000014679 ) ;
#139 = ORIENTED_EDGE ( 'NONE', *, *, #252, .T. ) ;
#140 = ORIENTED_EDGE ( 'NONE', *, *, #379, .T. ) ;
#141 = DIRECTION ( 'NONE',  ( 1.000000000000000000, 0.0000000000000000000, 0.0000000000000000000 ) ) ;
#142 = VERTEX_POINT ( 'NONE', #92 ) ;
#143 = EDGE_CURVE ( 'NONE', #164, #70, #28, .T. ) ;
#144 = CARTESIAN_POINT ( 'NONE',  ( 0.0000000000000000000, 0.0000000000000000000, 0.0000000000000000000 ) ) ;
#145 = EDGE_LOOP ( 'NONE', ( #84, #361, #250, #246 ) ) ;
#146 = DIRECTION ( 'NONE',  ( -1.000000000000000000, 0.0000000000000000000, 0.0000000000000000000 ) ) ;
#147 = DIRECTION ( 'NONE',  ( 0.0000000000000000000, 0.0000000000000000000, 1.000000000000000000 ) ) ;
#148 = DIRECTION ( 'NONE',  ( -0.0000000000000000000, -0.0000000000000000000, -1.000000000000000000 ) ) ;
#149 = CIRCLE ( 'NONE', #225, 0.009841515750000005142 ) ;
#150 = DIRECTION ( 'NONE',  ( -1.000000000000000000, 0.0000000000000000000, 0.0000000000000000000 ) ) ;
#151 = SURFACE_STYLE_FILL_AREA ( #124 ) ;
#152 = EDGE_CURVE ( 'NONE', #239, #226, #2, .T. ) ;
#153 = DIRECTION ( 'NONE',  ( -0.0000000000000000000, -0.0000000000000000000, -1.000000000000000000 ) ) ;
#154 =( CONVERSION_BASED_UNIT ( 'INCH', #117 ) LENGTH_UNIT ( ) NAMED_UNIT ( #23 ) );
#155 = DIMENSIONAL_EXPONENTS ( 1.000000000000000000, 0.0000000000000000000, 0.0000000000000000000, 0.0000000000000000000, 0.0000000000000000000, 0.0000000000000000000, 0.0000000000000000000 ) ;
#156 = EDGE_CURVE ( 'NONE', #220, #239, #129, .T. ) ;
#157 = AXIS2_PLACEMENT_3D ( 'NONE', #200, #312, #150 ) ;
#158 = CIRCLE ( 'NONE', #287, 0.07874000000000001831 ) ;
#159 = ORIENTED_EDGE ( 'NONE', *, *, #181, .T. ) ;
#160 = DIRECTION ( 'NONE',  ( -0.0000000000000000000, -0.0000000000000000000, -1.000000000000000000 ) ) ;
#161 = ORIENTED_EDGE ( 'NONE', *, *, #330, .F. ) ;
#162 = CONICAL_SURFACE ( 'NONE', #95, 0.06374000000000018540, 0.7853981633974528309 ) ;
#163 = CARTESIAN_POINT ( 'NONE',  ( -0.009841515750000005142, 0.0000000000000000000, 0.0000000000000000000 ) ) ;
#164 = VERTEX_POINT ( 'NONE', #49 ) ;
#165 = EDGE_LOOP ( 'NONE', ( #108, #139, #39, #269 ) ) ;
#166 = FACE_OUTER_BOUND ( 'NONE', #322, .T. ) ;
#167 = VERTEX_POINT ( 'NONE', #4 ) ;
#168 = DIRECTION ( 'NONE',  ( 1.000000000000000000, 0.0000000000000000000, 0.0000000000000000000 ) ) ;
#169 = AXIS2_PLACEMENT_3D ( 'NONE', #345, #201, #1 ) ;
#170 = EDGE_CURVE ( 'NONE', #15, #265, #191, .T. ) ;
#171 = PRESENTATION_STYLE_ASSIGNMENT (( #313 ) ) ;
#172 = SURFACE_STYLE_FILL_AREA ( #371 ) ;
#173 = LINE ( 'NONE', #55, #52 ) ;
#174 = FACE_OUTER_BOUND ( 'NONE', #165, .T. ) ;
#175 = EDGE_CURVE ( 'NONE', #142, #302, #86, .T. ) ;
#176 = DIRECTION ( 'NONE',  ( 0.0000000000000000000, 0.0000000000000000000, -1.000000000000000000 ) ) ;
#177 = DIRECTION ( 'NONE',  ( -0.0000000000000000000, -0.0000000000000000000, -1.000000000000000000 ) ) ;
#178 = CARTESIAN_POINT ( 'NONE',  ( 0.0000000000000000000, 0.0000000000000000000, 0.1968500000000001082 ) ) ;
#179 = AXIS2_PLACEMENT_3D ( 'NONE', #98, #202, #125 ) ;
#180 = PRODUCT_DEFINITION_CONTEXT ( 'detailed design', #327, 'design' ) ;
#181 = EDGE_CURVE ( 'NONE', #239, #220, #292, .T. ) ;
#182 = CARTESIAN_POINT ( 'NONE',  ( 0.0000000000000000000, 0.0000000000000000000, 0.01968500000000000111 ) ) ;
#183 = FACE_OUTER_BOUND ( 'NONE', #43, .T. ) ;
#184 = EDGE_CURVE ( 'NONE', #226, #15, #377, .T. ) ;
#185 = AXIS2_PLACEMENT_3D ( 'NONE', #245, #243, #72 ) ;
#186 = COLOUR_RGB ( '',0.7921568627450980005, 0.8196078431372548767, 0.9333333333333333481 ) ;
#187 = EDGE_CURVE ( 'NONE', #41, #167, #288, .T. ) ;
#188 = EDGE_LOOP ( 'NONE', ( #296, #350, #194, #334 ) ) ;
#189 = ADVANCED_FACE ( 'NONE', ( #183 ), #162, .T. ) ;
#190 = ORIENTED_EDGE ( 'NONE', *, *, #143, .T. ) ;
#191 = CIRCLE ( 'NONE', #157, 0.07874000000000001831 ) ;
#192 = ORIENTED_EDGE ( 'NONE', *, *, #152, .F. ) ;
#193 = CYLINDRICAL_SURFACE ( 'NONE', #266, 0.009841515750000005142 ) ;
#194 = ORIENTED_EDGE ( 'NONE', *, *, #214, .F. ) ;
#195 = DIRECTION ( 'NONE',  ( -1.000000000000000000, 0.0000000000000000000, 0.0000000000000000000 ) ) ;
#196 = CARTESIAN_POINT ( 'NONE',  ( 0.0000000000000000000, 0.0000000000000000000, 1.953504000000000129 ) ) ;
#197 = DIRECTION ( 'NONE',  ( -0.0000000000000000000, -0.0000000000000000000, -1.000000000000000000 ) ) ;
#198 = EDGE_CURVE ( 'NONE', #167, #70, #60, .T. ) ;
#199 = FACE_OUTER_BOUND ( 'NONE', #222, .T. ) ;
#200 = CARTESIAN_POINT ( 'NONE',  ( 0.0000000000000000000, 0.0000000000000000000, 0.1968500000000001082 ) ) ;
#201 = DIRECTION ( 'NONE',  ( -0.0000000000000000000, -0.0000000000000000000, -1.000000000000000000 ) ) ;
#202 = DIRECTION ( 'NONE',  ( -0.0000000000000000000, -0.0000000000000000000, -1.000000000000000000 ) ) ;
#203 = CARTESIAN_POINT ( 'NONE',  ( 0.06374000000000018540, 7.805898697765251255E-18, 1.968503999999999809 ) ) ;
#204 = DIRECTION ( 'NONE',  ( -1.000000000000000000, 0.0000000000000000000, 0.0000000000000000000 ) ) ;
#205 = ADVANCED_FACE ( 'NONE', ( #249 ), #323, .F. ) ;
#206 = DIRECTION ( 'NONE',  ( 0.1736481776669307475, 2.126576849575776537E-17, -0.9848077530122077983 ) ) ;
#207 = DIRECTION ( 'NONE',  ( -0.0000000000000000000, -0.0000000000000000000, -1.000000000000000000 ) ) ;
#208 = AXIS2_PLACEMENT_3D ( 'NONE', #228, #177, #56 ) ;
#209 = CARTESIAN_POINT ( 'NONE',  ( -0.009449000000000014679, 0.0000000000000000000, 0.0000000000000000000 ) ) ;
#210 = ADVANCED_FACE ( 'NONE', ( #14 ), #138, .T. ) ;
#211 = AXIS2_PLACEMENT_3D ( 'NONE', #178, #316, #114 ) ;
#212 = ORIENTED_EDGE ( 'NONE', *, *, #301, .F. ) ;
#213 = SHAPE_DEFINITION_REPRESENTATION ( #336, #294 ) ;
#214 = EDGE_CURVE ( 'NONE', #70, #167, #366, .T. ) ;
#215 = VECTOR ( 'NONE', #113, 39.37007874015748143 ) ;
#216 = VECTOR ( 'NONE', #262, 39.37007874015748143 ) ;
#217 = AXIS2_PLACEMENT_3D ( 'NONE', #96, #232, #195 ) ;
#218 = EDGE_LOOP ( 'NONE', ( #18, #21, #112, #212 ) ) ;
#219 = COLOUR_RGB ( '',0.7921568627450980005, 0.8196078431372548767, 0.9333333333333333481 ) ;
#220 = VERTEX_POINT ( 'NONE', #324 ) ;
#221 = DIRECTION ( 'NONE',  ( -0.0000000000000000000, -0.0000000000000000000, -1.000000000000000000 ) ) ;
#222 = EDGE_LOOP ( 'NONE', ( #281, #329, #190, #251 ) ) ;
#223 = CYLINDRICAL_SURFACE ( 'NONE', #12, 0.009449000000000014679 ) ;
#224 = ORIENTED_EDGE ( 'NONE', *, *, #156, .T. ) ;
#225 = AXIS2_PLACEMENT_3D ( 'NONE', #102, #207, #318 ) ;
#226 = VERTEX_POINT ( 'NONE', #66 ) ;
#227 = PRODUCT ( 'Micro_MMBM-005-5', 'Micro_MMBM-005-5', '', ( #6 ) ) ;
#228 = CARTESIAN_POINT ( 'NONE',  ( 0.0000000000000000000, 0.0000000000000000000, 0.1968500000000000250 ) ) ;
#229 = DIRECTION ( 'NONE',  ( -0.0000000000000000000, -0.0000000000000000000, -1.000000000000000000 ) ) ;
#230 = AXIS2_PLACEMENT_3D ( 'NONE', #196, #308, #168 ) ;
#231 = CYLINDRICAL_SURFACE ( 'NONE', #63, 0.07874000000000001831 ) ;
#232 = DIRECTION ( 'NONE',  ( -0.0000000000000000000, -0.0000000000000000000, -1.000000000000000000 ) ) ;
#233 = FACE_OUTER_BOUND ( 'NONE', #126, .T. ) ;
#234 = CARTESIAN_POINT ( 'NONE',  ( 0.009841515750000005142, 1.205238076199577027E-18, 0.01968500000000000111 ) ) ;
#235 = DIRECTION ( 'NONE',  ( -1.000000000000000000, 0.0000000000000000000, 0.0000000000000000000 ) ) ;
#236 = AXIS2_PLACEMENT_3D ( 'NONE', #319, #147, #54 ) ;
#237 = UNCERTAINTY_MEASURE_WITH_UNIT (LENGTH_MEASURE( 1.000000000000000082E-05 ), #154, 'distance_accuracy_value', 'NONE');
#238 =( NAMED_UNIT ( * ) PLANE_ANGLE_UNIT ( ) SI_UNIT ( $, .RADIAN. ) );
#239 = VERTEX_POINT ( 'NONE', #107 ) ;
#240 = AXIS2_PLACEMENT_3D ( 'NONE', #325, #357, #69 ) ;
#241 = PRESENTATION_LAYER_ASSIGNMENT (  '', '', ( #47 ) ) ;
#242 = CIRCLE ( 'NONE', #217, 0.009449000000000002536 ) ;
#243 = DIRECTION ( 'NONE',  ( -0.0000000000000000000, -0.0000000000000000000, -1.000000000000000000 ) ) ;
#244 = CARTESIAN_POINT ( 'NONE',  ( -0.07874000000000001831, 0.0000000000000000000, 0.1968500000000001082 ) ) ;
#245 = CARTESIAN_POINT ( 'NONE',  ( 0.0000000000000000000, 0.0000000000000000000, 0.0000000000000000000 ) ) ;
#246 = ORIENTED_EDGE ( 'NONE', *, *, #247, .F. ) ;
#247 = EDGE_CURVE ( 'NONE', #70, #369, #267, .T. ) ;
#248 = DIRECTION ( 'NONE',  ( -1.000000000000000000, 0.0000000000000000000, 0.0000000000000000000 ) ) ;
#249 = FACE_OUTER_BOUND ( 'NONE', #19, .T. ) ;
#250 = ORIENTED_EDGE ( 'NONE', *, *, #279, .F. ) ;
#251 = ORIENTED_EDGE ( 'NONE', *, *, #198, .F. ) ;
#252 = EDGE_CURVE ( 'NONE', #128, #265, #17, .T. ) ;
#253 = ORIENTED_EDGE ( 'NONE', *, *, #252, .F. ) ;
#254 = DIRECTION ( 'NONE',  ( -1.000000000000000000, 0.0000000000000000000, 0.0000000000000000000 ) ) ;
#255 = CARTESIAN_POINT ( 'NONE',  ( 0.0000000000000000000, 0.0000000000000000000, 0.01968500000000000111 ) ) ;
#256 =( NAMED_UNIT ( * ) PLANE_ANGLE_UNIT ( ) SI_UNIT ( $, .RADIAN. ) );
#257 = SURFACE_SIDE_STYLE ('',( #151 ) ) ;
#258 = DIRECTION ( 'NONE',  ( -0.0000000000000000000, -0.0000000000000000000, -1.000000000000000000 ) ) ;
#259 = FACE_OUTER_BOUND ( 'NONE', #218, .T. ) ;
#260 = CARTESIAN_POINT ( 'NONE',  ( 0.0000000000000000000, 0.0000000000000000000, 0.0000000000000000000 ) ) ;
#261 = ADVANCED_FACE ( 'NONE', ( #331 ), #337, .T. ) ;
#262 = DIRECTION ( 'NONE',  ( -0.7071067811865507924, 0.0000000000000000000, -0.7071067811865443531 ) ) ;
#263 = MECHANICAL_DESIGN_GEOMETRIC_PRESENTATION_REPRESENTATION (  '', ( #47 ), #27 ) ;
#264 = ORIENTED_EDGE ( 'NONE', *, *, #105, .T. ) ;
#265 = VERTEX_POINT ( 'NONE', #353 ) ;
#266 = AXIS2_PLACEMENT_3D ( 'NONE', #80, #44, #235 ) ;
#267 = LINE ( 'NONE', #163, #67 ) ;
#268 = DIRECTION ( 'NONE',  ( -1.000000000000000000, 0.0000000000000000000, 0.0000000000000000000 ) ) ;
#269 = ORIENTED_EDGE ( 'NONE', *, *, #184, .F. ) ;
#270 = VECTOR ( 'NONE', #206, 39.37007874015748854 ) ;
#271 = DIRECTION ( 'NONE',  ( -0.0000000000000000000, -0.0000000000000000000, -1.000000000000000000 ) ) ;
#272 = ORIENTED_EDGE ( 'NONE', *, *, #87, .F. ) ;
#273 = CIRCLE ( 'NONE', #116, 0.009449000000000002536 ) ;
#274 = DIRECTION ( 'NONE',  ( 0.0000000000000000000, 0.0000000000000000000, 1.000000000000000000 ) ) ;
#275 = ORIENTED_EDGE ( 'NONE', *, *, #330, .T. ) ;
#276 = DIRECTION ( 'NONE',  ( -1.000000000000000000, 0.0000000000000000000, 0.0000000000000000000 ) ) ;
#277 = ORIENTED_EDGE ( 'NONE', *, *, #363, .T. ) ;
#278 = AXIS2_PLACEMENT_3D ( 'NONE', #97, #229, #373 ) ;
#279 = EDGE_CURVE ( 'NONE', #369, #65, #149, .T. ) ;
#280 = AXIS2_PLACEMENT_3D ( 'NONE', #110, #274, #315 ) ;
#281 = ORIENTED_EDGE ( 'NONE', *, *, #187, .F. ) ;
#282 = AXIS2_PLACEMENT_3D ( 'NONE', #255, #94, #204 ) ;
#283 = CYLINDRICAL_SURFACE ( 'NONE', #88, 0.009841515750000005142 ) ;
#284 = CARTESIAN_POINT ( 'NONE',  ( 0.0000000000000000000, 0.0000000000000000000, 1.968503999999999809 ) ) ;
#285 = AXIS2_PLACEMENT_3D ( 'NONE', #103, #135, #40 ) ;
#286 = CARTESIAN_POINT ( 'NONE',  ( 0.009841515750000005142, 1.205238076199577027E-18, 0.0000000000000000000 ) ) ;
#287 = AXIS2_PLACEMENT_3D ( 'NONE', #20, #176, #141 ) ;
#288 = LINE ( 'NONE', #234, #270 ) ;
#289 = DIRECTION ( 'NONE',  ( 0.7071067811865507924, 8.659560562354973534E-17, -0.7071067811865443531 ) ) ;
#290 = CARTESIAN_POINT ( 'NONE',  ( 0.009449000000000002536, 1.181203418356955733E-18, 0.02191106743688862185 ) ) ;
#291 = DIRECTION ( 'NONE',  ( 0.0000000000000000000, 0.0000000000000000000, -1.000000000000000000 ) ) ;
#292 = CIRCLE ( 'NONE', #236, 0.06374000000000018540 ) ;
#293 = CARTESIAN_POINT ( 'NONE',  ( 0.0000000000000000000, 0.0000000000000000000, 1.968503999999999809 ) ) ;
#294 = ADVANCED_BREP_SHAPE_REPRESENTATION ( 'Micro_MMBM-005-5', ( #74, #351 ), #25 ) ;
#295 = ADVANCED_FACE ( 'NONE', ( #166 ), #83, .T. ) ;
#296 = ORIENTED_EDGE ( 'NONE', *, *, #87, .T. ) ;
#297 = ORIENTED_EDGE ( 'NONE', *, *, #247, .T. ) ;
#298 = CONICAL_SURFACE ( 'NONE', #278, 0.009841515750000005142, 0.1745329251994333919 ) ;
#299 = CIRCLE ( 'NONE', #230, 0.07874000000000001831 ) ;
#300 = CARTESIAN_POINT ( 'NONE',  ( 0.009449000000000025087, 0.0000000000000000000, 0.1968500000000000250 ) ) ;
#301 = EDGE_CURVE ( 'NONE', #41, #164, #242, .T. ) ;
#302 = VERTEX_POINT ( 'NONE', #364 ) ;
#303 = ORIENTED_EDGE ( 'NONE', *, *, #130, .F. ) ;
#304 = EDGE_LOOP ( 'NONE', ( #358, #37, #136, #161 ) ) ;
#305 = LENGTH_MEASURE_WITH_UNIT ( LENGTH_MEASURE( 0.02539999999999999897 ), #51 );
#306 = EDGE_LOOP ( 'NONE', ( #335, #58 ) ) ;
#307 = DIRECTION ( 'NONE',  ( -0.0000000000000000000, -0.0000000000000000000, -1.000000000000000000 ) ) ;
#308 = DIRECTION ( 'NONE',  ( 0.0000000000000000000, 0.0000000000000000000, -1.000000000000000000 ) ) ;
#309 = FILL_AREA_STYLE_COLOUR ( '', #219 ) ;
#310 = PRODUCT_DEFINITION ( 'UNKNOWN', '', #53, #180 ) ;
#311 = CARTESIAN_POINT ( 'NONE',  ( 0.0000000000000000000, 0.0000000000000000000, 0.02191106743688862185 ) ) ;
#312 = DIRECTION ( 'NONE',  ( -0.0000000000000000000, -0.0000000000000000000, -1.000000000000000000 ) ) ;
#313 = SURFACE_STYLE_USAGE ( .BOTH. , #46 ) ;
#314 = AXIS2_PLACEMENT_3D ( 'NONE', #372, #341, #91 ) ;
#315 = DIRECTION ( 'NONE',  ( 1.000000000000000000, 0.0000000000000000000, -0.0000000000000000000 ) ) ;
#316 = DIRECTION ( 'NONE',  ( -0.0000000000000000000, -0.0000000000000000000, -1.000000000000000000 ) ) ;
#317 = EDGE_CURVE ( 'NONE', #65, #369, #367, .T. ) ;
#318 = DIRECTION ( 'NONE',  ( -1.000000000000000000, 0.0000000000000000000, 0.0000000000000000000 ) ) ;
#319 = CARTESIAN_POINT ( 'NONE',  ( 0.0000000000000000000, 0.0000000000000000000, 1.968503999999999809 ) ) ;
#320 = CARTESIAN_POINT ( 'NONE',  ( -0.009841515750000005142, 0.0000000000000000000, 0.0000000000000000000 ) ) ;
#321 = CIRCLE ( 'NONE', #211, 0.07874000000000001831 ) ;
#322 = EDGE_LOOP ( 'NONE', ( #159, #224 ) ) ;
#323 = PLANE ( 'NONE',  #240 ) ;
#324 = CARTESIAN_POINT ( 'NONE',  ( 0.06374000000000018540, 8.724383797125754882E-18, 1.968503999999999809 ) ) ;
#325 = CARTESIAN_POINT ( 'NONE',  ( 0.0000000000000000000, 0.0000000000000000000, 0.0000000000000000000 ) ) ;
#326 = ORIENTED_EDGE ( 'NONE', *, *, #198, .T. ) ;
#327 = APPLICATION_CONTEXT ( 'automotive_design' ) ;
#328 = DIRECTION ( 'NONE',  ( -1.000000000000000000, 0.0000000000000000000, 0.0000000000000000000 ) ) ;
#329 = ORIENTED_EDGE ( 'NONE', *, *, #301, .T. ) ;
#330 = EDGE_CURVE ( 'NONE', #128, #226, #158, .T. ) ;
#331 = FACE_OUTER_BOUND ( 'NONE', #304, .T. ) ;
#332 = ORIENTED_EDGE ( 'NONE', *, *, #105, .F. ) ;
#333 = DIRECTION ( 'NONE',  ( -0.0000000000000000000, -0.0000000000000000000, -1.000000000000000000 ) ) ;
#334 = ORIENTED_EDGE ( 'NONE', *, *, #143, .F. ) ;
#335 = ORIENTED_EDGE ( 'NONE', *, *, #34, .F. ) ;
#336 = PRODUCT_DEFINITION_SHAPE ( 'NONE', 'NONE',  #310 ) ;
#337 = CONICAL_SURFACE ( 'NONE', #35, 0.06374000000000018540, 0.7853981633974528309 ) ;
#338 = CYLINDRICAL_SURFACE ( 'NONE', #169, 0.07874000000000001831 ) ;
#339 = UNCERTAINTY_MEASURE_WITH_UNIT (LENGTH_MEASURE( 1.000000000000000082E-05 ), #368, 'distance_accuracy_value', 'NONE');
#340 = LINE ( 'NONE', #209, #215 ) ;
#341 = DIRECTION ( 'NONE',  ( 0.0000000000000000000, 0.0000000000000000000, 1.000000000000000000 ) ) ;
#342 =( NAMED_UNIT ( * ) SI_UNIT ( $, .STERADIAN. ) SOLID_ANGLE_UNIT ( ) );
#343 = CARTESIAN_POINT ( 'NONE',  ( 0.0000000000000000000, 0.0000000000000000000, 0.0000000000000000000 ) ) ;
#344 = DIRECTION ( 'NONE',  ( -1.000000000000000000, 0.0000000000000000000, 0.0000000000000000000 ) ) ;
#345 = CARTESIAN_POINT ( 'NONE',  ( 0.0000000000000000000, 0.0000000000000000000, 1.968503999999999809 ) ) ;
#346 = VECTOR ( 'NONE', #289, 39.37007874015748143 ) ;
#347 =( NAMED_UNIT ( * ) SI_UNIT ( $, .STERADIAN. ) SOLID_ANGLE_UNIT ( ) );
#348 =( LENGTH_UNIT ( ) NAMED_UNIT ( * ) SI_UNIT ( $, .METRE. ) );
#349 = FACE_OUTER_BOUND ( 'NONE', #9, .T. ) ;
#350 = ORIENTED_EDGE ( 'NONE', *, *, #187, .T. ) ;
#351 = AXIS2_PLACEMENT_3D ( 'NONE', #64, #36, #32 ) ;
#352 =( NAMED_UNIT ( * ) SI_UNIT ( $, .STERADIAN. ) SOLID_ANGLE_UNIT ( ) );
#353 = CARTESIAN_POINT ( 'NONE',  ( 0.07874000000000001831, 9.642868896486260050E-18, 0.1968500000000001082 ) ) ;
#354 = ORIENTED_EDGE ( 'NONE', *, *, #127, .F. ) ;
#355 = ADVANCED_FACE ( 'NONE', ( #57 ), #193, .T. ) ;
#356 = PRESENTATION_LAYER_ASSIGNMENT (  '', '', ( #370 ) ) ;
#357 = DIRECTION ( 'NONE',  ( 0.0000000000000000000, 0.0000000000000000000, 1.000000000000000000 ) ) ;
#358 = ORIENTED_EDGE ( 'NONE', *, *, #363, .F. ) ;
#359 = ADVANCED_FACE ( 'NONE', ( #259 ), #223, .T. ) ;
#360 = CARTESIAN_POINT ( 'NONE',  ( 0.07874000000000001831, 9.642868896486260050E-18, 1.968503999999999809 ) ) ;
#361 = ORIENTED_EDGE ( 'NONE', *, *, #130, .T. ) ;
#362 = PRODUCT_RELATED_PRODUCT_CATEGORY ( 'part', '', ( #227 ) ) ;
#363 = EDGE_CURVE ( 'NONE', #220, #128, #378, .T. ) ;
#364 = CARTESIAN_POINT ( 'NONE',  ( -0.009449000000000025087, 0.0000000000000000000, 0.1968500000000000250 ) ) ;
#365 = ORIENTED_EDGE ( 'NONE', *, *, #317, .F. ) ;
#366 = CIRCLE ( 'NONE', #10, 0.009841515750000005142 ) ;
#367 = CIRCLE ( 'NONE', #79, 0.009841515750000005142 ) ;
#368 =( CONVERSION_BASED_UNIT ( 'INCH', #305 ) LENGTH_UNIT ( ) NAMED_UNIT ( #115 ) );
#369 = VERTEX_POINT ( 'NONE', #320 ) ;
#370 = STYLED_ITEM ( 'NONE', ( #119 ), #294 ) ;
#371 = FILL_AREA_STYLE ('',( #309 ) ) ;
#372 = CARTESIAN_POINT ( 'NONE',  ( 0.0000000000000000000, 0.0000000000000000000, 1.968503999999999809 ) ) ;
#373 = DIRECTION ( 'NONE',  ( -1.000000000000000000, 0.0000000000000000000, 0.0000000000000000000 ) ) ;
#374 = CONICAL_SURFACE ( 'NONE', #282, 0.009841515750000005142, 0.1745329251994333919 ) ;
#375 = DIRECTION ( 'NONE',  ( -0.1736481776669307475, 0.0000000000000000000, -0.9848077530122077983 ) ) ;
#376 = SURFACE_STYLE_USAGE ( .BOTH. , #257 ) ;
#377 = LINE ( 'NONE', #118, #137 ) ;
#378 = LINE ( 'NONE', #203, #346 ) ;
#379 = EDGE_CURVE ( 'NONE', #142, #41, #173, .T. ) ;
ENDSEC;
END-ISO-10303-21;
