ISO-10303-21;
HEADER;
FILE_DESCRIPTION (( 'STEP AP214' ),
    '1' );
FILE_NAME ('23020.STEP',
    '2023-06-22T16:28:40',
    ( '' ),
    ( '' ),
    'SwSTEP 2.0',
    'SolidWorks 2023',
    '' );
FILE_SCHEMA (( 'AUTOMOTIVE_DESIGN' ));
ENDSEC;

DATA;
#1 = DIRECTION ( 'NONE',  ( -0.000000000000000000, -1.000000000000000000, -0.000000000000000000 ) ) ;
#2 = EDGE_CURVE ( 'NONE', #203, #222, #54, .T. ) ;
#3 = PRESENTATION_STYLE_ASSIGNMENT (( #284 ) ) ;
#4 = ORIENTED_EDGE ( 'NONE', *, *, #193, .T. ) ;
#5 = STYLED_ITEM ( 'NONE', ( #112 ), #165 ) ;
#6 = SURFACE_SIDE_STYLE ('',( #149 ) ) ;
#7 = DIRECTION ( 'NONE',  ( -0.000000000000000000, -1.000000000000000000, -0.000000000000000000 ) ) ;
#8 = EDGE_LOOP ( 'NONE', ( #152, #285, #125, #148 ) ) ;
#9 = EDGE_CURVE ( 'NONE', #218, #203, #135, .T. ) ;
#10 = DIRECTION ( 'NONE',  ( -1.000000000000000000, 0.000000000000000000, 0.000000000000000000 ) ) ;
#11 = ORIENTED_EDGE ( 'NONE', *, *, #211, .T. ) ;
#12 = AXIS2_PLACEMENT_3D ( 'NONE', #127, #197, #283 ) ;
#13 =( NAMED_UNIT ( * ) SI_UNIT ( $, .STERADIAN. ) SOLID_ANGLE_UNIT ( ) );
#14 =( CONVERSION_BASED_UNIT ( 'INCH', #297 ) LENGTH_UNIT ( ) NAMED_UNIT ( #267 ) );
#15 = DIRECTION ( 'NONE',  ( 0.000000000000000000, -1.000000000000000000, -0.000000000000000000 ) ) ;
#16 = STYLED_ITEM ( 'NONE', ( #85 ), #166 ) ;
#17 = DIRECTION ( 'NONE',  ( -6.123233995736766036E-17, 1.000000000000000000, 0.000000000000000000 ) ) ;
#18 = EDGE_CURVE ( 'NONE', #292, #77, #259, .T. ) ;
#19 = MECHANICAL_DESIGN_GEOMETRIC_PRESENTATION_REPRESENTATION (  '', ( #106 ), #95 ) ;
#20 = VECTOR ( 'NONE', #1, 39.37007874015748143 ) ;
#21 = UNCERTAINTY_MEASURE_WITH_UNIT (LENGTH_MEASURE( 1.000000000000000082E-05 ), #254, 'distance_accuracy_value', 'NONE');
#22 = DIRECTION ( 'NONE',  ( -0.000000000000000000, -1.000000000000000000, -0.000000000000000000 ) ) ;
#23 = DIRECTION ( 'NONE',  ( 0.000000000000000000, 0.000000000000000000, -1.000000000000000000 ) ) ;
#24 = AXIS2_PLACEMENT_3D ( 'NONE', #33, #298, #10 ) ;
#25 = ORIENTED_EDGE ( 'NONE', *, *, #177, .F. ) ;
#26 = PRODUCT_DEFINITION ( 'UNKNOWN', '', #45, #157 ) ;
#27 = FACE_OUTER_BOUND ( 'NONE', #121, .T. ) ;
#28 = EDGE_LOOP ( 'NONE', ( #49, #265 ) ) ;
#29 = CARTESIAN_POINT ( 'NONE',  ( 7.654042494670960626E-18, 0.000000000000000000, 0.06250000000000002776 ) ) ;
#30 = ORIENTED_EDGE ( 'NONE', *, *, #177, .T. ) ;
#31 =( GEOMETRIC_REPRESENTATION_CONTEXT ( 3 ) GLOBAL_UNCERTAINTY_ASSIGNED_CONTEXT ( ( #21 ) ) GLOBAL_UNIT_ASSIGNED_CONTEXT ( ( #254, #138, #113 ) ) REPRESENTATION_CONTEXT ( 'NONE', 'WORKASPACE' ) );
#32 = SURFACE_STYLE_FILL_AREA ( #76 ) ;
#33 = CARTESIAN_POINT ( 'NONE',  ( -1.224646799147353207E-16, 2.500000000000000000, 0.000000000000000000 ) ) ;
#34 = PLANE ( 'NONE',  #12 ) ;
#35 =( CONVERSION_BASED_UNIT ( 'INCH', #107 ) LENGTH_UNIT ( ) NAMED_UNIT ( #155 ) );
#36 =( CONVERSION_BASED_UNIT ( 'INCH', #303 ) LENGTH_UNIT ( ) NAMED_UNIT ( #48 ) );
#37 = DIRECTION ( 'NONE',  ( 0.000000000000000000, 0.000000000000000000, 1.000000000000000000 ) ) ;
#38 = LINE ( 'NONE', #159, #276 ) ;
#39 = ADVANCED_FACE ( 'NONE', ( #154 ), #34, .F. ) ;
#40 = AXIS2_PLACEMENT_3D ( 'NONE', #257, #17, #111 ) ;
#41 = STYLED_ITEM ( 'NONE', ( #3 ), #293 ) ;
#42 = CARTESIAN_POINT ( 'NONE',  ( 0.000000000000000000, 0.5000000000000001110, 0.000000000000000000 ) ) ;
#43 = SURFACE_STYLE_FILL_AREA ( #275 ) ;
#44 = DIRECTION ( 'NONE',  ( 0.000000000000000000, 0.000000000000000000, -1.000000000000000000 ) ) ;
#45 = PRODUCT_DEFINITION_FORMATION_WITH_SPECIFIED_SOURCE ( 'ANY', '', #104, .NOT_KNOWN. ) ;
#46 =( LENGTH_UNIT ( ) NAMED_UNIT ( * ) SI_UNIT ( $, .METRE. ) );
#47 = CARTESIAN_POINT ( 'NONE',  ( 0.000000000000000000, 0.5000000000000000000, -0.06250000000000000000 ) ) ;
#48 = DIMENSIONAL_EXPONENTS ( 1.000000000000000000, 0.000000000000000000, 0.000000000000000000, 0.000000000000000000, 0.000000000000000000, 0.000000000000000000, 0.000000000000000000 ) ;
#49 = ORIENTED_EDGE ( 'NONE', *, *, #133, .T. ) ;
#50 = CARTESIAN_POINT ( 'NONE',  ( 0.000000000000000000, 0.000000000000000000, -0.06250000000000001388 ) ) ;
#51 = ORIENTED_EDGE ( 'NONE', *, *, #287, .F. ) ;
#52 = ADVANCED_FACE ( 'NONE', ( #299 ), #83, .T. ) ;
#53 = FILL_AREA_STYLE_COLOUR ( '', #209 ) ;
#54 = LINE ( 'NONE', #202, #64 ) ;
#55 = SURFACE_SIDE_STYLE ('',( #32 ) ) ;
#56 = DIMENSIONAL_EXPONENTS ( 1.000000000000000000, 0.000000000000000000, 0.000000000000000000, 0.000000000000000000, 0.000000000000000000, 0.000000000000000000, 0.000000000000000000 ) ;
#57 =( LENGTH_UNIT ( ) NAMED_UNIT ( * ) SI_UNIT ( $, .METRE. ) );
#58 = FILL_AREA_STYLE ('',( #231 ) ) ;
#59 = DIRECTION ( 'NONE',  ( 0.000000000000000000, 0.000000000000000000, -1.000000000000000000 ) ) ;
#60 = DIRECTION ( 'NONE',  ( -0.000000000000000000, -1.000000000000000000, -0.000000000000000000 ) ) ;
#61 = CARTESIAN_POINT ( 'NONE',  ( 7.654042494670959086E-18, 0.5000000000000000000, 0.06250000000000000000 ) ) ;
#62 = PRODUCT_RELATED_PRODUCT_CATEGORY ( 'part', '', ( #104 ) ) ;
#63 = DIRECTION ( 'NONE',  ( 0.000000000000000000, 1.000000000000000000, 0.000000000000000000 ) ) ;
#64 = VECTOR ( 'NONE', #288, 39.37007874015748143 ) ;
#65 = SURFACE_STYLE_USAGE ( .BOTH. , #281 ) ;
#66 =( LENGTH_UNIT ( ) NAMED_UNIT ( * ) SI_UNIT ( $, .METRE. ) );
#67 = CIRCLE ( 'NONE', #78, 0.06250000000000000000 ) ;
#68 = MECHANICAL_DESIGN_GEOMETRIC_PRESENTATION_REPRESENTATION (  '', ( #41 ), #245 ) ;
#69 = CARTESIAN_POINT ( 'NONE',  ( -1.224646799147353207E-16, 2.500000000000000000, 0.000000000000000000 ) ) ;
#70 = EDGE_LOOP ( 'NONE', ( #119, #261 ) ) ;
#71 = ORIENTED_EDGE ( 'NONE', *, *, #287, .T. ) ;
#72 = CIRCLE ( 'NONE', #89, 0.06250000000000012490 ) ;
#73 = CARTESIAN_POINT ( 'NONE',  ( 0.000000000000000000, 0.5000000000000001110, 0.000000000000000000 ) ) ;
#74 = PRESENTATION_STYLE_ASSIGNMENT (( #171 ) ) ;
#75 = ORIENTED_EDGE ( 'NONE', *, *, #269, .T. ) ;
#76 = FILL_AREA_STYLE ('',( #199 ) ) ;
#77 = VERTEX_POINT ( 'NONE', #134 ) ;
#78 = AXIS2_PLACEMENT_3D ( 'NONE', #42, #236, #87 ) ;
#79 =( LENGTH_UNIT ( ) NAMED_UNIT ( * ) SI_UNIT ( $, .METRE. ) );
#80 = APPLICATION_PROTOCOL_DEFINITION ( 'draft international standard', 'automotive_design', 1998, #239 ) ;
#81 = CARTESIAN_POINT ( 'NONE',  ( 0.000000000000000000, 0.5000000000000000000, 0.000000000000000000 ) ) ;
#82 = PLANE ( 'NONE',  #221 ) ;
#83 = PLANE ( 'NONE',  #233 ) ;
#84 = UNCERTAINTY_MEASURE_WITH_UNIT (LENGTH_MEASURE( 1.000000000000000082E-05 ), #169, 'distance_accuracy_value', 'NONE');
#85 = PRESENTATION_STYLE_ASSIGNMENT (( #192 ) ) ;
#86 = AXIS2_PLACEMENT_3D ( 'NONE', #73, #174, #263 ) ;
#87 = DIRECTION ( 'NONE',  ( -1.000000000000000000, 0.000000000000000000, 0.000000000000000000 ) ) ;
#88 = PLANE ( 'NONE',  #40 ) ;
#89 = AXIS2_PLACEMENT_3D ( 'NONE', #210, #164, #190 ) ;
#90 = CARTESIAN_POINT ( 'NONE',  ( 0.06249999999999999306, 0.5000000000000001110, 7.654042494670968330E-18 ) ) ;
#91 = CYLINDRICAL_SURFACE ( 'NONE', #108, 0.06250000000000001388 ) ;
#92 = UNCERTAINTY_MEASURE_WITH_UNIT (LENGTH_MEASURE( 1.000000000000000082E-05 ), #36, 'distance_accuracy_value', 'NONE');
#93 = LENGTH_MEASURE_WITH_UNIT ( LENGTH_MEASURE( 0.02539999999999999897 ), #223 );
#94 = ORIENTED_EDGE ( 'NONE', *, *, #141, .T. ) ;
#95 =( GEOMETRIC_REPRESENTATION_CONTEXT ( 3 ) GLOBAL_UNCERTAINTY_ASSIGNED_CONTEXT ( ( #92 ) ) GLOBAL_UNIT_ASSIGNED_CONTEXT ( ( #36, #129, #13 ) ) REPRESENTATION_CONTEXT ( 'NONE', 'WORKASPACE' ) );
#96 = AXIS2_PLACEMENT_3D ( 'NONE', #124, #178, #241 ) ;
#97 = ADVANCED_FACE ( 'NONE', ( #131 ), #82, .T. ) ;
#98 = VERTEX_POINT ( 'NONE', #61 ) ;
#99 = FACE_OUTER_BOUND ( 'NONE', #226, .T. ) ;
#100 = APPLICATION_PROTOCOL_DEFINITION ( 'draft international standard', 'automotive_design', 1998, #126 ) ;
#101 = ADVANCED_BREP_SHAPE_REPRESENTATION ( '23020', ( #166, #165, #186 ), #123 ) ;
#102 = DIRECTION ( 'NONE',  ( 0.000000000000000000, -0.000000000000000000, 1.000000000000000000 ) ) ;
#103 = MECHANICAL_DESIGN_GEOMETRIC_PRESENTATION_REPRESENTATION (  '', ( #208 ), #279 ) ;
#104 = PRODUCT ( '23020', '23020', '', ( #228 ) ) ;
#105 = EDGE_CURVE ( 'NONE', #218, #170, #38, .T. ) ;
#106 = STYLED_ITEM ( 'NONE', ( #183 ), #97 ) ;
#107 = LENGTH_MEASURE_WITH_UNIT ( LENGTH_MEASURE( 0.02539999999999999897 ), #57 );
#108 = AXIS2_PLACEMENT_3D ( 'NONE', #225, #60, #187 ) ;
#109 = CARTESIAN_POINT ( 'NONE',  ( 7.654042494670959086E-18, 0.000000000000000000, 0.06250000000000001388 ) ) ;
#110 = UNCERTAINTY_MEASURE_WITH_UNIT (LENGTH_MEASURE( 1.000000000000000082E-05 ), #191, 'distance_accuracy_value', 'NONE');
#111 = DIRECTION ( 'NONE',  ( -1.000000000000000000, -6.123233995736766036E-17, 0.000000000000000000 ) ) ;
#112 = PRESENTATION_STYLE_ASSIGNMENT (( #65 ) ) ;
#113 =( NAMED_UNIT ( * ) SI_UNIT ( $, .STERADIAN. ) SOLID_ANGLE_UNIT ( ) );
#114 = DIRECTION ( 'NONE',  ( 0.000000000000000000, 0.000000000000000000, -1.000000000000000000 ) ) ;
#115 = LENGTH_MEASURE_WITH_UNIT ( LENGTH_MEASURE( 0.02539999999999999897 ), #66 );
#116 = EDGE_CURVE ( 'NONE', #98, #292, #301, .T. ) ;
#117 = CYLINDRICAL_SURFACE ( 'NONE', #256, 0.06250000000000001388 ) ;
#118 = DIRECTION ( 'NONE',  ( -0.000000000000000000, -1.000000000000000000, -0.000000000000000000 ) ) ;
#119 = ORIENTED_EDGE ( 'NONE', *, *, #193, .F. ) ;
#120 = LINE ( 'NONE', #50, #20 ) ;
#121 = EDGE_LOOP ( 'NONE', ( #258, #11, #71, #176 ) ) ;
#122 = ORIENTED_EDGE ( 'NONE', *, *, #269, .F. ) ;
#123 =( GEOMETRIC_REPRESENTATION_CONTEXT ( 3 ) GLOBAL_UNCERTAINTY_ASSIGNED_CONTEXT ( ( #160 ) ) GLOBAL_UNIT_ASSIGNED_CONTEXT ( ( #35, #273, #207 ) ) REPRESENTATION_CONTEXT ( 'NONE', 'WORKASPACE' ) );
#124 = CARTESIAN_POINT ( 'NONE',  ( -1.224646799147353207E-16, 2.500000000000000000, 0.000000000000000000 ) ) ;
#125 = ORIENTED_EDGE ( 'NONE', *, *, #2, .T. ) ;
#126 = APPLICATION_CONTEXT ( 'automotive_design' ) ;
#127 = CARTESIAN_POINT ( 'NONE',  ( 0.06250000000000000000, 2.500000000000000000, 0.000000000000000000 ) ) ;
#128 = DIMENSIONAL_EXPONENTS ( 1.000000000000000000, 0.000000000000000000, 0.000000000000000000, 0.000000000000000000, 0.000000000000000000, 0.000000000000000000, 0.000000000000000000 ) ;
#129 =( NAMED_UNIT ( * ) PLANE_ANGLE_UNIT ( ) SI_UNIT ( $, .RADIAN. ) );
#130 = PRESENTATION_LAYER_ASSIGNMENT (  '', '', ( #208 ) ) ;
#131 = FACE_OUTER_BOUND ( 'NONE', #28, .T. ) ;
#132 = CARTESIAN_POINT ( 'NONE',  ( 0.000000000000000000, 0.000000000000000000, 0.000000000000000000 ) ) ;
#133 = EDGE_CURVE ( 'NONE', #77, #292, #153, .T. ) ;
#134 = CARTESIAN_POINT ( 'NONE',  ( 0.000000000000000000, 0.000000000000000000, -0.06250000000000001388 ) ) ;
#135 = CIRCLE ( 'NONE', #86, 0.06250000000000000000 ) ;
#136 = SURFACE_STYLE_FILL_AREA ( #161 ) ;
#137 = FILL_AREA_STYLE_COLOUR ( '', #250 ) ;
#138 =( NAMED_UNIT ( * ) PLANE_ANGLE_UNIT ( ) SI_UNIT ( $, .RADIAN. ) );
#139 = FILL_AREA_STYLE ('',( #137 ) ) ;
#140 =( GEOMETRIC_REPRESENTATION_CONTEXT ( 3 ) GLOBAL_UNCERTAINTY_ASSIGNED_CONTEXT ( ( #110 ) ) GLOBAL_UNIT_ASSIGNED_CONTEXT ( ( #191, #305, #253 ) ) REPRESENTATION_CONTEXT ( 'NONE', 'WORKASPACE' ) );
#141 = EDGE_CURVE ( 'NONE', #170, #222, #72, .T. ) ;
#142 = CARTESIAN_POINT ( 'NONE',  ( 0.06249999999999999306, 2.500000000000000000, 7.654042494670968330E-18 ) ) ;
#143 = LENGTH_MEASURE_WITH_UNIT ( LENGTH_MEASURE( 0.02539999999999999897 ), #46 );
#144 = LENGTH_MEASURE_WITH_UNIT ( LENGTH_MEASURE( 0.02539999999999999897 ), #291 );
#145 = ORIENTED_EDGE ( 'NONE', *, *, #133, .F. ) ;
#146 = UNCERTAINTY_MEASURE_WITH_UNIT (LENGTH_MEASURE( 1.000000000000000082E-05 ), #14, 'distance_accuracy_value', 'NONE');
#147 =( CONVERSION_BASED_UNIT ( 'INCH', #93 ) LENGTH_UNIT ( ) NAMED_UNIT ( #128 ) );
#148 = ORIENTED_EDGE ( 'NONE', *, *, #141, .F. ) ;
#149 = SURFACE_STYLE_FILL_AREA ( #200 ) ;
#150 = CARTESIAN_POINT ( 'NONE',  ( 0.000000000000000000, 0.000000000000000000, 0.000000000000000000 ) ) ;
#151 = CYLINDRICAL_SURFACE ( 'NONE', #307, 0.06250000000000005551 ) ;
#152 = ORIENTED_EDGE ( 'NONE', *, *, #105, .F. ) ;
#153 = CIRCLE ( 'NONE', #167, 0.06250000000000001388 ) ;
#154 = FACE_OUTER_BOUND ( 'NONE', #224, .T. ) ;
#155 = DIMENSIONAL_EXPONENTS ( 1.000000000000000000, 0.000000000000000000, 0.000000000000000000, 0.000000000000000000, 0.000000000000000000, 0.000000000000000000, 0.000000000000000000 ) ;
#156 = SURFACE_SIDE_STYLE ('',( #229 ) ) ;
#157 = PRODUCT_DEFINITION_CONTEXT ( 'detailed design', #239, 'design' ) ;
#158 = DIRECTION ( 'NONE',  ( -6.123233995736766036E-17, 1.000000000000000000, -0.000000000000000000 ) ) ;
#159 = CARTESIAN_POINT ( 'NONE',  ( 0.06249999999999993755, 2.500000000000000000, 7.654042494670965249E-18 ) ) ;
#160 = UNCERTAINTY_MEASURE_WITH_UNIT (LENGTH_MEASURE( 1.000000000000000082E-05 ), #35, 'distance_accuracy_value', 'NONE');
#161 = FILL_AREA_STYLE ('',( #188 ) ) ;
#162 = AXIS2_PLACEMENT_3D ( 'NONE', #277, #22, #114 ) ;
#163 = COLOUR_RGB ( '',1.000000000000000000, 0.000000000000000000, 0.000000000000000000 ) ;
#164 = DIRECTION ( 'NONE',  ( -6.123233995736766036E-17, 1.000000000000000000, -0.000000000000000000 ) ) ;
#165 = MANIFOLD_SOLID_BREP ( 'Revolve - Tool Body (Straight Shanked)', #232 ) ;
#166 = MANIFOLD_SOLID_BREP ( 'Revolve - Cutting Edge', #206 ) ;
#167 = AXIS2_PLACEMENT_3D ( 'NONE', #132, #189, #44 ) ;
#168 = CARTESIAN_POINT ( 'NONE',  ( -0.06250000000000000000, 0.5000000000000001110, 0.000000000000000000 ) ) ;
#169 =( CONVERSION_BASED_UNIT ( 'INCH', #144 ) LENGTH_UNIT ( ) NAMED_UNIT ( #56 ) );
#170 = VERTEX_POINT ( 'NONE', #142 ) ;
#171 = SURFACE_STYLE_USAGE ( .BOTH. , #6 ) ;
#172 = ORIENTED_EDGE ( 'NONE', *, *, #9, .F. ) ;
#173 =( NAMED_UNIT ( * ) SI_UNIT ( $, .STERADIAN. ) SOLID_ANGLE_UNIT ( ) );
#174 = DIRECTION ( 'NONE',  ( -6.123233995736766036E-17, 1.000000000000000000, -0.000000000000000000 ) ) ;
#175 = CARTESIAN_POINT ( 'NONE',  ( -0.06250000000000023592, 2.500000000000000000, 0.000000000000000000 ) ) ;
#176 = ORIENTED_EDGE ( 'NONE', *, *, #18, .F. ) ;
#177 = EDGE_CURVE ( 'NONE', #203, #218, #67, .T. ) ;
#178 = DIRECTION ( 'NONE',  ( -6.123233995736766036E-17, 1.000000000000000000, -0.000000000000000000 ) ) ;
#179 = ORIENTED_EDGE ( 'NONE', *, *, #2, .F. ) ;
#180 = AXIS2_PLACEMENT_3D ( 'NONE', #212, #237, #23 ) ;
#181 = CYLINDRICAL_SURFACE ( 'NONE', #24, 0.06250000000000005551 ) ;
#182 = DIMENSIONAL_EXPONENTS ( 1.000000000000000000, 0.000000000000000000, 0.000000000000000000, 0.000000000000000000, 0.000000000000000000, 0.000000000000000000, 0.000000000000000000 ) ;
#183 = PRESENTATION_STYLE_ASSIGNMENT (( #184 ) ) ;
#184 = SURFACE_STYLE_USAGE ( .BOTH. , #205 ) ;
#185 = MECHANICAL_DESIGN_GEOMETRIC_PRESENTATION_REPRESENTATION (  '', ( #16 ), #31 ) ;
#186 = AXIS2_PLACEMENT_3D ( 'NONE', #270, #37, #294 ) ;
#187 = DIRECTION ( 'NONE',  ( 0.000000000000000000, 0.000000000000000000, -1.000000000000000000 ) ) ;
#188 = FILL_AREA_STYLE_COLOUR ( '', #255 ) ;
#189 = DIRECTION ( 'NONE',  ( -0.000000000000000000, -1.000000000000000000, -0.000000000000000000 ) ) ;
#190 = DIRECTION ( 'NONE',  ( -1.000000000000000000, 0.000000000000000000, 0.000000000000000000 ) ) ;
#191 =( CONVERSION_BASED_UNIT ( 'INCH', #143 ) LENGTH_UNIT ( ) NAMED_UNIT ( #182 ) );
#192 = SURFACE_STYLE_USAGE ( .BOTH. , #278 ) ;
#193 = EDGE_CURVE ( 'NONE', #219, #98, #244, .T. ) ;
#194 = PRESENTATION_LAYER_ASSIGNMENT (  '', '', ( #215 ) ) ;
#195 = FACE_OUTER_BOUND ( 'NONE', #8, .T. ) ;
#196 = PRODUCT_DEFINITION_SHAPE ( 'NONE', 'NONE',  #26 ) ;
#197 = DIRECTION ( 'NONE',  ( 6.123233995736766036E-17, -1.000000000000000000, 0.000000000000000000 ) ) ;
#198 = UNCERTAINTY_MEASURE_WITH_UNIT (LENGTH_MEASURE( 1.000000000000000082E-05 ), #147, 'distance_accuracy_value', 'NONE');
#199 = FILL_AREA_STYLE_COLOUR ( '', #163 ) ;
#200 = FILL_AREA_STYLE ('',( #53 ) ) ;
#201 = PRESENTATION_LAYER_ASSIGNMENT (  '', '', ( #5 ) ) ;
#202 = CARTESIAN_POINT ( 'NONE',  ( -0.06250000000000018041, 2.500000000000000000, 0.000000000000000000 ) ) ;
#203 = VERTEX_POINT ( 'NONE', #168 ) ;
#204 = DIRECTION ( 'NONE',  ( 0.000000000000000000, 0.000000000000000000, -1.000000000000000000 ) ) ;
#205 = SURFACE_SIDE_STYLE ('',( #136 ) ) ;
#206 = CLOSED_SHELL ( 'NONE', ( #238, #52, #293, #97 ) ) ;
#207 =( NAMED_UNIT ( * ) SI_UNIT ( $, .STERADIAN. ) SOLID_ANGLE_UNIT ( ) );
#208 = STYLED_ITEM ( 'NONE', ( #234 ), #52 ) ;
#209 = COLOUR_RGB ( '',1.000000000000000000, 0.000000000000000000, 0.000000000000000000 ) ;
#210 = CARTESIAN_POINT ( 'NONE',  ( -1.224646799147353207E-16, 2.500000000000000000, 0.000000000000000000 ) ) ;
#211 = EDGE_CURVE ( 'NONE', #98, #219, #266, .T. ) ;
#212 = CARTESIAN_POINT ( 'NONE',  ( 0.000000000000000000, 0.5000000000000000000, 0.000000000000000000 ) ) ;
#213 = FILL_AREA_STYLE_COLOUR ( '', #286 ) ;
#214 = VECTOR ( 'NONE', #251, 39.37007874015748143 ) ;
#215 = STYLED_ITEM ( 'NONE', ( #74 ), #238 ) ;
#216 = ADVANCED_FACE ( 'NONE', ( #308 ), #88, .F. ) ;
#217 = CARTESIAN_POINT ( 'NONE',  ( 0.000000000000000000, 0.000000000000000000, 0.000000000000000000 ) ) ;
#218 = VERTEX_POINT ( 'NONE', #90 ) ;
#219 = VERTEX_POINT ( 'NONE', #47 ) ;
#220 =( NAMED_UNIT ( * ) PLANE_ANGLE_UNIT ( ) SI_UNIT ( $, .RADIAN. ) );
#221 = AXIS2_PLACEMENT_3D ( 'NONE', #271, #15, #59 ) ;
#222 = VERTEX_POINT ( 'NONE', #175 ) ;
#223 =( LENGTH_UNIT ( ) NAMED_UNIT ( * ) SI_UNIT ( $, .METRE. ) );
#224 = EDGE_LOOP ( 'NONE', ( #75, #94 ) ) ;
#225 = CARTESIAN_POINT ( 'NONE',  ( 0.000000000000000000, 0.000000000000000000, 0.000000000000000000 ) ) ;
#226 = EDGE_LOOP ( 'NONE', ( #4, #247, #145, #51 ) ) ;
#227 = SHAPE_DEFINITION_REPRESENTATION ( #196, #101 ) ;
#228 = PRODUCT_CONTEXT ( 'NONE', #126, 'mechanical' ) ;
#229 = SURFACE_STYLE_FILL_AREA ( #58 ) ;
#230 = ADVANCED_FACE ( 'NONE', ( #195 ), #151, .T. ) ;
#231 = FILL_AREA_STYLE_COLOUR ( '', #240 ) ;
#232 = CLOSED_SHELL ( 'NONE', ( #304, #216, #230, #39 ) ) ;
#233 = AXIS2_PLACEMENT_3D ( 'NONE', #81, #63, #102 ) ;
#234 = PRESENTATION_STYLE_ASSIGNMENT (( #274 ) ) ;
#235 = SURFACE_STYLE_FILL_AREA ( #139 ) ;
#236 = DIRECTION ( 'NONE',  ( -6.123233995736766036E-17, 1.000000000000000000, -0.000000000000000000 ) ) ;
#237 = DIRECTION ( 'NONE',  ( -0.000000000000000000, -1.000000000000000000, -0.000000000000000000 ) ) ;
#238 = ADVANCED_FACE ( 'NONE', ( #99 ), #117, .T. ) ;
#239 = APPLICATION_CONTEXT ( 'automotive_design' ) ;
#240 = COLOUR_RGB ( '',1.000000000000000000, 0.000000000000000000, 0.000000000000000000 ) ;
#241 = DIRECTION ( 'NONE',  ( -1.000000000000000000, 0.000000000000000000, 0.000000000000000000 ) ) ;
#242 = EDGE_LOOP ( 'NONE', ( #30, #290, #122, #179 ) ) ;
#243 =( NAMED_UNIT ( * ) PLANE_ANGLE_UNIT ( ) SI_UNIT ( $, .RADIAN. ) );
#244 = CIRCLE ( 'NONE', #162, 0.06250000000000000000 ) ;
#245 =( GEOMETRIC_REPRESENTATION_CONTEXT ( 3 ) GLOBAL_UNCERTAINTY_ASSIGNED_CONTEXT ( ( #198 ) ) GLOBAL_UNIT_ASSIGNED_CONTEXT ( ( #147, #220, #289 ) ) REPRESENTATION_CONTEXT ( 'NONE', 'WORKASPACE' ) );
#246 = DIRECTION ( 'NONE',  ( 0.000000000000000000, 0.000000000000000000, -1.000000000000000000 ) ) ;
#247 = ORIENTED_EDGE ( 'NONE', *, *, #116, .T. ) ;
#248 = FACE_OUTER_BOUND ( 'NONE', #242, .T. ) ;
#249 =( NAMED_UNIT ( * ) PLANE_ANGLE_UNIT ( ) SI_UNIT ( $, .RADIAN. ) );
#250 = COLOUR_RGB ( '',0.7921568627450980005, 0.8196078431372548767, 0.9333333333333333481 ) ;
#251 = DIRECTION ( 'NONE',  ( -0.000000000000000000, -1.000000000000000000, -0.000000000000000000 ) ) ;
#252 =( LENGTH_UNIT ( ) NAMED_UNIT ( * ) SI_UNIT ( $, .METRE. ) );
#253 =( NAMED_UNIT ( * ) SI_UNIT ( $, .STERADIAN. ) SOLID_ANGLE_UNIT ( ) );
#254 =( CONVERSION_BASED_UNIT ( 'INCH', #115 ) LENGTH_UNIT ( ) NAMED_UNIT ( #262 ) );
#255 = COLOUR_RGB ( '',1.000000000000000000, 0.000000000000000000, 0.000000000000000000 ) ;
#256 = AXIS2_PLACEMENT_3D ( 'NONE', #217, #118, #204 ) ;
#257 = CARTESIAN_POINT ( 'NONE',  ( 1.171687330204576256E-34, 0.5000000000000000000, 0.000000000000000000 ) ) ;
#258 = ORIENTED_EDGE ( 'NONE', *, *, #116, .F. ) ;
#259 = CIRCLE ( 'NONE', #306, 0.06250000000000001388 ) ;
#260 = PRESENTATION_LAYER_ASSIGNMENT (  '', '', ( #41 ) ) ;
#261 = ORIENTED_EDGE ( 'NONE', *, *, #211, .F. ) ;
#262 = DIMENSIONAL_EXPONENTS ( 1.000000000000000000, 0.000000000000000000, 0.000000000000000000, 0.000000000000000000, 0.000000000000000000, 0.000000000000000000, 0.000000000000000000 ) ;
#263 = DIRECTION ( 'NONE',  ( -1.000000000000000000, 0.000000000000000000, 0.000000000000000000 ) ) ;
#264 = DIRECTION ( 'NONE',  ( -1.000000000000000000, 0.000000000000000000, 0.000000000000000000 ) ) ;
#265 = ORIENTED_EDGE ( 'NONE', *, *, #18, .T. ) ;
#266 = CIRCLE ( 'NONE', #180, 0.06250000000000000000 ) ;
#267 = DIMENSIONAL_EXPONENTS ( 1.000000000000000000, 0.000000000000000000, 0.000000000000000000, 0.000000000000000000, 0.000000000000000000, 0.000000000000000000, 0.000000000000000000 ) ;
#268 = EDGE_LOOP ( 'NONE', ( #25, #172 ) ) ;
#269 = EDGE_CURVE ( 'NONE', #222, #170, #280, .T. ) ;
#270 = CARTESIAN_POINT ( 'NONE',  ( 0.000000000000000000, 0.000000000000000000, 0.000000000000000000 ) ) ;
#271 = CARTESIAN_POINT ( 'NONE',  ( 0.000000000000000000, 0.000000000000000000, 0.000000000000000000 ) ) ;
#272 = PRESENTATION_LAYER_ASSIGNMENT (  '', '', ( #16 ) ) ;
#273 =( NAMED_UNIT ( * ) PLANE_ANGLE_UNIT ( ) SI_UNIT ( $, .RADIAN. ) );
#274 = SURFACE_STYLE_USAGE ( .BOTH. , #156 ) ;
#275 = FILL_AREA_STYLE ('',( #213 ) ) ;
#276 = VECTOR ( 'NONE', #158, 39.37007874015748143 ) ;
#277 = CARTESIAN_POINT ( 'NONE',  ( 0.000000000000000000, 0.5000000000000000000, 0.000000000000000000 ) ) ;
#278 = SURFACE_SIDE_STYLE ('',( #43 ) ) ;
#279 =( GEOMETRIC_REPRESENTATION_CONTEXT ( 3 ) GLOBAL_UNCERTAINTY_ASSIGNED_CONTEXT ( ( #146 ) ) GLOBAL_UNIT_ASSIGNED_CONTEXT ( ( #14, #249, #300 ) ) REPRESENTATION_CONTEXT ( 'NONE', 'WORKASPACE' ) );
#280 = CIRCLE ( 'NONE', #96, 0.06250000000000012490 ) ;
#281 = SURFACE_SIDE_STYLE ('',( #235 ) ) ;
#282 = DIRECTION ( 'NONE',  ( -6.123233995736766036E-17, 1.000000000000000000, -0.000000000000000000 ) ) ;
#283 = DIRECTION ( 'NONE',  ( 1.000000000000000000, 6.123233995736766036E-17, 0.000000000000000000 ) ) ;
#284 = SURFACE_STYLE_USAGE ( .BOTH. , #55 ) ;
#285 = ORIENTED_EDGE ( 'NONE', *, *, #9, .T. ) ;
#286 = COLOUR_RGB ( '',0.7921568627450980005, 0.8196078431372548767, 0.9333333333333333481 ) ;
#287 = EDGE_CURVE ( 'NONE', #219, #77, #120, .T. ) ;
#288 = DIRECTION ( 'NONE',  ( -6.123233995736766036E-17, 1.000000000000000000, -0.000000000000000000 ) ) ;
#289 =( NAMED_UNIT ( * ) SI_UNIT ( $, .STERADIAN. ) SOLID_ANGLE_UNIT ( ) );
#290 = ORIENTED_EDGE ( 'NONE', *, *, #105, .T. ) ;
#291 =( LENGTH_UNIT ( ) NAMED_UNIT ( * ) SI_UNIT ( $, .METRE. ) );
#292 = VERTEX_POINT ( 'NONE', #29 ) ;
#293 = ADVANCED_FACE ( 'NONE', ( #27 ), #91, .T. ) ;
#294 = DIRECTION ( 'NONE',  ( 1.000000000000000000, 0.000000000000000000, 0.000000000000000000 ) ) ;
#295 = PRESENTATION_LAYER_ASSIGNMENT (  '', '', ( #106 ) ) ;
#296 = MECHANICAL_DESIGN_GEOMETRIC_PRESENTATION_REPRESENTATION (  '', ( #215 ), #302 ) ;
#297 = LENGTH_MEASURE_WITH_UNIT ( LENGTH_MEASURE( 0.02539999999999999897 ), #79 );
#298 = DIRECTION ( 'NONE',  ( -6.123233995736766036E-17, 1.000000000000000000, -0.000000000000000000 ) ) ;
#299 = FACE_OUTER_BOUND ( 'NONE', #70, .T. ) ;
#300 =( NAMED_UNIT ( * ) SI_UNIT ( $, .STERADIAN. ) SOLID_ANGLE_UNIT ( ) );
#301 = LINE ( 'NONE', #109, #214 ) ;
#302 =( GEOMETRIC_REPRESENTATION_CONTEXT ( 3 ) GLOBAL_UNCERTAINTY_ASSIGNED_CONTEXT ( ( #84 ) ) GLOBAL_UNIT_ASSIGNED_CONTEXT ( ( #169, #243, #173 ) ) REPRESENTATION_CONTEXT ( 'NONE', 'WORKASPACE' ) );
#303 = LENGTH_MEASURE_WITH_UNIT ( LENGTH_MEASURE( 0.02539999999999999897 ), #252 );
#304 = ADVANCED_FACE ( 'NONE', ( #248 ), #181, .T. ) ;
#305 =( NAMED_UNIT ( * ) PLANE_ANGLE_UNIT ( ) SI_UNIT ( $, .RADIAN. ) );
#306 = AXIS2_PLACEMENT_3D ( 'NONE', #150, #7, #246 ) ;
#307 = AXIS2_PLACEMENT_3D ( 'NONE', #69, #282, #264 ) ;
#308 = FACE_OUTER_BOUND ( 'NONE', #268, .T. ) ;
#309 = MECHANICAL_DESIGN_GEOMETRIC_PRESENTATION_REPRESENTATION (  '', ( #5 ), #140 ) ;
ENDSEC;
END-ISO-10303-21;
