ISO-10303-21;
HEADER;
FILE_DESCRIPTION (( 'STEP AP214' ),
    '1' );
FILE_NAME ('Micro_SBMM-080-340.STEP',
    '2021-09-02T17:17:39',
    ( '' ),
    ( '' ),
    'SwSTEP 2.0',
    'SolidWorks 2020',
    '' );
FILE_SCHEMA (( 'AUTOMOTIVE_DESIGN' ));
ENDSEC;

DATA;
#1 = DIRECTION ( 'NONE',  ( 0.0000000000000000000, 0.0000000000000000000, -1.000000000000000000 ) ) ;
#2 = ORIENTED_EDGE ( 'NONE', *, *, #3, .F. ) ;
#3 = EDGE_CURVE ( 'NONE', #128, #85, #329, .T. ) ;
#4 = ORIENTED_EDGE ( 'NONE', *, *, #144, .F. ) ;
#5 = AXIS2_PLACEMENT_3D ( 'NONE', #39, #65, #113 ) ;
#6 = AXIS2_PLACEMENT_3D ( 'NONE', #253, #254, #226 ) ;
#7 = EDGE_CURVE ( 'NONE', #286, #124, #77, .T. ) ;
#8 = DIRECTION ( 'NONE',  ( 0.7071067811865563435, 8.659560562355041327E-17, -0.7071067811865386910 ) ) ;
#9 = CIRCLE ( 'NONE', #134, 0.1062989999999998103 ) ;
#10 = ORIENTED_EDGE ( 'NONE', *, *, #245, .F. ) ;
#11 = DIRECTION ( 'NONE',  ( -1.000000000000000000, 0.0000000000000000000, 0.0000000000000000000 ) ) ;
#12 = DIRECTION ( 'NONE',  ( 0.0000000000000000000, 0.0000000000000000000, 1.000000000000000000 ) ) ;
#13 = CARTESIAN_POINT ( 'NONE',  ( 0.0000000000000000000, 0.0000000000000000000, 2.165354000000000223 ) ) ;
#14 = DIRECTION ( 'NONE',  ( 1.000000000000000000, 0.0000000000000000000, 0.0000000000000000000 ) ) ;
#15 = CIRCLE ( 'NONE', #157, 0.1062989999999999768 ) ;
#16 = AXIS2_PLACEMENT_3D ( 'NONE', #40, #121, #289 ) ;
#17 = LINE ( 'NONE', #285, #97 ) ;
#18 = ORIENTED_EDGE ( 'NONE', *, *, #166, .T. ) ;
#19 = DIRECTION ( 'NONE',  ( -0.0000000000000000000, -0.0000000000000000000, -1.000000000000000000 ) ) ;
#20 = DIRECTION ( 'NONE',  ( -1.000000000000000000, 0.0000000000000000000, 0.0000000000000000000 ) ) ;
#21 = VERTEX_POINT ( 'NONE', #233 ) ;
#22 = APPLICATION_PROTOCOL_DEFINITION ( 'draft international standard', 'automotive_design', 1998, #315 ) ;
#23 = CARTESIAN_POINT ( 'NONE',  ( 0.0000000000000000000, 0.0000000000000000000, 3.922008000000000827 ) ) ;
#24 = CIRCLE ( 'NONE', #271, 0.1062989999999999768 ) ;
#25 = CARTESIAN_POINT ( 'NONE',  ( 0.0000000000000000000, 0.0000000000000000000, 1.574802999999999953 ) ) ;
#26 = ADVANCED_FACE ( 'NONE', ( #229 ), #123, .T. ) ;
#27 = ORIENTED_EDGE ( 'NONE', *, *, #284, .F. ) ;
#28 = ORIENTED_EDGE ( 'NONE', *, *, #335, .F. ) ;
#29 = AXIS2_PLACEMENT_3D ( 'NONE', #251, #67, #115 ) ;
#30 = EDGE_CURVE ( 'NONE', #174, #165, #9, .T. ) ;
#31 = CONICAL_SURFACE ( 'NONE', #78, 0.1732285499999997869, 0.08645134638073893873 ) ;
#32 =( GEOMETRIC_REPRESENTATION_CONTEXT ( 3 ) GLOBAL_UNCERTAINTY_ASSIGNED_CONTEXT ( ( #250 ) ) GLOBAL_UNIT_ASSIGNED_CONTEXT ( ( #199, #145, #292 ) ) REPRESENTATION_CONTEXT ( 'NONE', 'WORKASPACE' ) );
#33 = ADVANCED_FACE ( 'NONE', ( #71 ), #192, .T. ) ;
#34 = ORIENTED_EDGE ( 'NONE', *, *, #335, .T. ) ;
#35 = DIRECTION ( 'NONE',  ( 0.0000000000000000000, 0.0000000000000000000, 1.000000000000000000 ) ) ;
#36 = ORIENTED_EDGE ( 'NONE', *, *, #30, .F. ) ;
#37 = CARTESIAN_POINT ( 'NONE',  ( 0.1574804999999999955, 1.928579902531247412E-17, 3.922008000000000827 ) ) ;
#38 = LINE ( 'NONE', #252, #269 ) ;
#39 = CARTESIAN_POINT ( 'NONE',  ( 0.0000000000000000000, 0.0000000000000000000, 2.165354000000000223 ) ) ;
#40 = CARTESIAN_POINT ( 'NONE',  ( 0.0000000000000000000, 0.0000000000000000000, 2.347060801784821571 ) ) ;
#41 = CARTESIAN_POINT ( 'NONE',  ( 0.0000000000000000000, 0.0000000000000000000, 3.937007999999999619 ) ) ;
#42 = ORIENTED_EDGE ( 'NONE', *, *, #311, .F. ) ;
#43 = CARTESIAN_POINT ( 'NONE',  ( 0.0000000000000000000, 0.0000000000000000000, 0.0000000000000000000 ) ) ;
#44 = DIRECTION ( 'NONE',  ( 0.08634369942813729937, 0.0000000000000000000, 0.9962654092003110362 ) ) ;
#45 = CARTESIAN_POINT ( 'NONE',  ( 0.0000000000000000000, 0.0000000000000000000, 3.937007999999999619 ) ) ;
#46 = ORIENTED_EDGE ( 'NONE', *, *, #220, .F. ) ;
#47 = DIRECTION ( 'NONE',  ( -0.0000000000000000000, -0.0000000000000000000, -1.000000000000000000 ) ) ;
#48 = SPHERICAL_SURFACE ( 'NONE', #209, 0.1574799999999999811 ) ;
#49 = ADVANCED_FACE ( 'NONE', ( #299 ), #48, .T. ) ;
#50 = AXIS2_PLACEMENT_3D ( 'NONE', #109, #87, #86 ) ;
#51 = SURFACE_SIDE_STYLE ('',( #210 ) ) ;
#52 = CARTESIAN_POINT ( 'NONE',  ( -0.1574804999999999955, 0.0000000000000000000, 3.937007999999999619 ) ) ;
#53 = DIRECTION ( 'NONE',  ( 0.0000000000000000000, 0.0000000000000000000, 1.000000000000000000 ) ) ;
#54 = ORIENTED_EDGE ( 'NONE', *, *, #237, .T. ) ;
#55 = VECTOR ( 'NONE', #266, 39.37007874015748143 ) ;
#56 = MANIFOLD_SOLID_BREP ( 'Cut-Revolve3', #320 ) ;
#57 = APPLICATION_CONTEXT ( 'automotive_design' ) ;
#58 = ADVANCED_BREP_SHAPE_REPRESENTATION ( 'Micro_SBMM-080-340', ( #56, #106 ), #81 ) ;
#59 = ORIENTED_EDGE ( 'NONE', *, *, #326, .F. ) ;
#60 = ORIENTED_EDGE ( 'NONE', *, *, #122, .T. ) ;
#61 = CARTESIAN_POINT ( 'NONE',  ( 0.0000000000000000000, 0.0000000000000000000, 0.2736715358320045977 ) ) ;
#62 = CARTESIAN_POINT ( 'NONE',  ( 0.1424805000000004540, 1.744882882659150076E-17, 3.937007999999999619 ) ) ;
#63 = AXIS2_PLACEMENT_3D ( 'NONE', #290, #154, #20 ) ;
#64 = CIRCLE ( 'NONE', #90, 0.1574804999999999955 ) ;
#65 = DIRECTION ( 'NONE',  ( 0.0000000000000000000, 0.0000000000000000000, 1.000000000000000000 ) ) ;
#66 = CARTESIAN_POINT ( 'NONE',  ( 0.1574804999999999955, 1.928579902531247412E-17, 3.937007999999999619 ) ) ;
#67 = DIRECTION ( 'NONE',  ( -0.0000000000000000000, -0.0000000000000000000, -1.000000000000000000 ) ) ;
#68 = CARTESIAN_POINT ( 'NONE',  ( 0.1062989999999999075, 1.301787301025643820E-17, 0.0000000000000000000 ) ) ;
#69 = FACE_OUTER_BOUND ( 'NONE', #110, .T. ) ;
#70 = CIRCLE ( 'NONE', #84, 0.1574804999999999955 ) ;
#71 = FACE_OUTER_BOUND ( 'NONE', #181, .T. ) ;
#72 = ORIENTED_EDGE ( 'NONE', *, *, #237, .F. ) ;
#73 = DIRECTION ( 'NONE',  ( -0.0000000000000000000, -0.0000000000000000000, -1.000000000000000000 ) ) ;
#74 = CARTESIAN_POINT ( 'NONE',  ( 0.1574804999999999955, 1.928579902531247412E-17, 2.165354000000000223 ) ) ;
#75 = ORIENTED_EDGE ( 'NONE', *, *, #122, .F. ) ;
#76 = DIRECTION ( 'NONE',  ( -0.0000000000000000000, -0.0000000000000000000, -1.000000000000000000 ) ) ;
#77 = LINE ( 'NONE', #52, #55 ) ;
#78 = AXIS2_PLACEMENT_3D ( 'NONE', #307, #140, #195 ) ;
#79 = FACE_OUTER_BOUND ( 'NONE', #130, .T. ) ;
#80 = VERTEX_POINT ( 'NONE', #74 ) ;
#81 =( GEOMETRIC_REPRESENTATION_CONTEXT ( 3 ) GLOBAL_UNCERTAINTY_ASSIGNED_CONTEXT ( ( #333 ) ) GLOBAL_UNIT_ASSIGNED_CONTEXT ( ( #173, #232, #343 ) ) REPRESENTATION_CONTEXT ( 'NONE', 'WORKASPACE' ) );
#82 = ADVANCED_FACE ( 'NONE', ( #79 ), #160, .T. ) ;
#83 = ORIENTED_EDGE ( 'NONE', *, *, #179, .T. ) ;
#84 = AXIS2_PLACEMENT_3D ( 'NONE', #13, #12, #332 ) ;
#85 = VERTEX_POINT ( 'NONE', #129 ) ;
#86 = DIRECTION ( 'NONE',  ( -1.000000000000000000, 0.0000000000000000000, 0.0000000000000000000 ) ) ;
#87 = DIRECTION ( 'NONE',  ( -0.0000000000000000000, -0.0000000000000000000, -1.000000000000000000 ) ) ;
#88 = CARTESIAN_POINT ( 'NONE',  ( -0.1424805000000004540, 0.0000000000000000000, 3.937007999999999619 ) ) ;
#89 = CARTESIAN_POINT ( 'NONE',  ( -0.1062989999999999075, 0.0000000000000000000, 0.0000000000000000000 ) ) ;
#90 = AXIS2_PLACEMENT_3D ( 'NONE', #23, #310, #336 ) ;
#91 = FACE_OUTER_BOUND ( 'NONE', #247, .T. ) ;
#92 = LINE ( 'NONE', #89, #158 ) ;
#93 = SURFACE_STYLE_FILL_AREA ( #287 ) ;
#94 = CYLINDRICAL_SURFACE ( 'NONE', #63, 0.1062989999999999075 ) ;
#95 = ORIENTED_EDGE ( 'NONE', *, *, #30, .T. ) ;
#96 = PRESENTATION_STYLE_ASSIGNMENT (( #148 ) ) ;
#97 = VECTOR ( 'NONE', #150, 39.37007874015748143 ) ;
#98 =( NAMED_UNIT ( * ) PLANE_ANGLE_UNIT ( ) SI_UNIT ( $, .RADIAN. ) );
#99 = EDGE_CURVE ( 'NONE', #159, #137, #344, .T. ) ;
#100 = ORIENTED_EDGE ( 'NONE', *, *, #255, .T. ) ;
#101 = CARTESIAN_POINT ( 'NONE',  ( 0.0000000000000000000, 0.0000000000000000000, 0.0000000000000000000 ) ) ;
#102 = ORIENTED_EDGE ( 'NONE', *, *, #311, .T. ) ;
#103 = PRODUCT ( 'Micro_SBMM-080-340', 'Micro_SBMM-080-340', '', ( #309 ) ) ;
#104 = ORIENTED_EDGE ( 'NONE', *, *, #304, .F. ) ;
#105 = PRODUCT_RELATED_PRODUCT_CATEGORY ( 'part', '', ( #103 ) ) ;
#106 = AXIS2_PLACEMENT_3D ( 'NONE', #43, #259, #14 ) ;
#107 = ORIENTED_EDGE ( 'NONE', *, *, #179, .F. ) ;
#108 = ORIENTED_EDGE ( 'NONE', *, *, #191, .F. ) ;
#109 = CARTESIAN_POINT ( 'NONE',  ( 0.0000000000000000000, 0.0000000000000000000, 1.574802999999999953 ) ) ;
#110 = EDGE_LOOP ( 'NONE', ( #218, #36, #100, #107 ) ) ;
#111 = DIRECTION ( 'NONE',  ( 0.0000000000000000000, 0.0000000000000000000, 1.000000000000000000 ) ) ;
#112 = UNCERTAINTY_MEASURE_WITH_UNIT (LENGTH_MEASURE( 1.000000000000000082E-05 ), #261, 'distance_accuracy_value', 'NONE');
#113 = DIRECTION ( 'NONE',  ( 1.000000000000000000, 0.0000000000000000000, 0.0000000000000000000 ) ) ;
#114 = CARTESIAN_POINT ( 'NONE',  ( 0.0000000000000000000, 0.0000000000000000000, 3.937007999999999619 ) ) ;
#115 = DIRECTION ( 'NONE',  ( -1.000000000000000000, 0.0000000000000000000, 0.0000000000000000000 ) ) ;
#116 = ADVANCED_FACE ( 'NONE', ( #257 ), #94, .T. ) ;
#117 = AXIS2_PLACEMENT_3D ( 'NONE', #248, #11, #279 ) ;
#118 = VECTOR ( 'NONE', #19, 39.37007874015748143 ) ;
#119 = LINE ( 'NONE', #68, #118 ) ;
#120 = ORIENTED_EDGE ( 'NONE', *, *, #132, .T. ) ;
#121 = DIRECTION ( 'NONE',  ( 0.0000000000000000000, 0.0000000000000000000, 1.000000000000000000 ) ) ;
#122 = EDGE_CURVE ( 'NONE', #128, #21, #15, .T. ) ;
#123 = CYLINDRICAL_SURFACE ( 'NONE', #296, 0.1062989999999999075 ) ;
#124 = VERTEX_POINT ( 'NONE', #196 ) ;
#125 = FACE_OUTER_BOUND ( 'NONE', #291, .T. ) ;
#126 = PRESENTATION_LAYER_ASSIGNMENT (  '', '', ( #264 ) ) ;
#127 = DIRECTION ( 'NONE',  ( -0.0000000000000000000, -0.0000000000000000000, -1.000000000000000000 ) ) ;
#128 = VERTEX_POINT ( 'NONE', #334 ) ;
#129 = CARTESIAN_POINT ( 'NONE',  ( 0.0000000000000000000, 9.642868896486256968E-18, 3.414809992080329023E-17 ) ) ;
#130 = EDGE_LOOP ( 'NONE', ( #178, #190, #120, #152 ) ) ;
#131 = DIRECTION ( 'NONE',  ( 1.000000000000000000, 0.0000000000000000000, 0.0000000000000000000 ) ) ;
#132 = EDGE_CURVE ( 'NONE', #80, #124, #149, .T. ) ;
#133 = ORIENTED_EDGE ( 'NONE', *, *, #275, .F. ) ;
#134 = AXIS2_PLACEMENT_3D ( 'NONE', #25, #213, #156 ) ;
#135 = AXIS2_PLACEMENT_3D ( 'NONE', #228, #203, #201 ) ;
#136 = DIMENSIONAL_EXPONENTS ( 1.000000000000000000, 0.0000000000000000000, 0.0000000000000000000, 0.0000000000000000000, 0.0000000000000000000, 0.0000000000000000000, 0.0000000000000000000 ) ;
#137 = VERTEX_POINT ( 'NONE', #225 ) ;
#138 = DIRECTION ( 'NONE',  ( -0.08634369942813729937, 1.057405351312094953E-17, 0.9962654092003110362 ) ) ;
#139 = VERTEX_POINT ( 'NONE', #37 ) ;
#140 = DIRECTION ( 'NONE',  ( 0.0000000000000000000, 0.0000000000000000000, 1.000000000000000000 ) ) ;
#141 = MECHANICAL_DESIGN_GEOMETRIC_PRESENTATION_REPRESENTATION (  '', ( #263 ), #200 ) ;
#142 = CARTESIAN_POINT ( 'NONE',  ( 0.0000000000000000000, 0.0000000000000000000, 3.937007999999999619 ) ) ;
#143 = CARTESIAN_POINT ( 'NONE',  ( -0.1062989999999998103, 1.615183601778445154E-17, 1.574802999999999953 ) ) ;
#144 = EDGE_CURVE ( 'NONE', #207, #85, #219, .T. ) ;
#145 =( NAMED_UNIT ( * ) PLANE_ANGLE_UNIT ( ) SI_UNIT ( $, .RADIAN. ) );
#146 = DIRECTION ( 'NONE',  ( -0.0000000000000000000, -0.0000000000000000000, -1.000000000000000000 ) ) ;
#147 = DIRECTION ( 'NONE',  ( -0.0000000000000000000, -0.0000000000000000000, -1.000000000000000000 ) ) ;
#148 = SURFACE_STYLE_USAGE ( .BOTH. , #231 ) ;
#149 = CIRCLE ( 'NONE', #5, 0.1574804999999999955 ) ;
#150 = DIRECTION ( 'NONE',  ( -0.7071067811865563435, 0.0000000000000000000, -0.7071067811865386910 ) ) ;
#151 = DIRECTION ( 'NONE',  ( 0.0000000000000000000, 1.000000000000000000, 0.0000000000000000000 ) ) ;
#152 = ORIENTED_EDGE ( 'NONE', *, *, #7, .F. ) ;
#153 = CYLINDRICAL_SURFACE ( 'NONE', #249, 0.1574804999999999955 ) ;
#154 = DIRECTION ( 'NONE',  ( -0.0000000000000000000, -0.0000000000000000000, -1.000000000000000000 ) ) ;
#155 = ORIENTED_EDGE ( 'NONE', *, *, #326, .T. ) ;
#156 = DIRECTION ( 'NONE',  ( -1.000000000000000000, 0.0000000000000000000, 0.0000000000000000000 ) ) ;
#157 = AXIS2_PLACEMENT_3D ( 'NONE', #61, #147, #172 ) ;
#158 = VECTOR ( 'NONE', #47, 39.37007874015748143 ) ;
#159 = VERTEX_POINT ( 'NONE', #88 ) ;
#160 = CYLINDRICAL_SURFACE ( 'NONE', #217, 0.1574804999999999955 ) ;
#161 = PRODUCT_DEFINITION ( 'UNKNOWN', '', #297, #212 ) ;
#162 = EDGE_LOOP ( 'NONE', ( #28, #95, #102, #75, #108 ) ) ;
#163 = AXIS2_PLACEMENT_3D ( 'NONE', #300, #238, #324 ) ;
#164 = CIRCLE ( 'NONE', #135, 0.1574804999999999955 ) ;
#165 = VERTEX_POINT ( 'NONE', #143 ) ;
#166 = EDGE_CURVE ( 'NONE', #21, #207, #241, .T. ) ;
#167 = CARTESIAN_POINT ( 'NONE',  ( 0.1062989999999999768, 1.301787301025644745E-17, 0.2736715358320045977 ) ) ;
#168 = CARTESIAN_POINT ( 'NONE',  ( 0.0000000000000000000, 0.0000000000000000000, 3.937007999999999619 ) ) ;
#169 = COLOUR_RGB ( '',0.7921568627450980005, 0.8196078431372548767, 0.9333333333333333481 ) ;
#170 = CARTESIAN_POINT ( 'NONE',  ( 0.0000000000000000000, 0.1062989999999999491, 0.2736715358320045977 ) ) ;
#171 = DIRECTION ( 'NONE',  ( -1.000000000000000000, 0.0000000000000000000, 0.0000000000000000000 ) ) ;
#172 = DIRECTION ( 'NONE',  ( -1.000000000000000000, 0.0000000000000000000, 0.0000000000000000000 ) ) ;
#173 =( CONVERSION_BASED_UNIT ( 'INCH', #293 ) LENGTH_UNIT ( ) NAMED_UNIT ( #193 ) );
#174 = VERTEX_POINT ( 'NONE', #283 ) ;
#175 = LENGTH_MEASURE_WITH_UNIT ( LENGTH_MEASURE( 0.02539999999999999897 ), #313 );
#176 = CARTESIAN_POINT ( 'NONE',  ( 0.0000000000000000000, 0.0000000000000000000, 0.1574800000000000089 ) ) ;
#177 =( NAMED_UNIT ( * ) SI_UNIT ( $, .STERADIAN. ) SOLID_ANGLE_UNIT ( ) );
#178 = ORIENTED_EDGE ( 'NONE', *, *, #284, .T. ) ;
#179 = EDGE_CURVE ( 'NONE', #124, #80, #70, .T. ) ;
#180 = FILL_AREA_STYLE ('',( #236 ) ) ;
#181 = EDGE_LOOP ( 'NONE', ( #341, #54, #27, #59 ) ) ;
#182 = CARTESIAN_POINT ( 'NONE',  ( 0.0000000000000000000, 0.0000000000000000000, 0.1574800000000000089 ) ) ;
#183 = VECTOR ( 'NONE', #138, 39.37007874015748143 ) ;
#184 = ADVANCED_FACE ( 'NONE', ( #338 ), #189, .T. ) ;
#185 = EDGE_LOOP ( 'NONE', ( #72, #187, #155, #133 ) ) ;
#186 = CARTESIAN_POINT ( 'NONE',  ( 0.0000000000000000000, 0.0000000000000000000, 3.937007999999999619 ) ) ;
#187 = ORIENTED_EDGE ( 'NONE', *, *, #99, .F. ) ;
#188 = ADVANCED_FACE ( 'NONE', ( #91 ), #31, .T. ) ;
#189 = CONICAL_SURFACE ( 'NONE', #337, 0.1424805000000004540, 0.7853981633974608245 ) ;
#190 = ORIENTED_EDGE ( 'NONE', *, *, #304, .T. ) ;
#191 = EDGE_CURVE ( 'NONE', #230, #128, #288, .T. ) ;
#192 = CONICAL_SURFACE ( 'NONE', #301, 0.1424805000000004540, 0.7853981633974608245 ) ;
#193 = DIMENSIONAL_EXPONENTS ( 1.000000000000000000, 0.0000000000000000000, 0.0000000000000000000, 0.0000000000000000000, 0.0000000000000000000, 0.0000000000000000000, 0.0000000000000000000 ) ;
#194 = EDGE_LOOP ( 'NONE', ( #330, #327 ) ) ;
#195 = DIRECTION ( 'NONE',  ( 1.000000000000000000, 0.0000000000000000000, 0.0000000000000000000 ) ) ;
#196 = CARTESIAN_POINT ( 'NONE',  ( -0.1574804999999999955, 0.0000000000000000000, 2.165354000000000223 ) ) ;
#197 = EDGE_CURVE ( 'NONE', #165, #124, #222, .T. ) ;
#198 = DIRECTION ( 'NONE',  ( 0.0000000000000000000, 0.0000000000000000000, -1.000000000000000000 ) ) ;
#199 =( CONVERSION_BASED_UNIT ( 'INCH', #175 ) LENGTH_UNIT ( ) NAMED_UNIT ( #302 ) );
#200 =( GEOMETRIC_REPRESENTATION_CONTEXT ( 3 ) GLOBAL_UNCERTAINTY_ASSIGNED_CONTEXT ( ( #112 ) ) GLOBAL_UNIT_ASSIGNED_CONTEXT ( ( #261, #98, #177 ) ) REPRESENTATION_CONTEXT ( 'NONE', 'WORKASPACE' ) );
#201 = DIRECTION ( 'NONE',  ( 1.000000000000000000, 0.0000000000000000000, 0.0000000000000000000 ) ) ;
#202 = DIRECTION ( 'NONE',  ( -0.0000000000000000000, -0.0000000000000000000, -1.000000000000000000 ) ) ;
#203 = DIRECTION ( 'NONE',  ( 0.0000000000000000000, 0.0000000000000000000, -1.000000000000000000 ) ) ;
#204 = FILL_AREA_STYLE_COLOUR ( '', #280 ) ;
#205 =( LENGTH_UNIT ( ) NAMED_UNIT ( * ) SI_UNIT ( $, .METRE. ) );
#206 = SURFACE_STYLE_USAGE ( .BOTH. , #51 ) ;
#207 = VERTEX_POINT ( 'NONE', #170 ) ;
#208 = SHAPE_DEFINITION_REPRESENTATION ( #242, #58 ) ;
#209 = AXIS2_PLACEMENT_3D ( 'NONE', #182, #131, #151 ) ;
#210 = SURFACE_STYLE_FILL_AREA ( #180 ) ;
#211 = ORIENTED_EDGE ( 'NONE', *, *, #7, .T. ) ;
#212 = PRODUCT_DEFINITION_CONTEXT ( 'detailed design', #315, 'design' ) ;
#213 = DIRECTION ( 'NONE',  ( -0.0000000000000000000, -0.0000000000000000000, -1.000000000000000000 ) ) ;
#214 = EDGE_CURVE ( 'NONE', #137, #159, #235, .T. ) ;
#215 = ORIENTED_EDGE ( 'NONE', *, *, #144, .T. ) ;
#216 =( LENGTH_UNIT ( ) NAMED_UNIT ( * ) SI_UNIT ( $, .METRE. ) );
#217 = AXIS2_PLACEMENT_3D ( 'NONE', #45, #127, #294 ) ;
#218 = ORIENTED_EDGE ( 'NONE', *, *, #197, .F. ) ;
#219 = CIRCLE ( 'NONE', #117, 0.1574799999999999256 ) ;
#220 = EDGE_CURVE ( 'NONE', #207, #230, #24, .T. ) ;
#221 = ADVANCED_FACE ( 'NONE', ( #331 ), #224, .T. ) ;
#222 = LINE ( 'NONE', #303, #183 ) ;
#223 = VECTOR ( 'NONE', #8, 39.37007874015748143 ) ;
#224 = PLANE ( 'NONE',  #227 ) ;
#225 = CARTESIAN_POINT ( 'NONE',  ( 0.1424805000000004540, 1.836731392595198898E-17, 3.937007999999999619 ) ) ;
#226 = DIRECTION ( 'NONE',  ( -1.000000000000000000, 0.0000000000000000000, 0.0000000000000000000 ) ) ;
#227 = AXIS2_PLACEMENT_3D ( 'NONE', #41, #35, #246 ) ;
#228 = CARTESIAN_POINT ( 'NONE',  ( 0.0000000000000000000, 0.0000000000000000000, 3.922008000000000827 ) ) ;
#229 = FACE_OUTER_BOUND ( 'NONE', #162, .T. ) ;
#230 = VERTEX_POINT ( 'NONE', #167 ) ;
#231 = SURFACE_SIDE_STYLE ('',( #93 ) ) ;
#232 =( NAMED_UNIT ( * ) PLANE_ANGLE_UNIT ( ) SI_UNIT ( $, .RADIAN. ) );
#233 = CARTESIAN_POINT ( 'NONE',  ( -0.1062989999999999768, 0.0000000000000000000, 0.2736715358320045977 ) ) ;
#234 = EDGE_LOOP ( 'NONE', ( #2, #60, #18, #215 ) ) ;
#235 = CIRCLE ( 'NONE', #278, 0.1424805000000004540 ) ;
#236 = FILL_AREA_STYLE_COLOUR ( '', #169 ) ;
#237 = EDGE_CURVE ( 'NONE', #137, #139, #305, .T. ) ;
#238 = DIRECTION ( 'NONE',  ( 1.000000000000000000, 1.224646799147353207E-16, -0.0000000000000000000 ) ) ;
#239 = DIRECTION ( 'NONE',  ( -1.000000000000000000, 0.0000000000000000000, 0.0000000000000000000 ) ) ;
#240 = ORIENTED_EDGE ( 'NONE', *, *, #220, .T. ) ;
#241 = CIRCLE ( 'NONE', #6, 0.1062989999999999768 ) ;
#242 = PRODUCT_DEFINITION_SHAPE ( 'NONE', 'NONE',  #161 ) ;
#243 = AXIS2_PLACEMENT_3D ( 'NONE', #186, #53, #267 ) ;
#244 = CONICAL_SURFACE ( 'NONE', #16, 0.1732285499999997869, 0.08645134638073893873 ) ;
#245 = EDGE_CURVE ( 'NONE', #165, #174, #325, .T. ) ;
#246 = DIRECTION ( 'NONE',  ( 1.000000000000000000, 0.0000000000000000000, -0.0000000000000000000 ) ) ;
#247 = EDGE_LOOP ( 'NONE', ( #10, #262, #321, #276 ) ) ;
#248 = CARTESIAN_POINT ( 'NONE',  ( 0.0000000000000000000, 0.0000000000000000000, 0.1574800000000000089 ) ) ;
#249 = AXIS2_PLACEMENT_3D ( 'NONE', #114, #146, #171 ) ;
#250 = UNCERTAINTY_MEASURE_WITH_UNIT (LENGTH_MEASURE( 1.000000000000000082E-05 ), #199, 'distance_accuracy_value', 'NONE');
#251 = CARTESIAN_POINT ( 'NONE',  ( 0.0000000000000000000, 0.0000000000000000000, 0.2736715358320045977 ) ) ;
#252 = CARTESIAN_POINT ( 'NONE',  ( 0.1732285499999997869, 0.0000000000000000000, 2.347060801784821571 ) ) ;
#253 = CARTESIAN_POINT ( 'NONE',  ( 0.0000000000000000000, 0.0000000000000000000, 0.2736715358320045977 ) ) ;
#254 = DIRECTION ( 'NONE',  ( -0.0000000000000000000, -0.0000000000000000000, -1.000000000000000000 ) ) ;
#255 = EDGE_CURVE ( 'NONE', #174, #80, #38, .T. ) ;
#256 = FACE_OUTER_BOUND ( 'NONE', #298, .T. ) ;
#257 = FACE_OUTER_BOUND ( 'NONE', #273, .T. ) ;
#258 = ORIENTED_EDGE ( 'NONE', *, *, #3, .T. ) ;
#259 = DIRECTION ( 'NONE',  ( 0.0000000000000000000, 0.0000000000000000000, 1.000000000000000000 ) ) ;
#260 = SPHERICAL_SURFACE ( 'NONE', #308, 0.1574799999999999811 ) ;
#261 =( CONVERSION_BASED_UNIT ( 'INCH', #265 ) LENGTH_UNIT ( ) NAMED_UNIT ( #136 ) );
#262 = ORIENTED_EDGE ( 'NONE', *, *, #197, .T. ) ;
#263 = STYLED_ITEM ( 'NONE', ( #317 ), #56 ) ;
#264 = STYLED_ITEM ( 'NONE', ( #96 ), #58 ) ;
#265 = LENGTH_MEASURE_WITH_UNIT ( LENGTH_MEASURE( 0.02539999999999999897 ), #216 );
#266 = DIRECTION ( 'NONE',  ( -0.0000000000000000000, -0.0000000000000000000, -1.000000000000000000 ) ) ;
#267 = DIRECTION ( 'NONE',  ( 1.000000000000000000, 0.0000000000000000000, 0.0000000000000000000 ) ) ;
#268 = ORIENTED_EDGE ( 'NONE', *, *, #166, .F. ) ;
#269 = VECTOR ( 'NONE', #44, 39.37007874015748143 ) ;
#270 = ADVANCED_FACE ( 'NONE', ( #69 ), #244, .T. ) ;
#271 = AXIS2_PLACEMENT_3D ( 'NONE', #274, #202, #312 ) ;
#272 = VECTOR ( 'NONE', #73, 39.37007874015748143 ) ;
#273 = EDGE_LOOP ( 'NONE', ( #345, #34, #46, #268, #42 ) ) ;
#274 = CARTESIAN_POINT ( 'NONE',  ( 0.0000000000000000000, 0.0000000000000000000, 0.2736715358320045977 ) ) ;
#275 = EDGE_CURVE ( 'NONE', #139, #286, #164, .T. ) ;
#276 = ORIENTED_EDGE ( 'NONE', *, *, #255, .F. ) ;
#277 = DIRECTION ( 'NONE',  ( -1.000000000000000000, 0.0000000000000000000, 0.0000000000000000000 ) ) ;
#278 = AXIS2_PLACEMENT_3D ( 'NONE', #168, #111, #281 ) ;
#279 = DIRECTION ( 'NONE',  ( 0.0000000000000000000, 0.0000000000000000000, 1.000000000000000000 ) ) ;
#280 = COLOUR_RGB ( '',0.7921568627450980005, 0.8196078431372548767, 0.9333333333333333481 ) ;
#281 = DIRECTION ( 'NONE',  ( 1.000000000000000000, 0.0000000000000000000, 0.0000000000000000000 ) ) ;
#282 = DIRECTION ( 'NONE',  ( 1.000000000000000000, 0.0000000000000000000, 0.0000000000000000000 ) ) ;
#283 = CARTESIAN_POINT ( 'NONE',  ( 0.1062989999999998103, 0.0000000000000000000, 1.574802999999999953 ) ) ;
#284 = EDGE_CURVE ( 'NONE', #286, #139, #64, .T. ) ;
#285 = CARTESIAN_POINT ( 'NONE',  ( -0.1424805000000004540, 0.0000000000000000000, 3.937007999999999619 ) ) ;
#286 = VERTEX_POINT ( 'NONE', #314 ) ;
#287 = FILL_AREA_STYLE ('',( #204 ) ) ;
#288 = CIRCLE ( 'NONE', #29, 0.1062989999999999768 ) ;
#289 = DIRECTION ( 'NONE',  ( 1.000000000000000000, 0.0000000000000000000, 0.0000000000000000000 ) ) ;
#290 = CARTESIAN_POINT ( 'NONE',  ( 0.0000000000000000000, 0.0000000000000000000, 0.0000000000000000000 ) ) ;
#291 = EDGE_LOOP ( 'NONE', ( #240, #328, #258, #4 ) ) ;
#292 =( NAMED_UNIT ( * ) SI_UNIT ( $, .STERADIAN. ) SOLID_ANGLE_UNIT ( ) );
#293 = LENGTH_MEASURE_WITH_UNIT ( LENGTH_MEASURE( 0.02539999999999999897 ), #205 );
#294 = DIRECTION ( 'NONE',  ( -1.000000000000000000, 0.0000000000000000000, 0.0000000000000000000 ) ) ;
#295 = CARTESIAN_POINT ( 'NONE',  ( 0.0000000000000000000, 0.0000000000000000000, 3.937007999999999619 ) ) ;
#296 = AXIS2_PLACEMENT_3D ( 'NONE', #101, #76, #239 ) ;
#297 = PRODUCT_DEFINITION_FORMATION_WITH_SPECIFIED_SOURCE ( 'ANY', '', #103, .NOT_KNOWN. ) ;
#298 = EDGE_LOOP ( 'NONE', ( #104, #319, #211, #83 ) ) ;
#299 = FACE_OUTER_BOUND ( 'NONE', #234, .T. ) ;
#300 = CARTESIAN_POINT ( 'NONE',  ( 0.0000000000000000000, 0.0000000000000000000, 0.1574800000000000089 ) ) ;
#301 = AXIS2_PLACEMENT_3D ( 'NONE', #295, #1, #322 ) ;
#302 = DIMENSIONAL_EXPONENTS ( 1.000000000000000000, 0.0000000000000000000, 0.0000000000000000000, 0.0000000000000000000, 0.0000000000000000000, 0.0000000000000000000, 0.0000000000000000000 ) ;
#303 = CARTESIAN_POINT ( 'NONE',  ( -0.1732285499999997869, 2.121437892784369688E-17, 2.347060801784821571 ) ) ;
#304 = EDGE_CURVE ( 'NONE', #139, #80, #340, .T. ) ;
#305 = LINE ( 'NONE', #62, #223 ) ;
#306 = PRESENTATION_LAYER_ASSIGNMENT (  '', '', ( #263 ) ) ;
#307 = CARTESIAN_POINT ( 'NONE',  ( 0.0000000000000000000, 0.0000000000000000000, 2.347060801784821571 ) ) ;
#308 = AXIS2_PLACEMENT_3D ( 'NONE', #176, #282, #316 ) ;
#309 = PRODUCT_CONTEXT ( 'NONE', #57, 'mechanical' ) ;
#310 = DIRECTION ( 'NONE',  ( 0.0000000000000000000, 0.0000000000000000000, -1.000000000000000000 ) ) ;
#311 = EDGE_CURVE ( 'NONE', #165, #21, #92, .T. ) ;
#312 = DIRECTION ( 'NONE',  ( -1.000000000000000000, 0.0000000000000000000, 0.0000000000000000000 ) ) ;
#313 =( LENGTH_UNIT ( ) NAMED_UNIT ( * ) SI_UNIT ( $, .METRE. ) );
#314 = CARTESIAN_POINT ( 'NONE',  ( -0.1574804999999999955, 0.0000000000000000000, 3.922008000000000827 ) ) ;
#315 = APPLICATION_CONTEXT ( 'automotive_design' ) ;
#316 = DIRECTION ( 'NONE',  ( 0.0000000000000000000, 1.000000000000000000, 0.0000000000000000000 ) ) ;
#317 = PRESENTATION_STYLE_ASSIGNMENT (( #206 ) ) ;
#318 = ADVANCED_FACE ( 'NONE', ( #256 ), #153, .T. ) ;
#319 = ORIENTED_EDGE ( 'NONE', *, *, #275, .T. ) ;
#320 = CLOSED_SHELL ( 'NONE', ( #116, #323, #188, #33, #82, #318, #221, #184, #270, #49, #26 ) ) ;
#321 = ORIENTED_EDGE ( 'NONE', *, *, #132, .F. ) ;
#322 = DIRECTION ( 'NONE',  ( -1.000000000000000000, 0.0000000000000000000, 0.0000000000000000000 ) ) ;
#323 = ADVANCED_FACE ( 'NONE', ( #125 ), #260, .T. ) ;
#324 = DIRECTION ( 'NONE',  ( -1.224646799147352961E-16, 1.000000000000000000, 0.0000000000000000000 ) ) ;
#325 = CIRCLE ( 'NONE', #50, 0.1062989999999998103 ) ;
#326 = EDGE_CURVE ( 'NONE', #159, #286, #17, .T. ) ;
#327 = ORIENTED_EDGE ( 'NONE', *, *, #214, .T. ) ;
#328 = ORIENTED_EDGE ( 'NONE', *, *, #191, .T. ) ;
#329 = CIRCLE ( 'NONE', #163, 0.1574799999999999811 ) ;
#330 = ORIENTED_EDGE ( 'NONE', *, *, #99, .T. ) ;
#331 = FACE_OUTER_BOUND ( 'NONE', #194, .T. ) ;
#332 = DIRECTION ( 'NONE',  ( 1.000000000000000000, 0.0000000000000000000, 0.0000000000000000000 ) ) ;
#333 = UNCERTAINTY_MEASURE_WITH_UNIT (LENGTH_MEASURE( 1.000000000000000082E-05 ), #173, 'distance_accuracy_value', 'NONE');
#334 = CARTESIAN_POINT ( 'NONE',  ( 1.301787301025644282E-17, -0.1062989999999999491, 0.2736715358320045977 ) ) ;
#335 = EDGE_CURVE ( 'NONE', #174, #230, #119, .T. ) ;
#336 = DIRECTION ( 'NONE',  ( 1.000000000000000000, 0.0000000000000000000, 0.0000000000000000000 ) ) ;
#337 = AXIS2_PLACEMENT_3D ( 'NONE', #142, #198, #277 ) ;
#338 = FACE_OUTER_BOUND ( 'NONE', #185, .T. ) ;
#339 = MECHANICAL_DESIGN_GEOMETRIC_PRESENTATION_REPRESENTATION (  '', ( #264 ), #32 ) ;
#340 = LINE ( 'NONE', #66, #272 ) ;
#341 = ORIENTED_EDGE ( 'NONE', *, *, #214, .F. ) ;
#342 = APPLICATION_PROTOCOL_DEFINITION ( 'draft international standard', 'automotive_design', 1998, #57 ) ;
#343 =( NAMED_UNIT ( * ) SI_UNIT ( $, .STERADIAN. ) SOLID_ANGLE_UNIT ( ) );
#344 = CIRCLE ( 'NONE', #243, 0.1424805000000004540 ) ;
#345 = ORIENTED_EDGE ( 'NONE', *, *, #245, .T. ) ;
ENDSEC;
END-ISO-10303-21;
