ISO-10303-21;
HEADER;
FILE_DESCRIPTION (( 'STEP AP214' ),
    '1' );
FILE_NAME ('Micro_AMRM-005-2.STEP',
    '2021-09-01T17:10:13',
    ( '' ),
    ( '' ),
    'SwSTEP 2.0',
    'SolidWorks 2020',
    '' );
FILE_SCHEMA (( 'AUTOMOTIVE_DESIGN' ));
ENDSEC;

DATA;
#1 = EDGE_LOOP ( 'NONE', ( #194, #68, #46, #259 ) ) ;
#2 = DIRECTION ( 'NONE',  ( -1.224646799147353207E-16, -0.0000000000000000000, -1.000000000000000000 ) ) ;
#3 = EDGE_CURVE ( 'NONE', #126, #95, #41, .T. ) ;
#4 = VERTEX_POINT ( 'NONE', #88 ) ;
#5 = CARTESIAN_POINT ( 'NONE',  ( 0.009832657500000001327, 1.204153253448721743E-18, 0.0000000000000000000 ) ) ;
#6 = AXIS2_PLACEMENT_3D ( 'NONE', #132, #193, #238 ) ;
#7 = DIRECTION ( 'NONE',  ( 1.000000000000000000, 0.0000000000000000000, 0.0000000000000000000 ) ) ;
#8 = DIRECTION ( 'NONE',  ( -1.000000000000000000, 0.0000000000000000000, 1.224646799147353207E-16 ) ) ;
#9 = EDGE_CURVE ( 'NONE', #126, #45, #254, .T. ) ;
#10 = CARTESIAN_POINT ( 'NONE',  ( -0.06374000000000018540, 0.0000000000000000000, 1.968503999999999809 ) ) ;
#11 =( LENGTH_UNIT ( ) NAMED_UNIT ( * ) SI_UNIT ( $, .METRE. ) );
#12 = VECTOR ( 'NONE', #179, 39.37007874015748143 ) ;
#13 = CARTESIAN_POINT ( 'NONE',  ( 0.0000000000000000000, 0.0000000000000000000, 1.968503999999999809 ) ) ;
#14 =( NAMED_UNIT ( * ) PLANE_ANGLE_UNIT ( ) SI_UNIT ( $, .RADIAN. ) );
#15 = EDGE_CURVE ( 'NONE', #4, #45, #62, .T. ) ;
#16 = EDGE_CURVE ( 'NONE', #239, #281, #96, .T. ) ;
#17 = DIRECTION ( 'NONE',  ( 0.0000000000000000000, 0.0000000000000000000, -1.000000000000000000 ) ) ;
#18 = DIRECTION ( 'NONE',  ( -0.0000000000000000000, -0.0000000000000000000, -1.000000000000000000 ) ) ;
#19 = DIRECTION ( 'NONE',  ( 1.000000000000000000, 0.0000000000000000000, 0.0000000000000000000 ) ) ;
#20 = PRODUCT_DEFINITION ( 'UNKNOWN', '', #92, #298 ) ;
#21 = CARTESIAN_POINT ( 'NONE',  ( 7.232151672364695422E-18, 0.0000000000000000000, 0.05905500000000000332 ) ) ;
#22 = DIRECTION ( 'NONE',  ( -1.000000000000000000, 0.0000000000000000000, 0.0000000000000000000 ) ) ;
#23 = AXIS2_PLACEMENT_3D ( 'NONE', #59, #292, #8 ) ;
#24 = ADVANCED_FACE ( 'NONE', ( #97 ), #232, .T. ) ;
#25 = VERTEX_POINT ( 'NONE', #270 ) ;
#26 = LINE ( 'NONE', #103, #67 ) ;
#27 = DIRECTION ( 'NONE',  ( 1.000000000000000000, 0.0000000000000000000, 0.0000000000000000000 ) ) ;
#28 = EDGE_LOOP ( 'NONE', ( #127, #174, #134, #151 ) ) ;
#29 = DIRECTION ( 'NONE',  ( 0.7071067811865507924, 8.659560562354973534E-17, -0.7071067811865443531 ) ) ;
#30 = PRODUCT_DEFINITION_SHAPE ( 'NONE', 'NONE',  #20 ) ;
#31 = EDGE_CURVE ( 'NONE', #25, #4, #218, .T. ) ;
#32 = CARTESIAN_POINT ( 'NONE',  ( 0.0000000000000000000, 0.0000000000000000000, 0.0000000000000000000 ) ) ;
#33 = EDGE_LOOP ( 'NONE', ( #77, #265, #53, #216 ) ) ;
#34 = DIRECTION ( 'NONE',  ( -0.0000000000000000000, -0.0000000000000000000, -1.000000000000000000 ) ) ;
#35 = DIRECTION ( 'NONE',  ( -1.224646799147353207E-16, -0.0000000000000000000, -1.000000000000000000 ) ) ;
#36 = FACE_OUTER_BOUND ( 'NONE', #230, .T. ) ;
#37 = AXIS2_PLACEMENT_3D ( 'NONE', #21, #123, #296 ) ;
#38 = FACE_OUTER_BOUND ( 'NONE', #262, .T. ) ;
#39 = EDGE_CURVE ( 'NONE', #138, #45, #176, .T. ) ;
#40 = DIRECTION ( 'NONE',  ( 0.0000000000000000000, 0.0000000000000000000, -1.000000000000000000 ) ) ;
#41 = CIRCLE ( 'NONE', #252, 0.009832657499999999592 ) ;
#42 = DIRECTION ( 'NONE',  ( -1.000000000000000000, 0.0000000000000000000, 0.0000000000000000000 ) ) ;
#43 = EDGE_CURVE ( 'NONE', #126, #277, #208, .T. ) ;
#44 = CIRCLE ( 'NONE', #47, 0.07874000000000001831 ) ;
#45 = VERTEX_POINT ( 'NONE', #272 ) ;
#46 = ORIENTED_EDGE ( 'NONE', *, *, #39, .F. ) ;
#47 = AXIS2_PLACEMENT_3D ( 'NONE', #61, #184, #116 ) ;
#48 =( GEOMETRIC_REPRESENTATION_CONTEXT ( 3 ) GLOBAL_UNCERTAINTY_ASSIGNED_CONTEXT ( ( #190 ) ) GLOBAL_UNIT_ASSIGNED_CONTEXT ( ( #135, #289, #111 ) ) REPRESENTATION_CONTEXT ( 'NONE', 'WORKASPACE' ) );
#49 = AXIS2_PLACEMENT_3D ( 'NONE', #32, #104, #27 ) ;
#50 = EDGE_LOOP ( 'NONE', ( #131, #255, #145, #173 ) ) ;
#51 = CARTESIAN_POINT ( 'NONE',  ( 0.06374000000000018540, 7.805898697765251255E-18, 1.968503999999999809 ) ) ;
#52 =( NAMED_UNIT ( * ) SI_UNIT ( $, .STERADIAN. ) SOLID_ANGLE_UNIT ( ) );
#53 = ORIENTED_EDGE ( 'NONE', *, *, #261, .T. ) ;
#54 = DIRECTION ( 'NONE',  ( -1.000000000000000000, 0.0000000000000000000, 0.0000000000000000000 ) ) ;
#55 = SHAPE_DEFINITION_REPRESENTATION ( #30, #185 ) ;
#56 = CIRCLE ( 'NONE', #147, 0.009832657500000001327 ) ;
#57 = VERTEX_POINT ( 'NONE', #60 ) ;
#58 = LINE ( 'NONE', #10, #99 ) ;
#59 = CARTESIAN_POINT ( 'NONE',  ( 1.474662427518848649E-34, 0.0000000000000000000, 1.204153253448721743E-18 ) ) ;
#60 = CARTESIAN_POINT ( 'NONE',  ( -0.009832657500000001327, 0.0000000000000000000, 2.408306506897443486E-18 ) ) ;
#61 = CARTESIAN_POINT ( 'NONE',  ( 5.509048627964680171E-17, 0.0000000000000000000, 0.4498479587584186534 ) ) ;
#62 = LINE ( 'NONE', #211, #110 ) ;
#63 = FACE_OUTER_BOUND ( 'NONE', #188, .T. ) ;
#64 = PRESENTATION_LAYER_ASSIGNMENT (  '', '', ( #279 ) ) ;
#65 = APPLICATION_CONTEXT ( 'automotive_design' ) ;
#66 = CARTESIAN_POINT ( 'NONE',  ( 1.474662427518848649E-34, 0.0000000000000000000, 1.204153253448721743E-18 ) ) ;
#67 = VECTOR ( 'NONE', #260, 39.37007874015748143 ) ;
#68 = ORIENTED_EDGE ( 'NONE', *, *, #15, .T. ) ;
#69 = DIRECTION ( 'NONE',  ( -1.224646799147353207E-16, -0.0000000000000000000, -1.000000000000000000 ) ) ;
#70 = ADVANCED_FACE ( 'NONE', ( #156 ), #157, .T. ) ;
#71 = DIRECTION ( 'NONE',  ( -1.224646799147353207E-16, -0.0000000000000000000, -1.000000000000000000 ) ) ;
#72 = UNCERTAINTY_MEASURE_WITH_UNIT (LENGTH_MEASURE( 1.000000000000000082E-05 ), #199, 'distance_accuracy_value', 'NONE');
#73 = CONICAL_SURFACE ( 'NONE', #153, 0.009832657499999999592, 0.1745329251994338915 ) ;
#74 = ORIENTED_EDGE ( 'NONE', *, *, #257, .F. ) ;
#75 = DIRECTION ( 'NONE',  ( 0.0000000000000000000, 0.0000000000000000000, -1.000000000000000000 ) ) ;
#76 = AXIS2_PLACEMENT_3D ( 'NONE', #13, #189, #278 ) ;
#77 = ORIENTED_EDGE ( 'NONE', *, *, #43, .F. ) ;
#78 = CARTESIAN_POINT ( 'NONE',  ( 7.232151672364695422E-18, 0.0000000000000000000, 0.05905500000000000332 ) ) ;
#79 = SURFACE_STYLE_FILL_AREA ( #180 ) ;
#80 = ORIENTED_EDGE ( 'NONE', *, *, #16, .T. ) ;
#81 = PRODUCT ( 'Micro_AMRM-005-2', 'Micro_AMRM-005-2', '', ( #244 ) ) ;
#82 = ORIENTED_EDGE ( 'NONE', *, *, #234, .T. ) ;
#83 = MECHANICAL_DESIGN_GEOMETRIC_PRESENTATION_REPRESENTATION (  '', ( #130 ), #91 ) ;
#84 = APPLICATION_PROTOCOL_DEFINITION ( 'draft international standard', 'automotive_design', 1998, #118 ) ;
#85 = DIRECTION ( 'NONE',  ( 0.0000000000000000000, 0.0000000000000000000, 1.000000000000000000 ) ) ;
#86 = LENGTH_MEASURE_WITH_UNIT ( LENGTH_MEASURE( 0.02539999999999999897 ), #172 );
#87 = FILL_AREA_STYLE_COLOUR ( '', #235 ) ;
#88 = CARTESIAN_POINT ( 'NONE',  ( 0.07874000000000001831, 9.642868896486260050E-18, 1.953504000000000129 ) ) ;
#89 =( NAMED_UNIT ( * ) SI_UNIT ( $, .STERADIAN. ) SOLID_ANGLE_UNIT ( ) );
#90 = CARTESIAN_POINT ( 'NONE',  ( 0.0000000000000000000, 0.0000000000000000000, 1.968503999999999809 ) ) ;
#91 =( GEOMETRIC_REPRESENTATION_CONTEXT ( 3 ) GLOBAL_UNCERTAINTY_ASSIGNED_CONTEXT ( ( #125 ) ) GLOBAL_UNIT_ASSIGNED_CONTEXT ( ( #271, #14, #89 ) ) REPRESENTATION_CONTEXT ( 'NONE', 'WORKASPACE' ) );
#92 = PRODUCT_DEFINITION_FORMATION_WITH_SPECIFIED_SOURCE ( 'ANY', '', #81, .NOT_KNOWN. ) ;
#93 = CARTESIAN_POINT ( 'NONE',  ( 0.009832657500000004797, 0.0000000000000000000, 0.05905500000000000332 ) ) ;
#94 = AXIS2_PLACEMENT_3D ( 'NONE', #196, #268, #152 ) ;
#95 = VERTEX_POINT ( 'NONE', #276 ) ;
#96 = CIRCLE ( 'NONE', #168, 0.06374000000000018540 ) ;
#97 = FACE_OUTER_BOUND ( 'NONE', #105, .T. ) ;
#98 = ADVANCED_FACE ( 'NONE', ( #38 ), #210, .T. ) ;
#99 = VECTOR ( 'NONE', #223, 39.37007874015748143 ) ;
#100 = EDGE_CURVE ( 'NONE', #4, #25, #273, .T. ) ;
#101 = CARTESIAN_POINT ( 'NONE',  ( 0.0000000000000000000, 0.0000000000000000000, 0.0000000000000000000 ) ) ;
#102 = AXIS2_PLACEMENT_3D ( 'NONE', #221, #75, #106 ) ;
#103 = CARTESIAN_POINT ( 'NONE',  ( -0.009832657500000001327, 0.0000000000000000000, 1.204153253448721743E-18 ) ) ;
#104 = DIRECTION ( 'NONE',  ( 0.0000000000000000000, 0.0000000000000000000, 1.000000000000000000 ) ) ;
#105 = EDGE_LOOP ( 'NONE', ( #192, #150, #283, #295 ) ) ;
#106 = DIRECTION ( 'NONE',  ( -1.000000000000000000, 0.0000000000000000000, 0.0000000000000000000 ) ) ;
#107 = SURFACE_STYLE_USAGE ( .BOTH. , #288 ) ;
#108 = SURFACE_STYLE_USAGE ( .BOTH. , #137 ) ;
#109 = ORIENTED_EDGE ( 'NONE', *, *, #231, .F. ) ;
#110 = VECTOR ( 'NONE', #233, 39.37007874015748143 ) ;
#111 =( NAMED_UNIT ( * ) SI_UNIT ( $, .STERADIAN. ) SOLID_ANGLE_UNIT ( ) );
#112 = VECTOR ( 'NONE', #115, 39.37007874015748143 ) ;
#113 = ADVANCED_FACE ( 'NONE', ( #36 ), #178, .T. ) ;
#114 = CARTESIAN_POINT ( 'NONE',  ( 0.0000000000000000000, 0.0000000000000000000, 1.968503999999999809 ) ) ;
#115 = DIRECTION ( 'NONE',  ( 0.1736481776669313859, 0.0000000000000000000, 0.9848077530122077983 ) ) ;
#116 = DIRECTION ( 'NONE',  ( 1.000000000000000000, 0.0000000000000000000, 0.0000000000000000000 ) ) ;
#117 = CYLINDRICAL_SURFACE ( 'NONE', #253, 0.07874000000000001831 ) ;
#118 = APPLICATION_CONTEXT ( 'automotive_design' ) ;
#119 = AXIS2_PLACEMENT_3D ( 'NONE', #90, #40, #42 ) ;
#120 = CARTESIAN_POINT ( 'NONE',  ( -0.07873999999999996280, 0.0000000000000000000, 0.4498479587584186534 ) ) ;
#121 = CIRCLE ( 'NONE', #161, 0.009832657499999999592 ) ;
#122 = ORIENTED_EDGE ( 'NONE', *, *, #257, .T. ) ;
#123 = DIRECTION ( 'NONE',  ( 1.224646799147353207E-16, 0.0000000000000000000, 1.000000000000000000 ) ) ;
#124 = DIRECTION ( 'NONE',  ( 1.000000000000000000, 0.0000000000000000000, 0.0000000000000000000 ) ) ;
#125 = UNCERTAINTY_MEASURE_WITH_UNIT (LENGTH_MEASURE( 1.000000000000000082E-05 ), #271, 'distance_accuracy_value', 'NONE');
#126 = VERTEX_POINT ( 'NONE', #158 ) ;
#127 = ORIENTED_EDGE ( 'NONE', *, *, #231, .T. ) ;
#128 = DIRECTION ( 'NONE',  ( 1.224646799147353207E-16, 0.0000000000000000000, 1.000000000000000000 ) ) ;
#129 = EDGE_LOOP ( 'NONE', ( #213, #267 ) ) ;
#130 = STYLED_ITEM ( 'NONE', ( #181 ), #166 ) ;
#131 = ORIENTED_EDGE ( 'NONE', *, *, #163, .F. ) ;
#132 = CARTESIAN_POINT ( 'NONE',  ( 0.0000000000000000000, 0.0000000000000000000, 0.0000000000000000000 ) ) ;
#133 = APPLICATION_PROTOCOL_DEFINITION ( 'draft international standard', 'automotive_design', 1998, #65 ) ;
#134 = ORIENTED_EDGE ( 'NONE', *, *, #148, .F. ) ;
#135 =( CONVERSION_BASED_UNIT ( 'INCH', #219 ) LENGTH_UNIT ( ) NAMED_UNIT ( #160 ) );
#136 = EDGE_CURVE ( 'NONE', #45, #138, #44, .T. ) ;
#137 = SURFACE_SIDE_STYLE ('',( #207 ) ) ;
#138 = VERTEX_POINT ( 'NONE', #120 ) ;
#139 = VECTOR ( 'NONE', #29, 39.37007874015748143 ) ;
#140 = FILL_AREA_STYLE ('',( #87 ) ) ;
#141 = LINE ( 'NONE', #269, #293 ) ;
#142 = ADVANCED_FACE ( 'NONE', ( #205 ), #117, .T. ) ;
#143 = CARTESIAN_POINT ( 'NONE',  ( 0.0000000000000000000, 0.0000000000000000000, 1.968503999999999809 ) ) ;
#144 = ORIENTED_EDGE ( 'NONE', *, *, #31, .F. ) ;
#145 = ORIENTED_EDGE ( 'NONE', *, *, #9, .T. ) ;
#146 = DIRECTION ( 'NONE',  ( 0.0000000000000000000, 0.0000000000000000000, 1.000000000000000000 ) ) ;
#147 = AXIS2_PLACEMENT_3D ( 'NONE', #66, #227, #251 ) ;
#148 = EDGE_CURVE ( 'NONE', #57, #277, #212, .T. ) ;
#149 = FACE_OUTER_BOUND ( 'NONE', #237, .T. ) ;
#150 = ORIENTED_EDGE ( 'NONE', *, *, #100, .T. ) ;
#151 = ORIENTED_EDGE ( 'NONE', *, *, #261, .F. ) ;
#152 = DIRECTION ( 'NONE',  ( 1.000000000000000000, 0.0000000000000000000, 0.0000000000000000000 ) ) ;
#153 = AXIS2_PLACEMENT_3D ( 'NONE', #78, #128, #7 ) ;
#154 = CARTESIAN_POINT ( 'NONE',  ( 0.06374000000000018540, 8.724383797125754882E-18, 1.968503999999999809 ) ) ;
#155 = PRESENTATION_STYLE_ASSIGNMENT (( #107 ) ) ;
#156 = FACE_OUTER_BOUND ( 'NONE', #28, .T. ) ;
#157 = CYLINDRICAL_SURFACE ( 'NONE', #248, 0.009832657500000001327 ) ;
#158 = CARTESIAN_POINT ( 'NONE',  ( 0.009832657500000004797, 0.0000000000000000000, 0.05905500000000000332 ) ) ;
#159 = EDGE_CURVE ( 'NONE', #25, #138, #141, .T. ) ;
#160 = DIMENSIONAL_EXPONENTS ( 1.000000000000000000, 0.0000000000000000000, 0.0000000000000000000, 0.0000000000000000000, 0.0000000000000000000, 0.0000000000000000000, 0.0000000000000000000 ) ;
#161 = AXIS2_PLACEMENT_3D ( 'NONE', #241, #2, #54 ) ;
#162 = ORIENTED_EDGE ( 'NONE', *, *, #163, .T. ) ;
#163 = EDGE_CURVE ( 'NONE', #95, #138, #247, .T. ) ;
#164 = CARTESIAN_POINT ( 'NONE',  ( 0.009832657500000001327, 1.204153253448721743E-18, -1.204153253448721743E-18 ) ) ;
#165 = CARTESIAN_POINT ( 'NONE',  ( 5.509048627964680171E-17, 0.0000000000000000000, 0.4498479587584186534 ) ) ;
#166 = MANIFOLD_SOLID_BREP ( 'Cut-Revolve1', #264 ) ;
#167 = AXIS2_PLACEMENT_3D ( 'NONE', #245, #17, #290 ) ;
#168 = AXIS2_PLACEMENT_3D ( 'NONE', #226, #146, #19 ) ;
#169 = PLANE ( 'NONE',  #6 ) ;
#170 = ORIENTED_EDGE ( 'NONE', *, *, #100, .F. ) ;
#171 = CARTESIAN_POINT ( 'NONE',  ( -0.06374000000000018540, 0.0000000000000000000, 1.968503999999999809 ) ) ;
#172 =( LENGTH_UNIT ( ) NAMED_UNIT ( * ) SI_UNIT ( $, .METRE. ) );
#173 = ORIENTED_EDGE ( 'NONE', *, *, #136, .T. ) ;
#174 = ORIENTED_EDGE ( 'NONE', *, *, #43, .T. ) ;
#175 = DIRECTION ( 'NONE',  ( -1.224646799147353207E-16, -0.0000000000000000000, -1.000000000000000000 ) ) ;
#176 = CIRCLE ( 'NONE', #256, 0.07874000000000001831 ) ;
#177 = ADVANCED_FACE ( 'NONE', ( #63 ), #187, .T. ) ;
#178 = PLANE ( 'NONE',  #225 ) ;
#179 = DIRECTION ( 'NONE',  ( -1.224646799147353207E-16, -0.0000000000000000000, -1.000000000000000000 ) ) ;
#180 = FILL_AREA_STYLE ('',( #285 ) ) ;
#181 = PRESENTATION_STYLE_ASSIGNMENT (( #108 ) ) ;
#182 = DIRECTION ( 'NONE',  ( 0.0000000000000000000, 0.0000000000000000000, -1.000000000000000000 ) ) ;
#183 = EDGE_CURVE ( 'NONE', #277, #57, #56, .T. ) ;
#184 = DIRECTION ( 'NONE',  ( -1.224646799147353207E-16, -0.0000000000000000000, -1.000000000000000000 ) ) ;
#185 = ADVANCED_BREP_SHAPE_REPRESENTATION ( 'Micro_AMRM-005-2', ( #166, #49 ), #48 ) ;
#186 = CARTESIAN_POINT ( 'NONE',  ( 0.0000000000000000000, 0.0000000000000000000, 1.953504000000000129 ) ) ;
#187 = CONICAL_SURFACE ( 'NONE', #119, 0.06374000000000018540, 0.7853981633974528309 ) ;
#188 = EDGE_LOOP ( 'NONE', ( #297, #286, #82, #170 ) ) ;
#189 = DIRECTION ( 'NONE',  ( -0.0000000000000000000, -0.0000000000000000000, -1.000000000000000000 ) ) ;
#190 = UNCERTAINTY_MEASURE_WITH_UNIT (LENGTH_MEASURE( 1.000000000000000082E-05 ), #135, 'distance_accuracy_value', 'NONE');
#191 = MECHANICAL_DESIGN_GEOMETRIC_PRESENTATION_REPRESENTATION (  '', ( #279 ), #236 ) ;
#192 = ORIENTED_EDGE ( 'NONE', *, *, #15, .F. ) ;
#193 = DIRECTION ( 'NONE',  ( 0.0000000000000000000, 0.0000000000000000000, 1.000000000000000000 ) ) ;
#194 = ORIENTED_EDGE ( 'NONE', *, *, #31, .T. ) ;
#195 = COLOUR_RGB ( '',0.7921568627450980005, 0.8196078431372548767, 0.9333333333333333481 ) ;
#196 = CARTESIAN_POINT ( 'NONE',  ( 0.0000000000000000000, 0.0000000000000000000, 1.968503999999999809 ) ) ;
#197 = ORIENTED_EDGE ( 'NONE', *, *, #9, .F. ) ;
#198 = DIRECTION ( 'NONE',  ( -1.000000000000000000, 0.0000000000000000000, 1.224646799147353207E-16 ) ) ;
#199 =( CONVERSION_BASED_UNIT ( 'INCH', #86 ) LENGTH_UNIT ( ) NAMED_UNIT ( #275 ) );
#200 = EDGE_CURVE ( 'NONE', #281, #4, #214, .T. ) ;
#201 = ADVANCED_FACE ( 'NONE', ( #284 ), #266, .T. ) ;
#202 = CONICAL_SURFACE ( 'NONE', #102, 0.06374000000000018540, 0.7853981633974528309 ) ;
#203 = LENGTH_MEASURE_WITH_UNIT ( LENGTH_MEASURE( 0.02539999999999999897 ), #11 );
#204 = ORIENTED_EDGE ( 'NONE', *, *, #234, .F. ) ;
#205 = FACE_OUTER_BOUND ( 'NONE', #1, .T. ) ;
#206 = CARTESIAN_POINT ( 'NONE',  ( -0.009832657499999992654, 1.204153253448721358E-18, 0.05905500000000000332 ) ) ;
#207 = SURFACE_STYLE_FILL_AREA ( #140 ) ;
#208 = LINE ( 'NONE', #164, #12 ) ;
#209 = DIRECTION ( 'NONE',  ( 1.000000000000000000, 0.0000000000000000000, 0.0000000000000000000 ) ) ;
#210 = CONICAL_SURFACE ( 'NONE', #37, 0.009832657499999999592, 0.1745329251994338915 ) ;
#211 = CARTESIAN_POINT ( 'NONE',  ( 0.07874000000000001831, 9.642868896486260050E-18, 1.968503999999999809 ) ) ;
#212 = CIRCLE ( 'NONE', #23, 0.009832657500000001327 ) ;
#213 = ORIENTED_EDGE ( 'NONE', *, *, #148, .T. ) ;
#214 = LINE ( 'NONE', #51, #139 ) ;
#215 = ADVANCED_FACE ( 'NONE', ( #287 ), #169, .F. ) ;
#216 = ORIENTED_EDGE ( 'NONE', *, *, #183, .F. ) ;
#217 = FACE_OUTER_BOUND ( 'NONE', #50, .T. ) ;
#218 = CIRCLE ( 'NONE', #228, 0.07874000000000001831 ) ;
#219 = LENGTH_MEASURE_WITH_UNIT ( LENGTH_MEASURE( 0.02539999999999999897 ), #263 );
#220 = ORIENTED_EDGE ( 'NONE', *, *, #39, .T. ) ;
#221 = CARTESIAN_POINT ( 'NONE',  ( 0.0000000000000000000, 0.0000000000000000000, 1.968503999999999809 ) ) ;
#222 = DIRECTION ( 'NONE',  ( -1.000000000000000000, 0.0000000000000000000, 0.0000000000000000000 ) ) ;
#223 = DIRECTION ( 'NONE',  ( -0.7071067811865507924, 0.0000000000000000000, -0.7071067811865443531 ) ) ;
#224 = DIRECTION ( 'NONE',  ( -0.1736481776669311916, 2.126576849575783316E-17, 0.9848077530122080203 ) ) ;
#225 = AXIS2_PLACEMENT_3D ( 'NONE', #143, #85, #250 ) ;
#226 = CARTESIAN_POINT ( 'NONE',  ( 0.0000000000000000000, 0.0000000000000000000, 1.968503999999999809 ) ) ;
#227 = DIRECTION ( 'NONE',  ( -1.224646799147353207E-16, -0.0000000000000000000, -1.000000000000000000 ) ) ;
#228 = AXIS2_PLACEMENT_3D ( 'NONE', #186, #182, #124 ) ;
#229 = ADVANCED_FACE ( 'NONE', ( #149 ), #202, .T. ) ;
#230 = EDGE_LOOP ( 'NONE', ( #80, #122 ) ) ;
#231 = EDGE_CURVE ( 'NONE', #95, #126, #121, .T. ) ;
#232 = CYLINDRICAL_SURFACE ( 'NONE', #76, 0.07874000000000001831 ) ;
#233 = DIRECTION ( 'NONE',  ( -0.0000000000000000000, -0.0000000000000000000, -1.000000000000000000 ) ) ;
#234 = EDGE_CURVE ( 'NONE', #239, #25, #58, .T. ) ;
#235 = COLOUR_RGB ( '',0.7921568627450980005, 0.8196078431372548767, 0.9333333333333333481 ) ;
#236 =( GEOMETRIC_REPRESENTATION_CONTEXT ( 3 ) GLOBAL_UNCERTAINTY_ASSIGNED_CONTEXT ( ( #72 ) ) GLOBAL_UNIT_ASSIGNED_CONTEXT ( ( #199, #242, #52 ) ) REPRESENTATION_CONTEXT ( 'NONE', 'WORKASPACE' ) );
#237 = EDGE_LOOP ( 'NONE', ( #74, #243, #144, #204 ) ) ;
#238 = DIRECTION ( 'NONE',  ( 1.000000000000000000, 0.0000000000000000000, -0.0000000000000000000 ) ) ;
#239 = VERTEX_POINT ( 'NONE', #171 ) ;
#240 = VECTOR ( 'NONE', #224, 39.37007874015747433 ) ;
#241 = CARTESIAN_POINT ( 'NONE',  ( 7.232151672364695422E-18, 0.0000000000000000000, 0.05905500000000000332 ) ) ;
#242 =( NAMED_UNIT ( * ) PLANE_ANGLE_UNIT ( ) SI_UNIT ( $, .RADIAN. ) );
#243 = ORIENTED_EDGE ( 'NONE', *, *, #200, .T. ) ;
#244 = PRODUCT_CONTEXT ( 'NONE', #118, 'mechanical' ) ;
#245 = CARTESIAN_POINT ( 'NONE',  ( 0.0000000000000000000, 0.0000000000000000000, 1.953504000000000129 ) ) ;
#246 = CARTESIAN_POINT ( 'NONE',  ( 0.0000000000000000000, 0.0000000000000000000, 0.0000000000000000000 ) ) ;
#247 = LINE ( 'NONE', #206, #240 ) ;
#248 = AXIS2_PLACEMENT_3D ( 'NONE', #246, #35, #249 ) ;
#249 = DIRECTION ( 'NONE',  ( -1.000000000000000000, 0.0000000000000000000, 1.224646799147353207E-16 ) ) ;
#250 = DIRECTION ( 'NONE',  ( 1.000000000000000000, 0.0000000000000000000, -0.0000000000000000000 ) ) ;
#251 = DIRECTION ( 'NONE',  ( -1.000000000000000000, 0.0000000000000000000, 1.224646799147353207E-16 ) ) ;
#252 = AXIS2_PLACEMENT_3D ( 'NONE', #291, #71, #22 ) ;
#253 = AXIS2_PLACEMENT_3D ( 'NONE', #114, #18, #222 ) ;
#254 = LINE ( 'NONE', #93, #112 ) ;
#255 = ORIENTED_EDGE ( 'NONE', *, *, #3, .F. ) ;
#256 = AXIS2_PLACEMENT_3D ( 'NONE', #165, #69, #209 ) ;
#257 = EDGE_CURVE ( 'NONE', #281, #239, #282, .T. ) ;
#258 = PRESENTATION_LAYER_ASSIGNMENT (  '', '', ( #130 ) ) ;
#259 = ORIENTED_EDGE ( 'NONE', *, *, #159, .F. ) ;
#260 = DIRECTION ( 'NONE',  ( -1.224646799147353207E-16, -0.0000000000000000000, -1.000000000000000000 ) ) ;
#261 = EDGE_CURVE ( 'NONE', #95, #57, #26, .T. ) ;
#262 = EDGE_LOOP ( 'NONE', ( #109, #162, #220, #197 ) ) ;
#263 =( LENGTH_UNIT ( ) NAMED_UNIT ( * ) SI_UNIT ( $, .METRE. ) );
#264 = CLOSED_SHELL ( 'NONE', ( #70, #98, #229, #142, #24, #113, #177, #280, #201, #215 ) ) ;
#265 = ORIENTED_EDGE ( 'NONE', *, *, #3, .T. ) ;
#266 = CYLINDRICAL_SURFACE ( 'NONE', #299, 0.009832657500000001327 ) ;
#267 = ORIENTED_EDGE ( 'NONE', *, *, #183, .T. ) ;
#268 = DIRECTION ( 'NONE',  ( 0.0000000000000000000, 0.0000000000000000000, 1.000000000000000000 ) ) ;
#269 = CARTESIAN_POINT ( 'NONE',  ( -0.07874000000000001831, 0.0000000000000000000, 1.968503999999999809 ) ) ;
#270 = CARTESIAN_POINT ( 'NONE',  ( -0.07874000000000001831, 0.0000000000000000000, 1.953504000000000129 ) ) ;
#271 =( CONVERSION_BASED_UNIT ( 'INCH', #203 ) LENGTH_UNIT ( ) NAMED_UNIT ( #274 ) );
#272 = CARTESIAN_POINT ( 'NONE',  ( 0.07874000000000007382, 9.642868896486266213E-18, 0.4498479587584186534 ) ) ;
#273 = CIRCLE ( 'NONE', #167, 0.07874000000000001831 ) ;
#274 = DIMENSIONAL_EXPONENTS ( 1.000000000000000000, 0.0000000000000000000, 0.0000000000000000000, 0.0000000000000000000, 0.0000000000000000000, 0.0000000000000000000, 0.0000000000000000000 ) ;
#275 = DIMENSIONAL_EXPONENTS ( 1.000000000000000000, 0.0000000000000000000, 0.0000000000000000000, 0.0000000000000000000, 0.0000000000000000000, 0.0000000000000000000, 0.0000000000000000000 ) ;
#276 = CARTESIAN_POINT ( 'NONE',  ( -0.009832657499999992654, 5.423511074967491474E-18, 0.05905500000000000332 ) ) ;
#277 = VERTEX_POINT ( 'NONE', #5 ) ;
#278 = DIRECTION ( 'NONE',  ( -1.000000000000000000, 0.0000000000000000000, 0.0000000000000000000 ) ) ;
#279 = STYLED_ITEM ( 'NONE', ( #155 ), #185 ) ;
#280 = ADVANCED_FACE ( 'NONE', ( #217 ), #73, .T. ) ;
#281 = VERTEX_POINT ( 'NONE', #154 ) ;
#282 = CIRCLE ( 'NONE', #94, 0.06374000000000018540 ) ;
#283 = ORIENTED_EDGE ( 'NONE', *, *, #159, .T. ) ;
#284 = FACE_OUTER_BOUND ( 'NONE', #33, .T. ) ;
#285 = FILL_AREA_STYLE_COLOUR ( '', #195 ) ;
#286 = ORIENTED_EDGE ( 'NONE', *, *, #16, .F. ) ;
#287 = FACE_OUTER_BOUND ( 'NONE', #129, .T. ) ;
#288 = SURFACE_SIDE_STYLE ('',( #79 ) ) ;
#289 =( NAMED_UNIT ( * ) PLANE_ANGLE_UNIT ( ) SI_UNIT ( $, .RADIAN. ) );
#290 = DIRECTION ( 'NONE',  ( 1.000000000000000000, 0.0000000000000000000, 0.0000000000000000000 ) ) ;
#291 = CARTESIAN_POINT ( 'NONE',  ( 7.232151672364695422E-18, 0.0000000000000000000, 0.05905500000000000332 ) ) ;
#292 = DIRECTION ( 'NONE',  ( -1.224646799147353207E-16, -0.0000000000000000000, -1.000000000000000000 ) ) ;
#293 = VECTOR ( 'NONE', #34, 39.37007874015748143 ) ;
#294 = PRODUCT_RELATED_PRODUCT_CATEGORY ( 'part', '', ( #81 ) ) ;
#295 = ORIENTED_EDGE ( 'NONE', *, *, #136, .F. ) ;
#296 = DIRECTION ( 'NONE',  ( 1.000000000000000000, 0.0000000000000000000, 0.0000000000000000000 ) ) ;
#297 = ORIENTED_EDGE ( 'NONE', *, *, #200, .F. ) ;
#298 = PRODUCT_DEFINITION_CONTEXT ( 'detailed design', #65, 'design' ) ;
#299 = AXIS2_PLACEMENT_3D ( 'NONE', #101, #175, #198 ) ;
ENDSEC;
END-ISO-10303-21;
