ISO-10303-21;
HEADER;
FILE_DESCRIPTION (( 'STEP AP214' ),
    '1' );
FILE_NAME ('03180.STEP',
    '2023-06-22T15:00:59',
    ( '' ),
    ( '' ),
    'SwSTEP 2.0',
    'SolidWorks 2023',
    '' );
FILE_SCHEMA (( 'AUTOMOTIVE_DESIGN' ));
ENDSEC;

DATA;
#1 = PLANE ( 'NONE',  #267 ) ;
#2 = ORIENTED_EDGE ( 'NONE', *, *, #254, .F. ) ;
#3 =( CONVERSION_BASED_UNIT ( 'INCH', #230 ) LENGTH_UNIT ( ) NAMED_UNIT ( #195 ) );
#4 = EDGE_CURVE ( 'NONE', #51, #256, #244, .T. ) ;
#5 = STYLED_ITEM ( 'NONE', ( #306 ), #29 ) ;
#6 = STYLED_ITEM ( 'NONE', ( #180 ), #115 ) ;
#7 = ORIENTED_EDGE ( 'NONE', *, *, #158, .F. ) ;
#8 = UNCERTAINTY_MEASURE_WITH_UNIT (LENGTH_MEASURE( 1.000000000000000082E-05 ), #301, 'distance_accuracy_value', 'NONE');
#9 = CARTESIAN_POINT ( 'NONE',  ( -0.1250000000000000833, 3.000000000000000444, 0.000000000000000000 ) ) ;
#10 = CIRCLE ( 'NONE', #302, 0.1249999999999999861 ) ;
#11 = FILL_AREA_STYLE ('',( #46 ) ) ;
#12 = CIRCLE ( 'NONE', #249, 0.1250000000000000555 ) ;
#13 =( GEOMETRIC_REPRESENTATION_CONTEXT ( 3 ) GLOBAL_UNCERTAINTY_ASSIGNED_CONTEXT ( ( #8 ) ) GLOBAL_UNIT_ASSIGNED_CONTEXT ( ( #301, #167, #97 ) ) REPRESENTATION_CONTEXT ( 'NONE', 'WORKASPACE' ) );
#14 = ORIENTED_EDGE ( 'NONE', *, *, #226, .T. ) ;
#15 = DIRECTION ( 'NONE',  ( -0.000000000000000000, -1.000000000000000000, -0.000000000000000000 ) ) ;
#16 =( NAMED_UNIT ( * ) PLANE_ANGLE_UNIT ( ) SI_UNIT ( $, .RADIAN. ) );
#17 = DIRECTION ( 'NONE',  ( -1.000000000000000000, 0.000000000000000000, 0.000000000000000000 ) ) ;
#18 = PLANE ( 'NONE',  #144 ) ;
#19 = UNCERTAINTY_MEASURE_WITH_UNIT (LENGTH_MEASURE( 1.000000000000000082E-05 ), #119, 'distance_accuracy_value', 'NONE');
#20 = MECHANICAL_DESIGN_GEOMETRIC_PRESENTATION_REPRESENTATION (  '', ( #41 ), #272 ) ;
#21 = APPLICATION_CONTEXT ( 'automotive_design' ) ;
#22 =( CONVERSION_BASED_UNIT ( 'INCH', #280 ) LENGTH_UNIT ( ) NAMED_UNIT ( #270 ) );
#23 = ORIENTED_EDGE ( 'NONE', *, *, #279, .F. ) ;
#24 = MECHANICAL_DESIGN_GEOMETRIC_PRESENTATION_REPRESENTATION (  '', ( #6 ), #127 ) ;
#25 = SURFACE_SIDE_STYLE ('',( #47 ) ) ;
#26 = STYLED_ITEM ( 'NONE', ( #118 ), #243 ) ;
#27 = FILL_AREA_STYLE ('',( #220 ) ) ;
#28 = EDGE_CURVE ( 'NONE', #256, #51, #12, .T. ) ;
#29 = MANIFOLD_SOLID_BREP ( 'Revolve - Tool Body (Straight Shanked)', #215 ) ;
#30 = LENGTH_MEASURE_WITH_UNIT ( LENGTH_MEASURE( 0.02539999999999999897 ), #70 );
#31 = EDGE_LOOP ( 'NONE', ( #166, #184 ) ) ;
#32 = APPLICATION_PROTOCOL_DEFINITION ( 'draft international standard', 'automotive_design', 1998, #21 ) ;
#33 = DIRECTION ( 'NONE',  ( -0.000000000000000000, -1.000000000000000000, -0.000000000000000000 ) ) ;
#34 = ORIENTED_EDGE ( 'NONE', *, *, #79, .F. ) ;
#35 = VECTOR ( 'NONE', #282, 39.37007874015748143 ) ;
#36 = CARTESIAN_POINT ( 'NONE',  ( 1.530808498934191509E-17, 0.000000000000000000, 0.1250000000000000000 ) ) ;
#37 = LINE ( 'NONE', #199, #109 ) ;
#38 = DIRECTION ( 'NONE',  ( -0.000000000000000000, -1.000000000000000000, -0.000000000000000000 ) ) ;
#39 =( NAMED_UNIT ( * ) PLANE_ANGLE_UNIT ( ) SI_UNIT ( $, .RADIAN. ) );
#40 = EDGE_CURVE ( 'NONE', #131, #205, #37, .T. ) ;
#41 = STYLED_ITEM ( 'NONE', ( #73 ), #66 ) ;
#42 = AXIS2_PLACEMENT_3D ( 'NONE', #140, #105, #17 ) ;
#43 = CARTESIAN_POINT ( 'NONE',  ( 0.1250000000000000000, 3.000000000000000444, 1.530808498934192125E-17 ) ) ;
#44 = DIRECTION ( 'NONE',  ( 0.000000000000000000, 0.000000000000000000, -1.000000000000000000 ) ) ;
#45 = CARTESIAN_POINT ( 'NONE',  ( 0.000000000000000000, 0.000000000000000000, 0.000000000000000000 ) ) ;
#46 = FILL_AREA_STYLE_COLOUR ( '', #151 ) ;
#47 = SURFACE_STYLE_FILL_AREA ( #299 ) ;
#48 = PRESENTATION_LAYER_ASSIGNMENT (  '', '', ( #26 ) ) ;
#49 = ADVANCED_FACE ( 'NONE', ( #309 ), #18, .F. ) ;
#50 = CIRCLE ( 'NONE', #42, 0.1249999999999999861 ) ;
#51 = VERTEX_POINT ( 'NONE', #258 ) ;
#52 = SURFACE_STYLE_FILL_AREA ( #242 ) ;
#53 = ORIENTED_EDGE ( 'NONE', *, *, #4, .F. ) ;
#54 = CARTESIAN_POINT ( 'NONE',  ( -6.123233995736772199E-17, 3.000000000000000444, 0.000000000000000000 ) ) ;
#55 = AXIS2_PLACEMENT_3D ( 'NONE', #45, #266, #264 ) ;
#56 = VERTEX_POINT ( 'NONE', #183 ) ;
#57 = VERTEX_POINT ( 'NONE', #284 ) ;
#58 = CARTESIAN_POINT ( 'NONE',  ( 0.000000000000000000, 1.000000000000000000, -0.1249999999999999861 ) ) ;
#59 = ADVANCED_FACE ( 'NONE', ( #169 ), #168, .T. ) ;
#60 = DIRECTION ( 'NONE',  ( -0.000000000000000000, -1.000000000000000000, -0.000000000000000000 ) ) ;
#61 = EDGE_LOOP ( 'NONE', ( #148, #287, #53, #170 ) ) ;
#62 = VECTOR ( 'NONE', #187, 39.37007874015748143 ) ;
#63 =( NAMED_UNIT ( * ) SI_UNIT ( $, .STERADIAN. ) SOLID_ANGLE_UNIT ( ) );
#64 = CARTESIAN_POINT ( 'NONE',  ( -6.123233995736772199E-17, 3.000000000000000444, 0.000000000000000000 ) ) ;
#65 = CLOSED_SHELL ( 'NONE', ( #304, #115, #243, #297 ) ) ;
#66 = MANIFOLD_SOLID_BREP ( 'Revolve - Cutting Edge', #65 ) ;
#67 = MECHANICAL_DESIGN_GEOMETRIC_PRESENTATION_REPRESENTATION (  '', ( #262 ), #300 ) ;
#68 = DIMENSIONAL_EXPONENTS ( 1.000000000000000000, 0.000000000000000000, 0.000000000000000000, 0.000000000000000000, 0.000000000000000000, 0.000000000000000000, 0.000000000000000000 ) ;
#69 = PRODUCT_DEFINITION_CONTEXT ( 'detailed design', #277, 'design' ) ;
#70 =( LENGTH_UNIT ( ) NAMED_UNIT ( * ) SI_UNIT ( $, .METRE. ) );
#71 = DIRECTION ( 'NONE',  ( -1.000000000000000000, 0.000000000000000000, 0.000000000000000000 ) ) ;
#72 = CARTESIAN_POINT ( 'NONE',  ( 0.000000000000000000, 0.000000000000000000, 0.000000000000000000 ) ) ;
#73 = PRESENTATION_STYLE_ASSIGNMENT (( #192 ) ) ;
#74 = DIRECTION ( 'NONE',  ( -3.061616997868386099E-17, 1.000000000000000000, -0.000000000000000000 ) ) ;
#75 = EDGE_LOOP ( 'NONE', ( #86, #234 ) ) ;
#76 = CIRCLE ( 'NONE', #98, 0.1249999999999999861 ) ;
#77 = AXIS2_PLACEMENT_3D ( 'NONE', #268, #15, #99 ) ;
#78 = LENGTH_MEASURE_WITH_UNIT ( LENGTH_MEASURE( 0.02539999999999999897 ), #101 );
#79 = EDGE_CURVE ( 'NONE', #57, #178, #50, .T. ) ;
#80 = CARTESIAN_POINT ( 'NONE',  ( 0.000000000000000000, 0.000000000000000000, 0.000000000000000000 ) ) ;
#81 = ORIENTED_EDGE ( 'NONE', *, *, #279, .T. ) ;
#82 = UNCERTAINTY_MEASURE_WITH_UNIT (LENGTH_MEASURE( 1.000000000000000082E-05 ), #137, 'distance_accuracy_value', 'NONE');
#83 = CARTESIAN_POINT ( 'NONE',  ( 0.1250000000000000000, 1.000000000000000000, 1.530808498934192125E-17 ) ) ;
#84 = DIRECTION ( 'NONE',  ( -3.061616997868386099E-17, 1.000000000000000000, -0.000000000000000000 ) ) ;
#85 = PRODUCT_CONTEXT ( 'NONE', #21, 'mechanical' ) ;
#86 = ORIENTED_EDGE ( 'NONE', *, *, #4, .T. ) ;
#87 = STYLED_ITEM ( 'NONE', ( #214 ), #297 ) ;
#88 =( CONVERSION_BASED_UNIT ( 'INCH', #78 ) LENGTH_UNIT ( ) NAMED_UNIT ( #68 ) );
#89 = EDGE_LOOP ( 'NONE', ( #201, #221 ) ) ;
#90 = DIRECTION ( 'NONE',  ( -3.061616997868386099E-17, 1.000000000000000000, -0.000000000000000000 ) ) ;
#91 = FACE_OUTER_BOUND ( 'NONE', #128, .T. ) ;
#92 = COLOUR_RGB ( '',1.000000000000000000, 0.000000000000000000, 0.000000000000000000 ) ;
#93 = EDGE_CURVE ( 'NONE', #125, #56, #198, .T. ) ;
#94 = PLANE ( 'NONE',  #257 ) ;
#95 = CYLINDRICAL_SURFACE ( 'NONE', #77, 0.1250000000000000000 ) ;
#96 = PRESENTATION_LAYER_ASSIGNMENT (  '', '', ( #6 ) ) ;
#97 =( NAMED_UNIT ( * ) SI_UNIT ( $, .STERADIAN. ) SOLID_ANGLE_UNIT ( ) );
#98 = AXIS2_PLACEMENT_3D ( 'NONE', #209, #90, #239 ) ;
#99 = DIRECTION ( 'NONE',  ( 0.000000000000000000, 0.000000000000000000, -1.000000000000000000 ) ) ;
#100 = SURFACE_STYLE_USAGE ( .BOTH. , #275 ) ;
#101 =( LENGTH_UNIT ( ) NAMED_UNIT ( * ) SI_UNIT ( $, .METRE. ) );
#102 = FACE_OUTER_BOUND ( 'NONE', #89, .T. ) ;
#103 = PRODUCT_DEFINITION_FORMATION_WITH_SPECIFIED_SOURCE ( 'ANY', '', #206, .NOT_KNOWN. ) ;
#104 = ORIENTED_EDGE ( 'NONE', *, *, #273, .T. ) ;
#105 = DIRECTION ( 'NONE',  ( -3.061616997868386099E-17, 1.000000000000000000, -0.000000000000000000 ) ) ;
#106 = CARTESIAN_POINT ( 'NONE',  ( -6.123233995736772199E-17, 3.000000000000000444, 0.000000000000000000 ) ) ;
#107 =( LENGTH_UNIT ( ) NAMED_UNIT ( * ) SI_UNIT ( $, .METRE. ) );
#108 =( NAMED_UNIT ( * ) SI_UNIT ( $, .STERADIAN. ) SOLID_ANGLE_UNIT ( ) );
#109 = VECTOR ( 'NONE', #281, 39.37007874015748143 ) ;
#110 = CARTESIAN_POINT ( 'NONE',  ( 0.000000000000000000, 1.000000000000000000, 0.000000000000000000 ) ) ;
#111 = LINE ( 'NONE', #9, #62 ) ;
#112 = PRESENTATION_LAYER_ASSIGNMENT (  '', '', ( #87 ) ) ;
#113 = SURFACE_STYLE_USAGE ( .BOTH. , #25 ) ;
#114 = DIMENSIONAL_EXPONENTS ( 1.000000000000000000, 0.000000000000000000, 0.000000000000000000, 0.000000000000000000, 0.000000000000000000, 0.000000000000000000, 0.000000000000000000 ) ;
#115 = ADVANCED_FACE ( 'NONE', ( #102 ), #1, .T. ) ;
#116 = VECTOR ( 'NONE', #135, 39.37007874015748143 ) ;
#117 =( NAMED_UNIT ( * ) PLANE_ANGLE_UNIT ( ) SI_UNIT ( $, .RADIAN. ) );
#118 = PRESENTATION_STYLE_ASSIGNMENT (( #100 ) ) ;
#119 =( CONVERSION_BASED_UNIT ( 'INCH', #30 ) LENGTH_UNIT ( ) NAMED_UNIT ( #222 ) );
#120 = DIRECTION ( 'NONE',  ( 0.000000000000000000, 0.000000000000000000, -1.000000000000000000 ) ) ;
#121 = PRODUCT_DEFINITION_SHAPE ( 'NONE', 'NONE',  #232 ) ;
#122 = MECHANICAL_DESIGN_GEOMETRIC_PRESENTATION_REPRESENTATION (  '', ( #26 ), #211 ) ;
#123 =( CONVERSION_BASED_UNIT ( 'INCH', #251 ) LENGTH_UNIT ( ) NAMED_UNIT ( #265 ) );
#124 = CARTESIAN_POINT ( 'NONE',  ( -6.123233995736772199E-17, 3.000000000000000444, 0.000000000000000000 ) ) ;
#125 = VERTEX_POINT ( 'NONE', #58 ) ;
#126 = UNCERTAINTY_MEASURE_WITH_UNIT (LENGTH_MEASURE( 1.000000000000000082E-05 ), #3, 'distance_accuracy_value', 'NONE');
#127 =( GEOMETRIC_REPRESENTATION_CONTEXT ( 3 ) GLOBAL_UNCERTAINTY_ASSIGNED_CONTEXT ( ( #202 ) ) GLOBAL_UNIT_ASSIGNED_CONTEXT ( ( #22, #292, #63 ) ) REPRESENTATION_CONTEXT ( 'NONE', 'WORKASPACE' ) );
#128 = EDGE_LOOP ( 'NONE', ( #290, #14, #223, #143 ) ) ;
#129 = SURFACE_STYLE_USAGE ( .BOTH. , #252 ) ;
#130 = FILL_AREA_STYLE_COLOUR ( '', #92 ) ;
#131 = VERTEX_POINT ( 'NONE', #255 ) ;
#132 = DIRECTION ( 'NONE',  ( -1.000000000000000000, 0.000000000000000000, 0.000000000000000000 ) ) ;
#133 = FILL_AREA_STYLE ('',( #130 ) ) ;
#134 = DIRECTION ( 'NONE',  ( -3.061616997868386099E-17, 1.000000000000000000, -0.000000000000000000 ) ) ;
#135 = DIRECTION ( 'NONE',  ( -3.061616997868386099E-17, 1.000000000000000000, -0.000000000000000000 ) ) ;
#136 = DIRECTION ( 'NONE',  ( -0.000000000000000000, -1.000000000000000000, -0.000000000000000000 ) ) ;
#137 =( CONVERSION_BASED_UNIT ( 'INCH', #163 ) LENGTH_UNIT ( ) NAMED_UNIT ( #303 ) );
#138 = EDGE_LOOP ( 'NONE', ( #248, #293, #7, #193 ) ) ;
#139 = DIRECTION ( 'NONE',  ( -1.000000000000000000, -3.061616997868386099E-17, 0.000000000000000000 ) ) ;
#140 = CARTESIAN_POINT ( 'NONE',  ( 7.582401355855259480E-33, 1.000000000000000000, 0.000000000000000000 ) ) ;
#141 = FACE_OUTER_BOUND ( 'NONE', #138, .T. ) ;
#142 =( LENGTH_UNIT ( ) NAMED_UNIT ( * ) SI_UNIT ( $, .METRE. ) );
#143 = ORIENTED_EDGE ( 'NONE', *, *, #217, .F. ) ;
#144 = AXIS2_PLACEMENT_3D ( 'NONE', #283, #210, #139 ) ;
#145 = DIRECTION ( 'NONE',  ( -1.000000000000000000, 0.000000000000000000, 0.000000000000000000 ) ) ;
#146 = SHAPE_DEFINITION_REPRESENTATION ( #121, #213 ) ;
#147 = DIRECTION ( 'NONE',  ( -3.061616997868386099E-17, 1.000000000000000000, -0.000000000000000000 ) ) ;
#148 = ORIENTED_EDGE ( 'NONE', *, *, #79, .T. ) ;
#149 = MECHANICAL_DESIGN_GEOMETRIC_PRESENTATION_REPRESENTATION (  '', ( #5 ), #240 ) ;
#150 = CARTESIAN_POINT ( 'NONE',  ( 0.000000000000000000, 1.000000000000000000, 0.000000000000000000 ) ) ;
#151 = COLOUR_RGB ( '',1.000000000000000000, 0.000000000000000000, 0.000000000000000000 ) ;
#152 = SURFACE_STYLE_FILL_AREA ( #176 ) ;
#153 = DIRECTION ( 'NONE',  ( 1.000000000000000000, 0.000000000000000000, 0.000000000000000000 ) ) ;
#154 =( NAMED_UNIT ( * ) SI_UNIT ( $, .STERADIAN. ) SOLID_ANGLE_UNIT ( ) );
#155 = FACE_OUTER_BOUND ( 'NONE', #61, .T. ) ;
#156 = DIRECTION ( 'NONE',  ( 0.000000000000000000, 1.000000000000000000, 0.000000000000000000 ) ) ;
#157 = FILL_AREA_STYLE_COLOUR ( '', #161 ) ;
#158 = EDGE_CURVE ( 'NONE', #56, #205, #250, .T. ) ;
#159 =( GEOMETRIC_REPRESENTATION_CONTEXT ( 3 ) GLOBAL_UNCERTAINTY_ASSIGNED_CONTEXT ( ( #82 ) ) GLOBAL_UNIT_ASSIGNED_CONTEXT ( ( #137, #117, #191 ) ) REPRESENTATION_CONTEXT ( 'NONE', 'WORKASPACE' ) );
#160 = LINE ( 'NONE', #295, #116 ) ;
#161 = COLOUR_RGB ( '',1.000000000000000000, 0.000000000000000000, 0.000000000000000000 ) ;
#162 =( NAMED_UNIT ( * ) PLANE_ANGLE_UNIT ( ) SI_UNIT ( $, .RADIAN. ) );
#163 = LENGTH_MEASURE_WITH_UNIT ( LENGTH_MEASURE( 0.02539999999999999897 ), #245 );
#164 = SURFACE_SIDE_STYLE ('',( #276 ) ) ;
#165 = AXIS2_PLACEMENT_3D ( 'NONE', #110, #136, #212 ) ;
#166 = ORIENTED_EDGE ( 'NONE', *, *, #158, .T. ) ;
#167 =( NAMED_UNIT ( * ) PLANE_ANGLE_UNIT ( ) SI_UNIT ( $, .RADIAN. ) );
#168 = CYLINDRICAL_SURFACE ( 'NONE', #171, 0.1250000000000000278 ) ;
#169 = FACE_OUTER_BOUND ( 'NONE', #236, .T. ) ;
#170 = ORIENTED_EDGE ( 'NONE', *, *, #273, .F. ) ;
#171 = AXIS2_PLACEMENT_3D ( 'NONE', #54, #74, #71 ) ;
#172 = AXIS2_PLACEMENT_3D ( 'NONE', #72, #269, #120 ) ;
#173 = SURFACE_STYLE_USAGE ( .BOTH. , #233 ) ;
#174 = EDGE_LOOP ( 'NONE', ( #34, #23 ) ) ;
#175 = DIRECTION ( 'NONE',  ( 0.000000000000000000, 0.000000000000000000, -1.000000000000000000 ) ) ;
#176 = FILL_AREA_STYLE ('',( #182 ) ) ;
#177 = CARTESIAN_POINT ( 'NONE',  ( 0.000000000000000000, 0.000000000000000000, 0.000000000000000000 ) ) ;
#178 = VERTEX_POINT ( 'NONE', #83 ) ;
#179 = PRODUCT_RELATED_PRODUCT_CATEGORY ( 'part', '', ( #206 ) ) ;
#180 = PRESENTATION_STYLE_ASSIGNMENT (( #173 ) ) ;
#181 = COLOUR_RGB ( '',1.000000000000000000, 0.000000000000000000, 0.000000000000000000 ) ;
#182 = FILL_AREA_STYLE_COLOUR ( '', #200 ) ;
#183 = CARTESIAN_POINT ( 'NONE',  ( 0.000000000000000000, 0.000000000000000000, -0.1250000000000000000 ) ) ;
#184 = ORIENTED_EDGE ( 'NONE', *, *, #217, .T. ) ;
#185 = DIRECTION ( 'NONE',  ( 3.061616997868386099E-17, -1.000000000000000000, 0.000000000000000000 ) ) ;
#186 = AXIS2_PLACEMENT_3D ( 'NONE', #177, #285, #153 ) ;
#187 = DIRECTION ( 'NONE',  ( -3.061616997868386099E-17, 1.000000000000000000, -0.000000000000000000 ) ) ;
#188 = CYLINDRICAL_SURFACE ( 'NONE', #55, 0.1250000000000000000 ) ;
#189 = PLANE ( 'NONE',  #172 ) ;
#190 =( LENGTH_UNIT ( ) NAMED_UNIT ( * ) SI_UNIT ( $, .METRE. ) );
#191 =( NAMED_UNIT ( * ) SI_UNIT ( $, .STERADIAN. ) SOLID_ANGLE_UNIT ( ) );
#192 = SURFACE_STYLE_USAGE ( .BOTH. , #164 ) ;
#193 = ORIENTED_EDGE ( 'NONE', *, *, #93, .F. ) ;
#194 = UNCERTAINTY_MEASURE_WITH_UNIT (LENGTH_MEASURE( 1.000000000000000082E-05 ), #123, 'distance_accuracy_value', 'NONE');
#195 = DIMENSIONAL_EXPONENTS ( 1.000000000000000000, 0.000000000000000000, 0.000000000000000000, 0.000000000000000000, 0.000000000000000000, 0.000000000000000000, 0.000000000000000000 ) ;
#196 = SURFACE_STYLE_USAGE ( .BOTH. , #224 ) ;
#197 = AXIS2_PLACEMENT_3D ( 'NONE', #289, #38, #44 ) ;
#198 = LINE ( 'NONE', #305, #35 ) ;
#199 = CARTESIAN_POINT ( 'NONE',  ( 1.530808498934191509E-17, 0.000000000000000000, 0.1250000000000000000 ) ) ;
#200 = COLOUR_RGB ( '',0.7921568627450980005, 0.8196078431372548767, 0.9333333333333333481 ) ;
#201 = ORIENTED_EDGE ( 'NONE', *, *, #204, .F. ) ;
#202 = UNCERTAINTY_MEASURE_WITH_UNIT (LENGTH_MEASURE( 1.000000000000000082E-05 ), #22, 'distance_accuracy_value', 'NONE');
#203 =( NAMED_UNIT ( * ) PLANE_ANGLE_UNIT ( ) SI_UNIT ( $, .RADIAN. ) );
#204 = EDGE_CURVE ( 'NONE', #125, #131, #10, .T. ) ;
#205 = VERTEX_POINT ( 'NONE', #36 ) ;
#206 = PRODUCT ( '03180', '03180', '', ( #85 ) ) ;
#207 = UNCERTAINTY_MEASURE_WITH_UNIT (LENGTH_MEASURE( 1.000000000000000082E-05 ), #88, 'distance_accuracy_value', 'NONE');
#208 = CIRCLE ( 'NONE', #165, 0.1249999999999999861 ) ;
#209 = CARTESIAN_POINT ( 'NONE',  ( 7.582401355855259480E-33, 1.000000000000000000, 0.000000000000000000 ) ) ;
#210 = DIRECTION ( 'NONE',  ( -3.061616997868386099E-17, 1.000000000000000000, 0.000000000000000000 ) ) ;
#211 =( GEOMETRIC_REPRESENTATION_CONTEXT ( 3 ) GLOBAL_UNCERTAINTY_ASSIGNED_CONTEXT ( ( #207 ) ) GLOBAL_UNIT_ASSIGNED_CONTEXT ( ( #88, #203, #154 ) ) REPRESENTATION_CONTEXT ( 'NONE', 'WORKASPACE' ) );
#212 = DIRECTION ( 'NONE',  ( 0.000000000000000000, 0.000000000000000000, -1.000000000000000000 ) ) ;
#213 = ADVANCED_BREP_SHAPE_REPRESENTATION ( '03180', ( #66, #29, #186 ), #159 ) ;
#214 = PRESENTATION_STYLE_ASSIGNMENT (( #113 ) ) ;
#215 = CLOSED_SHELL ( 'NONE', ( #247, #49, #59, #291 ) ) ;
#216 = AXIS2_PLACEMENT_3D ( 'NONE', #106, #84, #260 ) ;
#217 = EDGE_CURVE ( 'NONE', #205, #56, #296, .T. ) ;
#218 = SURFACE_STYLE_FILL_AREA ( #11 ) ;
#219 =( NAMED_UNIT ( * ) SI_UNIT ( $, .STERADIAN. ) SOLID_ANGLE_UNIT ( ) );
#220 = FILL_AREA_STYLE_COLOUR ( '', #278 ) ;
#221 = ORIENTED_EDGE ( 'NONE', *, *, #226, .F. ) ;
#222 = DIMENSIONAL_EXPONENTS ( 1.000000000000000000, 0.000000000000000000, 0.000000000000000000, 0.000000000000000000, 0.000000000000000000, 0.000000000000000000, 0.000000000000000000 ) ;
#223 = ORIENTED_EDGE ( 'NONE', *, *, #93, .T. ) ;
#224 = SURFACE_SIDE_STYLE ('',( #52 ) ) ;
#225 = PRESENTATION_LAYER_ASSIGNMENT (  '', '', ( #262 ) ) ;
#226 = EDGE_CURVE ( 'NONE', #131, #125, #208, .T. ) ;
#227 = APPLICATION_PROTOCOL_DEFINITION ( 'draft international standard', 'automotive_design', 1998, #277 ) ;
#228 =( NAMED_UNIT ( * ) SI_UNIT ( $, .STERADIAN. ) SOLID_ANGLE_UNIT ( ) );
#229 =( LENGTH_UNIT ( ) NAMED_UNIT ( * ) SI_UNIT ( $, .METRE. ) );
#230 = LENGTH_MEASURE_WITH_UNIT ( LENGTH_MEASURE( 0.02539999999999999897 ), #229 );
#231 = PRESENTATION_LAYER_ASSIGNMENT (  '', '', ( #5 ) ) ;
#232 = PRODUCT_DEFINITION ( 'UNKNOWN', '', #103, #69 ) ;
#233 = SURFACE_SIDE_STYLE ('',( #235 ) ) ;
#234 = ORIENTED_EDGE ( 'NONE', *, *, #28, .T. ) ;
#235 = SURFACE_STYLE_FILL_AREA ( #133 ) ;
#236 = EDGE_LOOP ( 'NONE', ( #2, #81, #104, #253 ) ) ;
#237 = MECHANICAL_DESIGN_GEOMETRIC_PRESENTATION_REPRESENTATION (  '', ( #87 ), #13 ) ;
#238 = CARTESIAN_POINT ( 'NONE',  ( 0.1249999999999999861, 3.000000000000000444, 0.000000000000000000 ) ) ;
#239 = DIRECTION ( 'NONE',  ( -1.000000000000000000, 0.000000000000000000, 0.000000000000000000 ) ) ;
#240 =( GEOMETRIC_REPRESENTATION_CONTEXT ( 3 ) GLOBAL_UNCERTAINTY_ASSIGNED_CONTEXT ( ( #126 ) ) GLOBAL_UNIT_ASSIGNED_CONTEXT ( ( #3, #39, #108 ) ) REPRESENTATION_CONTEXT ( 'NONE', 'WORKASPACE' ) );
#241 = DIRECTION ( 'NONE',  ( 1.000000000000000000, 3.061616997868386099E-17, 0.000000000000000000 ) ) ;
#242 = FILL_AREA_STYLE ('',( #274 ) ) ;
#243 = ADVANCED_FACE ( 'NONE', ( #91 ), #188, .T. ) ;
#244 = CIRCLE ( 'NONE', #216, 0.1250000000000000555 ) ;
#245 =( LENGTH_UNIT ( ) NAMED_UNIT ( * ) SI_UNIT ( $, .METRE. ) );
#246 = PRESENTATION_STYLE_ASSIGNMENT (( #196 ) ) ;
#247 = ADVANCED_FACE ( 'NONE', ( #155 ), #261, .T. ) ;
#248 = ORIENTED_EDGE ( 'NONE', *, *, #204, .T. ) ;
#249 = AXIS2_PLACEMENT_3D ( 'NONE', #124, #147, #145 ) ;
#250 = CIRCLE ( 'NONE', #307, 0.1250000000000000000 ) ;
#251 = LENGTH_MEASURE_WITH_UNIT ( LENGTH_MEASURE( 0.02539999999999999897 ), #142 );
#252 = SURFACE_SIDE_STYLE ('',( #152 ) ) ;
#253 = ORIENTED_EDGE ( 'NONE', *, *, #28, .F. ) ;
#254 = EDGE_CURVE ( 'NONE', #178, #256, #160, .T. ) ;
#255 = CARTESIAN_POINT ( 'NONE',  ( 1.530808498934191201E-17, 1.000000000000000000, 0.1249999999999999861 ) ) ;
#256 = VERTEX_POINT ( 'NONE', #43 ) ;
#257 = AXIS2_PLACEMENT_3D ( 'NONE', #238, #185, #241 ) ;
#258 = CARTESIAN_POINT ( 'NONE',  ( -0.1250000000000001110, 3.000000000000000444, 0.000000000000000000 ) ) ;
#259 = DIRECTION ( 'NONE',  ( 0.000000000000000000, 0.000000000000000000, -1.000000000000000000 ) ) ;
#260 = DIRECTION ( 'NONE',  ( -1.000000000000000000, 0.000000000000000000, 0.000000000000000000 ) ) ;
#261 = CYLINDRICAL_SURFACE ( 'NONE', #263, 0.1250000000000000278 ) ;
#262 = STYLED_ITEM ( 'NONE', ( #246 ), #304 ) ;
#263 = AXIS2_PLACEMENT_3D ( 'NONE', #64, #134, #132 ) ;
#264 = DIRECTION ( 'NONE',  ( 0.000000000000000000, 0.000000000000000000, -1.000000000000000000 ) ) ;
#265 = DIMENSIONAL_EXPONENTS ( 1.000000000000000000, 0.000000000000000000, 0.000000000000000000, 0.000000000000000000, 0.000000000000000000, 0.000000000000000000, 0.000000000000000000 ) ;
#266 = DIRECTION ( 'NONE',  ( -0.000000000000000000, -1.000000000000000000, -0.000000000000000000 ) ) ;
#267 = AXIS2_PLACEMENT_3D ( 'NONE', #150, #156, #308 ) ;
#268 = CARTESIAN_POINT ( 'NONE',  ( 0.000000000000000000, 0.000000000000000000, 0.000000000000000000 ) ) ;
#269 = DIRECTION ( 'NONE',  ( 0.000000000000000000, -1.000000000000000000, -0.000000000000000000 ) ) ;
#270 = DIMENSIONAL_EXPONENTS ( 1.000000000000000000, 0.000000000000000000, 0.000000000000000000, 0.000000000000000000, 0.000000000000000000, 0.000000000000000000, 0.000000000000000000 ) ;
#271 = LENGTH_MEASURE_WITH_UNIT ( LENGTH_MEASURE( 0.02539999999999999897 ), #190 );
#272 =( GEOMETRIC_REPRESENTATION_CONTEXT ( 3 ) GLOBAL_UNCERTAINTY_ASSIGNED_CONTEXT ( ( #194 ) ) GLOBAL_UNIT_ASSIGNED_CONTEXT ( ( #123, #16, #228 ) ) REPRESENTATION_CONTEXT ( 'NONE', 'WORKASPACE' ) );
#273 = EDGE_CURVE ( 'NONE', #57, #51, #111, .T. ) ;
#274 = FILL_AREA_STYLE_COLOUR ( '', #181 ) ;
#275 = SURFACE_SIDE_STYLE ('',( #218 ) ) ;
#276 = SURFACE_STYLE_FILL_AREA ( #27 ) ;
#277 = APPLICATION_CONTEXT ( 'automotive_design' ) ;
#278 = COLOUR_RGB ( '',0.7921568627450980005, 0.8196078431372548767, 0.9333333333333333481 ) ;
#279 = EDGE_CURVE ( 'NONE', #178, #57, #76, .T. ) ;
#280 = LENGTH_MEASURE_WITH_UNIT ( LENGTH_MEASURE( 0.02539999999999999897 ), #107 );
#281 = DIRECTION ( 'NONE',  ( -0.000000000000000000, -1.000000000000000000, -0.000000000000000000 ) ) ;
#282 = DIRECTION ( 'NONE',  ( -0.000000000000000000, -1.000000000000000000, -0.000000000000000000 ) ) ;
#283 = CARTESIAN_POINT ( 'NONE',  ( 5.858436651022893041E-35, 1.000000000000000000, 0.000000000000000000 ) ) ;
#284 = CARTESIAN_POINT ( 'NONE',  ( -0.1249999999999999861, 1.000000000000000000, 0.000000000000000000 ) ) ;
#285 = DIRECTION ( 'NONE',  ( 0.000000000000000000, 0.000000000000000000, 1.000000000000000000 ) ) ;
#286 = CARTESIAN_POINT ( 'NONE',  ( 0.000000000000000000, 1.000000000000000000, 0.000000000000000000 ) ) ;
#287 = ORIENTED_EDGE ( 'NONE', *, *, #254, .T. ) ;
#288 = PRESENTATION_LAYER_ASSIGNMENT (  '', '', ( #41 ) ) ;
#289 = CARTESIAN_POINT ( 'NONE',  ( 0.000000000000000000, 0.000000000000000000, 0.000000000000000000 ) ) ;
#290 = ORIENTED_EDGE ( 'NONE', *, *, #40, .F. ) ;
#291 = ADVANCED_FACE ( 'NONE', ( #298 ), #94, .F. ) ;
#292 =( NAMED_UNIT ( * ) PLANE_ANGLE_UNIT ( ) SI_UNIT ( $, .RADIAN. ) );
#293 = ORIENTED_EDGE ( 'NONE', *, *, #40, .T. ) ;
#294 = FACE_OUTER_BOUND ( 'NONE', #31, .T. ) ;
#295 = CARTESIAN_POINT ( 'NONE',  ( 0.1249999999999999445, 3.000000000000000444, 1.530808498934191817E-17 ) ) ;
#296 = CIRCLE ( 'NONE', #197, 0.1250000000000000000 ) ;
#297 = ADVANCED_FACE ( 'NONE', ( #294 ), #189, .T. ) ;
#298 = FACE_OUTER_BOUND ( 'NONE', #75, .T. ) ;
#299 = FILL_AREA_STYLE ('',( #157 ) ) ;
#300 =( GEOMETRIC_REPRESENTATION_CONTEXT ( 3 ) GLOBAL_UNCERTAINTY_ASSIGNED_CONTEXT ( ( #19 ) ) GLOBAL_UNIT_ASSIGNED_CONTEXT ( ( #119, #162, #219 ) ) REPRESENTATION_CONTEXT ( 'NONE', 'WORKASPACE' ) );
#301 =( CONVERSION_BASED_UNIT ( 'INCH', #271 ) LENGTH_UNIT ( ) NAMED_UNIT ( #114 ) );
#302 = AXIS2_PLACEMENT_3D ( 'NONE', #286, #60, #259 ) ;
#303 = DIMENSIONAL_EXPONENTS ( 1.000000000000000000, 0.000000000000000000, 0.000000000000000000, 0.000000000000000000, 0.000000000000000000, 0.000000000000000000, 0.000000000000000000 ) ;
#304 = ADVANCED_FACE ( 'NONE', ( #141 ), #95, .T. ) ;
#305 = CARTESIAN_POINT ( 'NONE',  ( 0.000000000000000000, 0.000000000000000000, -0.1250000000000000000 ) ) ;
#306 = PRESENTATION_STYLE_ASSIGNMENT (( #129 ) ) ;
#307 = AXIS2_PLACEMENT_3D ( 'NONE', #80, #33, #175 ) ;
#308 = DIRECTION ( 'NONE',  ( 0.000000000000000000, -0.000000000000000000, 1.000000000000000000 ) ) ;
#309 = FACE_OUTER_BOUND ( 'NONE', #174, .T. ) ;
ENDSEC;
END-ISO-10303-21;
