ISO-10303-21;
HEADER;
FILE_DESCRIPTION (( 'STEP AP214' ),
    '1' );
FILE_NAME ('Micro_KC-187-300-093.STEP',
    '2021-09-03T19:18:10',
    ( '' ),
    ( '' ),
    'SwSTEP 2.0',
    'SolidWorks 2020',
    '' );
FILE_SCHEMA (( 'AUTOMOTIVE_DESIGN' ));
ENDSEC;

DATA;
#1 = CARTESIAN_POINT ( 'NONE',  ( 0.0000000000000000000, 0.0000000000000000000, 0.09299999999999999933 ) ) ;
#2 = DIRECTION ( 'NONE',  ( 0.0000000000000000000, 0.0000000000000000000, -1.000000000000000000 ) ) ;
#3 = AXIS2_PLACEMENT_3D ( 'NONE', #345, #57, #90 ) ;
#4 =( GEOMETRIC_REPRESENTATION_CONTEXT ( 3 ) GLOBAL_UNCERTAINTY_ASSIGNED_CONTEXT ( ( #374 ) ) GLOBAL_UNIT_ASSIGNED_CONTEXT ( ( #301, #112, #144 ) ) REPRESENTATION_CONTEXT ( 'NONE', 'WORKASPACE' ) );
#5 = EDGE_CURVE ( 'NONE', #289, #14, #376, .T. ) ;
#6 = DIRECTION ( 'NONE',  ( -0.0000000000000000000, -0.0000000000000000000, -1.000000000000000000 ) ) ;
#7 = DIRECTION ( 'NONE',  ( 0.0000000000000000000, 0.0000000000000000000, 1.000000000000000000 ) ) ;
#8 =( LENGTH_UNIT ( ) NAMED_UNIT ( * ) SI_UNIT ( $, .METRE. ) );
#9 = ADVANCED_FACE ( 'NONE', ( #375 ), #141, .T. ) ;
#10 = ORIENTED_EDGE ( 'NONE', *, *, #128, .F. ) ;
#11 = PRODUCT_DEFINITION_SHAPE ( 'NONE', 'NONE',  #288 ) ;
#12 = ORIENTED_EDGE ( 'NONE', *, *, #67, .T. ) ;
#13 = PLANE ( 'NONE',  #230 ) ;
#14 = VERTEX_POINT ( 'NONE', #19 ) ;
#15 = AXIS2_PLACEMENT_3D ( 'NONE', #113, #347, #21 ) ;
#16 = AXIS2_PLACEMENT_3D ( 'NONE', #236, #215, #46 ) ;
#17 = DIMENSIONAL_EXPONENTS ( 1.000000000000000000, 0.0000000000000000000, 0.0000000000000000000, 0.0000000000000000000, 0.0000000000000000000, 0.0000000000000000000, 0.0000000000000000000 ) ;
#18 = VERTEX_POINT ( 'NONE', #167 ) ;
#19 = CARTESIAN_POINT ( 'NONE',  ( -0.09375000000000001388, 0.0000000000000000000, 0.0000000000000000000 ) ) ;
#20 = FACE_OUTER_BOUND ( 'NONE', #104, .T. ) ;
#21 = DIRECTION ( 'NONE',  ( 1.000000000000000000, 0.0000000000000000000, -0.0000000000000000000 ) ) ;
#22 = PLANE ( 'NONE',  #223 ) ;
#23 = CARTESIAN_POINT ( 'NONE',  ( 0.0000000000000000000, 0.0000000000000000000, 0.0000000000000000000 ) ) ;
#24 = ORIENTED_EDGE ( 'NONE', *, *, #128, .T. ) ;
#25 = EDGE_CURVE ( 'NONE', #172, #235, #322, .T. ) ;
#26 = ADVANCED_FACE ( 'NONE', ( #139 ), #318, .T. ) ;
#27 = AXIS2_PLACEMENT_3D ( 'NONE', #36, #33, #173 ) ;
#28 = DIRECTION ( 'NONE',  ( 0.0000000000000000000, 0.0000000000000000000, 1.000000000000000000 ) ) ;
#29 = CYLINDRICAL_SURFACE ( 'NONE', #80, 0.04500000000000001221 ) ;
#30 = CARTESIAN_POINT ( 'NONE',  ( 0.04500000000000001221, 5.510910596163091096E-18, 0.0000000000000000000 ) ) ;
#31 = ADVANCED_FACE ( 'NONE', ( #201, #120 ), #22, .T. ) ;
#32 = ORIENTED_EDGE ( 'NONE', *, *, #302, .F. ) ;
#33 = DIRECTION ( 'NONE',  ( 0.0000000000000000000, 0.0000000000000000000, 1.000000000000000000 ) ) ;
#34 = AXIS2_PLACEMENT_3D ( 'NONE', #97, #175, #232 ) ;
#35 = CIRCLE ( 'NONE', #119, 0.09375000000000001388 ) ;
#36 = CARTESIAN_POINT ( 'NONE',  ( 0.0000000000000000000, 0.0000000000000000000, 2.000000000000000000 ) ) ;
#37 = LINE ( 'NONE', #277, #65 ) ;
#38 = APPLICATION_CONTEXT ( 'automotive_design' ) ;
#39 = EDGE_CURVE ( 'NONE', #235, #172, #158, .T. ) ;
#40 = CARTESIAN_POINT ( 'NONE',  ( -0.07874999999999980627, 0.0000000000000000000, 2.000000000000000000 ) ) ;
#41 = ORIENTED_EDGE ( 'NONE', *, *, #296, .T. ) ;
#42 = DIRECTION ( 'NONE',  ( 1.000000000000000000, 0.0000000000000000000, 0.0000000000000000000 ) ) ;
#43 = ORIENTED_EDGE ( 'NONE', *, *, #297, .F. ) ;
#44 =( NAMED_UNIT ( * ) SI_UNIT ( $, .STERADIAN. ) SOLID_ANGLE_UNIT ( ) );
#45 = ORIENTED_EDGE ( 'NONE', *, *, #296, .F. ) ;
#46 = DIRECTION ( 'NONE',  ( -1.000000000000000000, 0.0000000000000000000, 0.0000000000000000000 ) ) ;
#47 = ORIENTED_EDGE ( 'NONE', *, *, #75, .T. ) ;
#48 = CIRCLE ( 'NONE', #180, 0.09375000000000001388 ) ;
#49 = SURFACE_STYLE_FILL_AREA ( #199 ) ;
#50 = DIRECTION ( 'NONE',  ( -0.0000000000000000000, -0.0000000000000000000, -1.000000000000000000 ) ) ;
#51 = DIRECTION ( 'NONE',  ( -0.0000000000000000000, -0.0000000000000000000, -1.000000000000000000 ) ) ;
#52 =( CONVERSION_BASED_UNIT ( 'INCH', #313 ) LENGTH_UNIT ( ) NAMED_UNIT ( #17 ) );
#53 = CARTESIAN_POINT ( 'NONE',  ( 0.0000000000000000000, 0.0000000000000000000, 2.000000000000000000 ) ) ;
#54 = AXIS2_PLACEMENT_3D ( 'NONE', #287, #115, #58 ) ;
#55 =( NAMED_UNIT ( * ) SI_UNIT ( $, .STERADIAN. ) SOLID_ANGLE_UNIT ( ) );
#56 = CIRCLE ( 'NONE', #263, 0.04500000000000003303 ) ;
#57 = DIRECTION ( 'NONE',  ( -0.0000000000000000000, -0.0000000000000000000, -1.000000000000000000 ) ) ;
#58 = DIRECTION ( 'NONE',  ( -1.000000000000000000, 0.0000000000000000000, 0.0000000000000000000 ) ) ;
#59 = EDGE_CURVE ( 'NONE', #69, #235, #341, .T. ) ;
#60 = DIRECTION ( 'NONE',  ( -0.0000000000000000000, -0.0000000000000000000, -1.000000000000000000 ) ) ;
#61 = LINE ( 'NONE', #295, #135 ) ;
#62 = DIRECTION ( 'NONE',  ( -0.0000000000000000000, -0.0000000000000000000, -1.000000000000000000 ) ) ;
#63 = CYLINDRICAL_SURFACE ( 'NONE', #285, 0.09375000000000001388 ) ;
#64 = CARTESIAN_POINT ( 'NONE',  ( -0.09375000000000002776, 0.0000000000000000000, 0.09299999999999999933 ) ) ;
#65 = VECTOR ( 'NONE', #157, 39.37007874015748143 ) ;
#66 = DIRECTION ( 'NONE',  ( -1.000000000000000000, 0.0000000000000000000, 0.0000000000000000000 ) ) ;
#67 = EDGE_CURVE ( 'NONE', #108, #237, #284, .T. ) ;
#68 = CARTESIAN_POINT ( 'NONE',  ( 0.0000000000000000000, 0.0000000000000000000, 0.0000000000000000000 ) ) ;
#69 = VERTEX_POINT ( 'NONE', #110 ) ;
#70 = CARTESIAN_POINT ( 'NONE',  ( 0.0000000000000000000, 0.0000000000000000000, 0.0000000000000000000 ) ) ;
#71 = EDGE_LOOP ( 'NONE', ( #217, #79, #325, #150 ) ) ;
#72 = AXIS2_PLACEMENT_3D ( 'NONE', #145, #85, #171 ) ;
#73 = AXIS2_PLACEMENT_3D ( 'NONE', #23, #253, #340 ) ;
#74 = DIRECTION ( 'NONE',  ( -0.0000000000000000000, -0.0000000000000000000, -1.000000000000000000 ) ) ;
#75 = EDGE_CURVE ( 'NONE', #261, #289, #370, .T. ) ;
#76 = ORIENTED_EDGE ( 'NONE', *, *, #177, .F. ) ;
#77 = DIRECTION ( 'NONE',  ( 0.7071067811865463515, 8.659560562354916834E-17, -0.7071067811865486830 ) ) ;
#78 = ORIENTED_EDGE ( 'NONE', *, *, #254, .F. ) ;
#79 = ORIENTED_EDGE ( 'NONE', *, *, #205, .T. ) ;
#80 = AXIS2_PLACEMENT_3D ( 'NONE', #148, #154, #323 ) ;
#81 = COLOUR_RGB ( '',0.7921568627450980005, 0.8196078431372548767, 0.9333333333333333481 ) ;
#82 =( LENGTH_UNIT ( ) NAMED_UNIT ( * ) SI_UNIT ( $, .METRE. ) );
#83 = CARTESIAN_POINT ( 'NONE',  ( -0.09375000000000001388, 0.0000000000000000000, 2.000000000000000000 ) ) ;
#84 = EDGE_CURVE ( 'NONE', #278, #211, #193, .T. ) ;
#85 = DIRECTION ( 'NONE',  ( -0.0000000000000000000, -0.0000000000000000000, -1.000000000000000000 ) ) ;
#86 = CARTESIAN_POINT ( 'NONE',  ( 0.0000000000000000000, 0.0000000000000000000, 0.3487499999999997824 ) ) ;
#87 = CONICAL_SURFACE ( 'NONE', #241, 0.07874999999999980627, 0.7853981633974466137 ) ;
#88 = DIRECTION ( 'NONE',  ( 0.0000000000000000000, 0.0000000000000000000, 1.000000000000000000 ) ) ;
#89 = EDGE_CURVE ( 'NONE', #185, #14, #219, .T. ) ;
#90 = DIRECTION ( 'NONE',  ( 1.000000000000000000, 0.0000000000000000000, 0.0000000000000000000 ) ) ;
#91 = CARTESIAN_POINT ( 'NONE',  ( 0.04500000000000000527, 5.510910596163090326E-18, 0.09299999999999999933 ) ) ;
#92 = CIRCLE ( 'NONE', #307, 0.09375000000000002776 ) ;
#93 = DIRECTION ( 'NONE',  ( -0.0000000000000000000, -0.0000000000000000000, -1.000000000000000000 ) ) ;
#94 =( GEOMETRIC_REPRESENTATION_CONTEXT ( 3 ) GLOBAL_UNCERTAINTY_ASSIGNED_CONTEXT ( ( #320 ) ) GLOBAL_UNIT_ASSIGNED_CONTEXT ( ( #52, #170, #55 ) ) REPRESENTATION_CONTEXT ( 'NONE', 'WORKASPACE' ) );
#95 = DIRECTION ( 'NONE',  ( 1.000000000000000000, 0.0000000000000000000, 0.0000000000000000000 ) ) ;
#96 = CARTESIAN_POINT ( 'NONE',  ( 0.0000000000000000000, 0.0000000000000000000, 2.000000000000000000 ) ) ;
#97 = CARTESIAN_POINT ( 'NONE',  ( 0.0000000000000000000, 0.0000000000000000000, 2.000000000000000000 ) ) ;
#98 = CIRCLE ( 'NONE', #27, 0.07874999999999980627 ) ;
#99 = AXIS2_PLACEMENT_3D ( 'NONE', #209, #328, #66 ) ;
#100 = DIRECTION ( 'NONE',  ( -0.0000000000000000000, -0.0000000000000000000, -1.000000000000000000 ) ) ;
#101 = VERTEX_POINT ( 'NONE', #282 ) ;
#102 = ORIENTED_EDGE ( 'NONE', *, *, #39, .T. ) ;
#103 = ADVANCED_FACE ( 'NONE', ( #20 ), #373, .T. ) ;
#104 = EDGE_LOOP ( 'NONE', ( #24, #137 ) ) ;
#105 = AXIS2_PLACEMENT_3D ( 'NONE', #233, #7, #264 ) ;
#106 = CYLINDRICAL_SURFACE ( 'NONE', #16, 0.09375000000000001388 ) ;
#107 = ORIENTED_EDGE ( 'NONE', *, *, #84, .T. ) ;
#108 = VERTEX_POINT ( 'NONE', #220 ) ;
#109 = APPLICATION_PROTOCOL_DEFINITION ( 'draft international standard', 'automotive_design', 1998, #38 ) ;
#110 = CARTESIAN_POINT ( 'NONE',  ( 0.09375000000000001388, 1.148106374200643863E-17, 1.984999999999999654 ) ) ;
#111 = COLOUR_RGB ( '',0.7921568627450980005, 0.8196078431372548767, 0.9333333333333333481 ) ;
#112 =( NAMED_UNIT ( * ) PLANE_ANGLE_UNIT ( ) SI_UNIT ( $, .RADIAN. ) );
#113 = CARTESIAN_POINT ( 'NONE',  ( 0.0000000000000000000, 0.0000000000000000000, 2.000000000000000000 ) ) ;
#114 = PRESENTATION_STYLE_ASSIGNMENT (( #344 ) ) ;
#115 = DIRECTION ( 'NONE',  ( -0.0000000000000000000, -0.0000000000000000000, -1.000000000000000000 ) ) ;
#116 = DIRECTION ( 'NONE',  ( -0.0000000000000000000, -0.0000000000000000000, -1.000000000000000000 ) ) ;
#117 = CIRCLE ( 'NONE', #356, 0.07874999999999980627 ) ;
#118 = ADVANCED_BREP_SHAPE_REPRESENTATION ( 'Micro_KC-187-300-093', ( #317, #73 ), #4 ) ;
#119 = AXIS2_PLACEMENT_3D ( 'NONE', #204, #2, #231 ) ;
#120 = FACE_OUTER_BOUND ( 'NONE', #123, .T. ) ;
#121 = CARTESIAN_POINT ( 'NONE',  ( -0.09375000000000001388, 0.0000000000000000000, 0.3487499999999997824 ) ) ;
#122 = LINE ( 'NONE', #319, #348 ) ;
#123 = EDGE_LOOP ( 'NONE', ( #45, #303 ) ) ;
#124 = PRODUCT ( 'Micro_KC-187-300-093', 'Micro_KC-187-300-093', '', ( #246 ) ) ;
#125 = DIRECTION ( 'NONE',  ( -1.000000000000000000, 0.0000000000000000000, 0.0000000000000000000 ) ) ;
#126 = EDGE_CURVE ( 'NONE', #211, #69, #249, .T. ) ;
#127 = CARTESIAN_POINT ( 'NONE',  ( 0.0000000000000000000, 0.0000000000000000000, 0.2999999999999999889 ) ) ;
#128 = EDGE_CURVE ( 'NONE', #278, #101, #117, .T. ) ;
#129 =( LENGTH_UNIT ( ) NAMED_UNIT ( * ) SI_UNIT ( $, .METRE. ) );
#130 = ORIENTED_EDGE ( 'NONE', *, *, #39, .F. ) ;
#131 = PRODUCT_DEFINITION_FORMATION_WITH_SPECIFIED_SOURCE ( 'ANY', '', #124, .NOT_KNOWN. ) ;
#132 = ORIENTED_EDGE ( 'NONE', *, *, #164, .T. ) ;
#133 = SURFACE_SIDE_STYLE ('',( #238 ) ) ;
#134 = EDGE_LOOP ( 'NONE', ( #242, #132, #336, #366 ) ) ;
#135 = VECTOR ( 'NONE', #152, 39.37007874015748143 ) ;
#136 = CARTESIAN_POINT ( 'NONE',  ( -0.04500000000000001221, 0.0000000000000000000, 0.0000000000000000000 ) ) ;
#137 = ORIENTED_EDGE ( 'NONE', *, *, #138, .T. ) ;
#138 = EDGE_CURVE ( 'NONE', #101, #278, #98, .T. ) ;
#139 = FACE_OUTER_BOUND ( 'NONE', #134, .T. ) ;
#140 = EDGE_LOOP ( 'NONE', ( #273, #214, #300, #250 ) ) ;
#141 = CYLINDRICAL_SURFACE ( 'NONE', #54, 0.09375000000000001388 ) ;
#142 = PRODUCT_RELATED_PRODUCT_CATEGORY ( 'part', '', ( #124 ) ) ;
#143 = CARTESIAN_POINT ( 'NONE',  ( 0.09375000000000001388, 1.148106374200643863E-17, 2.000000000000000000 ) ) ;
#144 =( NAMED_UNIT ( * ) SI_UNIT ( $, .STERADIAN. ) SOLID_ANGLE_UNIT ( ) );
#145 = CARTESIAN_POINT ( 'NONE',  ( 0.0000000000000000000, 0.0000000000000000000, 2.000000000000000000 ) ) ;
#146 = MECHANICAL_DESIGN_GEOMETRIC_PRESENTATION_REPRESENTATION (  '', ( #308 ), #94 ) ;
#147 = DIRECTION ( 'NONE',  ( -0.0000000000000000000, -0.0000000000000000000, -1.000000000000000000 ) ) ;
#148 = CARTESIAN_POINT ( 'NONE',  ( 0.0000000000000000000, 0.0000000000000000000, 0.0000000000000000000 ) ) ;
#149 = CARTESIAN_POINT ( 'NONE',  ( 0.0000000000000000000, 0.0000000000000000000, 0.2999999999999999889 ) ) ;
#150 = ORIENTED_EDGE ( 'NONE', *, *, #343, .F. ) ;
#151 = VECTOR ( 'NONE', #62, 39.37007874015748143 ) ;
#152 = DIRECTION ( 'NONE',  ( 0.7071067811865491270, 0.0000000000000000000, 0.7071067811865459074 ) ) ;
#153 = AXIS2_PLACEMENT_3D ( 'NONE', #1, #93, #206 ) ;
#154 = DIRECTION ( 'NONE',  ( -0.0000000000000000000, -0.0000000000000000000, -1.000000000000000000 ) ) ;
#155 =( CONVERSION_BASED_UNIT ( 'INCH', #359 ) LENGTH_UNIT ( ) NAMED_UNIT ( #190 ) );
#156 = ORIENTED_EDGE ( 'NONE', *, *, #254, .T. ) ;
#157 = DIRECTION ( 'NONE',  ( -0.7071067811865491270, 8.659560562354952580E-17, 0.7071067811865459074 ) ) ;
#158 = CIRCLE ( 'NONE', #256, 0.09375000000000001388 ) ;
#159 = ORIENTED_EDGE ( 'NONE', *, *, #252, .F. ) ;
#160 = ORIENTED_EDGE ( 'NONE', *, *, #379, .F. ) ;
#161 = ORIENTED_EDGE ( 'NONE', *, *, #252, .T. ) ;
#162 = ORIENTED_EDGE ( 'NONE', *, *, #205, .F. ) ;
#163 = CIRCLE ( 'NONE', #208, 0.09375000000000002776 ) ;
#164 = EDGE_CURVE ( 'NONE', #261, #185, #92, .T. ) ;
#165 = ADVANCED_FACE ( 'NONE', ( #293 ), #29, .T. ) ;
#166 = DIRECTION ( 'NONE',  ( 1.000000000000000000, 0.0000000000000000000, 0.0000000000000000000 ) ) ;
#167 = CARTESIAN_POINT ( 'NONE',  ( -0.04500000000000003303, 8.495987169084765633E-18, 0.2999999999999999889 ) ) ;
#168 = EDGE_LOOP ( 'NONE', ( #32, #10, #107, #78 ) ) ;
#169 = ADVANCED_FACE ( 'NONE', ( #176 ), #87, .T. ) ;
#170 =( NAMED_UNIT ( * ) PLANE_ANGLE_UNIT ( ) SI_UNIT ( $, .RADIAN. ) );
#171 = DIRECTION ( 'NONE',  ( -1.000000000000000000, 0.0000000000000000000, 0.0000000000000000000 ) ) ;
#172 = VERTEX_POINT ( 'NONE', #121 ) ;
#173 = DIRECTION ( 'NONE',  ( 1.000000000000000000, 0.0000000000000000000, 0.0000000000000000000 ) ) ;
#174 = EDGE_CURVE ( 'NONE', #200, #235, #61, .T. ) ;
#175 = DIRECTION ( 'NONE',  ( 0.0000000000000000000, 0.0000000000000000000, -1.000000000000000000 ) ) ;
#176 = FACE_OUTER_BOUND ( 'NONE', #168, .T. ) ;
#177 = EDGE_CURVE ( 'NONE', #200, #18, #56, .T. ) ;
#178 = VECTOR ( 'NONE', #251, 39.37007874015748143 ) ;
#179 = FACE_OUTER_BOUND ( 'NONE', #71, .T. ) ;
#180 = AXIS2_PLACEMENT_3D ( 'NONE', #68, #365, #42 ) ;
#181 = ORIENTED_EDGE ( 'NONE', *, *, #343, .T. ) ;
#182 = ORIENTED_EDGE ( 'NONE', *, *, #177, .T. ) ;
#183 = PRESENTATION_LAYER_ASSIGNMENT (  '', '', ( #308 ) ) ;
#184 = SURFACE_STYLE_USAGE ( .BOTH. , #133 ) ;
#185 = VERTEX_POINT ( 'NONE', #64 ) ;
#186 = LINE ( 'NONE', #136, #352 ) ;
#187 = ORIENTED_EDGE ( 'NONE', *, *, #310, .F. ) ;
#188 = ADVANCED_FACE ( 'NONE', ( #292 ), #197, .T. ) ;
#189 = ADVANCED_FACE ( 'NONE', ( #351 ), #363, .T. ) ;
#190 = DIMENSIONAL_EXPONENTS ( 1.000000000000000000, 0.0000000000000000000, 0.0000000000000000000, 0.0000000000000000000, 0.0000000000000000000, 0.0000000000000000000, 0.0000000000000000000 ) ;
#191 = ORIENTED_EDGE ( 'NONE', *, *, #5, .F. ) ;
#192 = VECTOR ( 'NONE', #315, 39.37007874015748143 ) ;
#193 = LINE ( 'NONE', #312, #178 ) ;
#194 = FILL_AREA_STYLE_COLOUR ( '', #111 ) ;
#195 = DIRECTION ( 'NONE',  ( 0.0000000000000000000, 0.0000000000000000000, -1.000000000000000000 ) ) ;
#196 = DIRECTION ( 'NONE',  ( -1.000000000000000000, 0.0000000000000000000, 0.0000000000000000000 ) ) ;
#197 = CONICAL_SURFACE ( 'NONE', #105, 0.04500000000000003303, 0.7853981633974506105 ) ;
#198 = AXIS2_PLACEMENT_3D ( 'NONE', #149, #260, #227 ) ;
#199 = FILL_AREA_STYLE ('',( #194 ) ) ;
#200 = VERTEX_POINT ( 'NONE', #228 ) ;
#201 = FACE_BOUND ( 'NONE', #276, .T. ) ;
#202 = CARTESIAN_POINT ( 'NONE',  ( 0.0000000000000000000, 0.0000000000000000000, 0.09299999999999999933 ) ) ;
#203 = PRODUCT_DEFINITION_CONTEXT ( 'detailed design', #38, 'design' ) ;
#204 = CARTESIAN_POINT ( 'NONE',  ( 0.0000000000000000000, 0.0000000000000000000, 1.984999999999999654 ) ) ;
#205 = EDGE_CURVE ( 'NONE', #200, #237, #355, .T. ) ;
#206 = DIRECTION ( 'NONE',  ( -1.000000000000000000, 0.0000000000000000000, 0.0000000000000000000 ) ) ;
#207 = DIRECTION ( 'NONE',  ( -1.000000000000000000, 0.0000000000000000000, 0.0000000000000000000 ) ) ;
#208 = AXIS2_PLACEMENT_3D ( 'NONE', #210, #74, #329 ) ;
#209 = CARTESIAN_POINT ( 'NONE',  ( 0.0000000000000000000, 0.0000000000000000000, 0.2999999999999999889 ) ) ;
#210 = CARTESIAN_POINT ( 'NONE',  ( 0.0000000000000000000, 0.0000000000000000000, 0.09299999999999999933 ) ) ;
#211 = VERTEX_POINT ( 'NONE', #259 ) ;
#212 = EDGE_CURVE ( 'NONE', #211, #172, #122, .T. ) ;
#213 = LENGTH_MEASURE_WITH_UNIT ( LENGTH_MEASURE( 0.02539999999999999897 ), #8 );
#214 = ORIENTED_EDGE ( 'NONE', *, *, #59, .T. ) ;
#215 = DIRECTION ( 'NONE',  ( -0.0000000000000000000, -0.0000000000000000000, -1.000000000000000000 ) ) ;
#216 = ORIENTED_EDGE ( 'NONE', *, *, #5, .T. ) ;
#217 = ORIENTED_EDGE ( 'NONE', *, *, #379, .T. ) ;
#218 = ORIENTED_EDGE ( 'NONE', *, *, #212, .T. ) ;
#219 = LINE ( 'NONE', #83, #371 ) ;
#220 = CARTESIAN_POINT ( 'NONE',  ( -0.04500000000000000527, 0.0000000000000000000, 0.09299999999999999933 ) ) ;
#221 = EDGE_LOOP ( 'NONE', ( #41, #47, #216, #267 ) ) ;
#222 = DIRECTION ( 'NONE',  ( 1.000000000000000000, 0.0000000000000000000, 0.0000000000000000000 ) ) ;
#223 = AXIS2_PLACEMENT_3D ( 'NONE', #255, #377, #283 ) ;
#224 = ORIENTED_EDGE ( 'NONE', *, *, #59, .F. ) ;
#225 = UNCERTAINTY_MEASURE_WITH_UNIT (LENGTH_MEASURE( 1.000000000000000082E-05 ), #155, 'distance_accuracy_value', 'NONE');
#226 = ADVANCED_FACE ( 'NONE', ( #179 ), #354, .T. ) ;
#227 = DIRECTION ( 'NONE',  ( 1.000000000000000000, 0.0000000000000000000, 0.0000000000000000000 ) ) ;
#228 = CARTESIAN_POINT ( 'NONE',  ( 0.04500000000000003303, 0.0000000000000000000, 0.2999999999999999889 ) ) ;
#229 = AXIS2_PLACEMENT_3D ( 'NONE', #349, #88, #222 ) ;
#230 = AXIS2_PLACEMENT_3D ( 'NONE', #70, #240, #244 ) ;
#231 = DIRECTION ( 'NONE',  ( 1.000000000000000000, 0.0000000000000000000, 0.0000000000000000000 ) ) ;
#232 = DIRECTION ( 'NONE',  ( -1.000000000000000000, 0.0000000000000000000, 0.0000000000000000000 ) ) ;
#233 = CARTESIAN_POINT ( 'NONE',  ( 0.0000000000000000000, 0.0000000000000000000, 0.2999999999999999889 ) ) ;
#234 = ADVANCED_FACE ( 'NONE', ( #378 ), #364, .T. ) ;
#235 = VERTEX_POINT ( 'NONE', #350 ) ;
#236 = CARTESIAN_POINT ( 'NONE',  ( 0.0000000000000000000, 0.0000000000000000000, 2.000000000000000000 ) ) ;
#237 = VERTEX_POINT ( 'NONE', #91 ) ;
#238 = SURFACE_STYLE_FILL_AREA ( #367 ) ;
#239 = EDGE_LOOP ( 'NONE', ( #160, #306, #358, #338 ) ) ;
#240 = DIRECTION ( 'NONE',  ( 0.0000000000000000000, 0.0000000000000000000, 1.000000000000000000 ) ) ;
#241 = AXIS2_PLACEMENT_3D ( 'NONE', #321, #265, #207 ) ;
#242 = ORIENTED_EDGE ( 'NONE', *, *, #75, .F. ) ;
#243 = PRESENTATION_LAYER_ASSIGNMENT (  '', '', ( #257 ) ) ;
#244 = DIRECTION ( 'NONE',  ( 1.000000000000000000, 0.0000000000000000000, -0.0000000000000000000 ) ) ;
#245 = EDGE_LOOP ( 'NONE', ( #224, #156, #218, #130 ) ) ;
#246 = PRODUCT_CONTEXT ( 'NONE', #337, 'mechanical' ) ;
#247 = CARTESIAN_POINT ( 'NONE',  ( 0.0000000000000000000, 0.0000000000000000000, 0.09299999999999999933 ) ) ;
#248 = CARTESIAN_POINT ( 'NONE',  ( 0.09375000000000001388, 1.148106374200643863E-17, 2.000000000000000000 ) ) ;
#249 = CIRCLE ( 'NONE', #262, 0.09375000000000001388 ) ;
#250 = ORIENTED_EDGE ( 'NONE', *, *, #212, .F. ) ;
#251 = DIRECTION ( 'NONE',  ( -0.7071067811865463515, 0.0000000000000000000, -0.7071067811865486830 ) ) ;
#252 = EDGE_CURVE ( 'NONE', #237, #108, #269, .T. ) ;
#253 = DIRECTION ( 'NONE',  ( 0.0000000000000000000, 0.0000000000000000000, 1.000000000000000000 ) ) ;
#254 = EDGE_CURVE ( 'NONE', #69, #211, #35, .T. ) ;
#255 = CARTESIAN_POINT ( 'NONE',  ( 0.09375000000000002776, 0.0000000000000000000, 0.09299999999999999933 ) ) ;
#256 = AXIS2_PLACEMENT_3D ( 'NONE', #86, #50, #166 ) ;
#257 = STYLED_ITEM ( 'NONE', ( #304 ), #317 ) ;
#258 = DIRECTION ( 'NONE',  ( -0.0000000000000000000, -0.0000000000000000000, -1.000000000000000000 ) ) ;
#259 = CARTESIAN_POINT ( 'NONE',  ( -0.09375000000000001388, 0.0000000000000000000, 1.984999999999999654 ) ) ;
#260 = DIRECTION ( 'NONE',  ( 0.0000000000000000000, 0.0000000000000000000, 1.000000000000000000 ) ) ;
#261 = VERTEX_POINT ( 'NONE', #353 ) ;
#262 = AXIS2_PLACEMENT_3D ( 'NONE', #342, #195, #314 ) ;
#263 = AXIS2_PLACEMENT_3D ( 'NONE', #127, #6, #125 ) ;
#264 = DIRECTION ( 'NONE',  ( 1.000000000000000000, 0.0000000000000000000, 0.0000000000000000000 ) ) ;
#265 = DIRECTION ( 'NONE',  ( 0.0000000000000000000, 0.0000000000000000000, -1.000000000000000000 ) ) ;
#266 = CARTESIAN_POINT ( 'NONE',  ( 0.07874999999999980627, 9.644093543285380530E-18, 2.000000000000000000 ) ) ;
#267 = ORIENTED_EDGE ( 'NONE', *, *, #89, .F. ) ;
#268 = CLOSED_SHELL ( 'NONE', ( #9, #226, #188, #189, #339, #274, #103, #169, #234, #165, #31, #369, #26 ) ) ;
#269 = CIRCLE ( 'NONE', #153, 0.04500000000000000527 ) ;
#270 = LINE ( 'NONE', #266, #372 ) ;
#271 = EDGE_LOOP ( 'NONE', ( #162, #182, #181, #159 ) ) ;
#272 = FILL_AREA_STYLE_COLOUR ( '', #81 ) ;
#273 = ORIENTED_EDGE ( 'NONE', *, *, #126, .T. ) ;
#274 = ADVANCED_FACE ( 'NONE', ( #324 ), #63, .T. ) ;
#275 = FACE_OUTER_BOUND ( 'NONE', #140, .T. ) ;
#276 = EDGE_LOOP ( 'NONE', ( #12, #161 ) ) ;
#277 = CARTESIAN_POINT ( 'NONE',  ( -0.04500000000000003303, 5.510910596163093407E-18, 0.2999999999999999889 ) ) ;
#278 = VERTEX_POINT ( 'NONE', #40 ) ;
#279 = AXIS2_PLACEMENT_3D ( 'NONE', #290, #147, #291 ) ;
#280 = DIMENSIONAL_EXPONENTS ( 1.000000000000000000, 0.0000000000000000000, 0.0000000000000000000, 0.0000000000000000000, 0.0000000000000000000, 0.0000000000000000000, 0.0000000000000000000 ) ;
#281 = DIRECTION ( 'NONE',  ( -0.0000000000000000000, -0.0000000000000000000, -1.000000000000000000 ) ) ;
#282 = CARTESIAN_POINT ( 'NONE',  ( 0.07874999999999980627, 1.056257864264590573E-17, 2.000000000000000000 ) ) ;
#283 = DIRECTION ( 'NONE',  ( 1.000000000000000000, 0.0000000000000000000, -0.0000000000000000000 ) ) ;
#284 = CIRCLE ( 'NONE', #346, 0.04500000000000000527 ) ;
#285 = AXIS2_PLACEMENT_3D ( 'NONE', #96, #100, #298 ) ;
#286 = APPLICATION_PROTOCOL_DEFINITION ( 'draft international standard', 'automotive_design', 1998, #337 ) ;
#287 = CARTESIAN_POINT ( 'NONE',  ( 0.0000000000000000000, 0.0000000000000000000, 2.000000000000000000 ) ) ;
#288 = PRODUCT_DEFINITION ( 'UNKNOWN', '', #131, #203 ) ;
#289 = VERTEX_POINT ( 'NONE', #334 ) ;
#290 = CARTESIAN_POINT ( 'NONE',  ( 0.0000000000000000000, 0.0000000000000000000, 0.0000000000000000000 ) ) ;
#291 = DIRECTION ( 'NONE',  ( -1.000000000000000000, 0.0000000000000000000, 0.0000000000000000000 ) ) ;
#292 = FACE_OUTER_BOUND ( 'NONE', #239, .T. ) ;
#293 = FACE_OUTER_BOUND ( 'NONE', #271, .T. ) ;
#294 = VECTOR ( 'NONE', #281, 39.37007874015748143 ) ;
#295 = CARTESIAN_POINT ( 'NONE',  ( 0.04500000000000003303, 0.0000000000000000000, 0.2999999999999999889 ) ) ;
#296 = EDGE_CURVE ( 'NONE', #185, #261, #163, .T. ) ;
#297 = EDGE_CURVE ( 'NONE', #14, #289, #48, .T. ) ;
#298 = DIRECTION ( 'NONE',  ( -1.000000000000000000, 0.0000000000000000000, 0.0000000000000000000 ) ) ;
#299 = FACE_OUTER_BOUND ( 'NONE', #368, .T. ) ;
#300 = ORIENTED_EDGE ( 'NONE', *, *, #25, .F. ) ;
#301 =( CONVERSION_BASED_UNIT ( 'INCH', #213 ) LENGTH_UNIT ( ) NAMED_UNIT ( #280 ) );
#302 = EDGE_CURVE ( 'NONE', #101, #69, #270, .T. ) ;
#303 = ORIENTED_EDGE ( 'NONE', *, *, #164, .F. ) ;
#304 = PRESENTATION_STYLE_ASSIGNMENT (( #184 ) ) ;
#305 = ORIENTED_EDGE ( 'NONE', *, *, #84, .F. ) ;
#306 = ORIENTED_EDGE ( 'NONE', *, *, #310, .T. ) ;
#307 = AXIS2_PLACEMENT_3D ( 'NONE', #202, #258, #326 ) ;
#308 = STYLED_ITEM ( 'NONE', ( #114 ), #118 ) ;
#309 = EDGE_LOOP ( 'NONE', ( #187, #76, #330, #102 ) ) ;
#310 = EDGE_CURVE ( 'NONE', #18, #172, #37, .T. ) ;
#311 = SHAPE_DEFINITION_REPRESENTATION ( #11, #118 ) ;
#312 = CARTESIAN_POINT ( 'NONE',  ( -0.07874999999999980627, 0.0000000000000000000, 2.000000000000000000 ) ) ;
#313 = LENGTH_MEASURE_WITH_UNIT ( LENGTH_MEASURE( 0.02539999999999999897 ), #82 );
#314 = DIRECTION ( 'NONE',  ( 1.000000000000000000, 0.0000000000000000000, 0.0000000000000000000 ) ) ;
#315 = DIRECTION ( 'NONE',  ( -0.0000000000000000000, -0.0000000000000000000, -1.000000000000000000 ) ) ;
#316 = SURFACE_SIDE_STYLE ('',( #49 ) ) ;
#317 = MANIFOLD_SOLID_BREP ( 'Cut-Revolve1', #268 ) ;
#318 = CYLINDRICAL_SURFACE ( 'NONE', #72, 0.09375000000000001388 ) ;
#319 = CARTESIAN_POINT ( 'NONE',  ( -0.09375000000000001388, 0.0000000000000000000, 2.000000000000000000 ) ) ;
#320 = UNCERTAINTY_MEASURE_WITH_UNIT (LENGTH_MEASURE( 1.000000000000000082E-05 ), #52, 'distance_accuracy_value', 'NONE');
#321 = CARTESIAN_POINT ( 'NONE',  ( 0.0000000000000000000, 0.0000000000000000000, 2.000000000000000000 ) ) ;
#322 = CIRCLE ( 'NONE', #3, 0.09375000000000001388 ) ;
#323 = DIRECTION ( 'NONE',  ( -1.000000000000000000, 0.0000000000000000000, 0.0000000000000000000 ) ) ;
#324 = FACE_OUTER_BOUND ( 'NONE', #245, .T. ) ;
#325 = ORIENTED_EDGE ( 'NONE', *, *, #67, .F. ) ;
#326 = DIRECTION ( 'NONE',  ( -1.000000000000000000, 0.0000000000000000000, 0.0000000000000000000 ) ) ;
#327 =( GEOMETRIC_REPRESENTATION_CONTEXT ( 3 ) GLOBAL_UNCERTAINTY_ASSIGNED_CONTEXT ( ( #225 ) ) GLOBAL_UNIT_ASSIGNED_CONTEXT ( ( #155, #361, #44 ) ) REPRESENTATION_CONTEXT ( 'NONE', 'WORKASPACE' ) );
#328 = DIRECTION ( 'NONE',  ( -0.0000000000000000000, -0.0000000000000000000, -1.000000000000000000 ) ) ;
#329 = DIRECTION ( 'NONE',  ( -1.000000000000000000, 0.0000000000000000000, 0.0000000000000000000 ) ) ;
#330 = ORIENTED_EDGE ( 'NONE', *, *, #174, .T. ) ;
#331 = DIRECTION ( 'NONE',  ( -0.0000000000000000000, -0.0000000000000000000, -1.000000000000000000 ) ) ;
#332 = ORIENTED_EDGE ( 'NONE', *, *, #138, .F. ) ;
#333 = MECHANICAL_DESIGN_GEOMETRIC_PRESENTATION_REPRESENTATION (  '', ( #257 ), #327 ) ;
#334 = CARTESIAN_POINT ( 'NONE',  ( 0.09375000000000001388, 1.148106374200643863E-17, 0.0000000000000000000 ) ) ;
#335 = EDGE_LOOP ( 'NONE', ( #332, #360, #362, #305 ) ) ;
#336 = ORIENTED_EDGE ( 'NONE', *, *, #89, .T. ) ;
#337 = APPLICATION_CONTEXT ( 'automotive_design' ) ;
#338 = ORIENTED_EDGE ( 'NONE', *, *, #174, .F. ) ;
#339 = ADVANCED_FACE ( 'NONE', ( #275 ), #106, .T. ) ;
#340 = DIRECTION ( 'NONE',  ( 1.000000000000000000, 0.0000000000000000000, 0.0000000000000000000 ) ) ;
#341 = LINE ( 'NONE', #248, #294 ) ;
#342 = CARTESIAN_POINT ( 'NONE',  ( 0.0000000000000000000, 0.0000000000000000000, 1.984999999999999654 ) ) ;
#343 = EDGE_CURVE ( 'NONE', #18, #108, #186, .T. ) ;
#344 = SURFACE_STYLE_USAGE ( .BOTH. , #316 ) ;
#345 = CARTESIAN_POINT ( 'NONE',  ( 0.0000000000000000000, 0.0000000000000000000, 0.3487499999999997824 ) ) ;
#346 = AXIS2_PLACEMENT_3D ( 'NONE', #247, #116, #196 ) ;
#347 = DIRECTION ( 'NONE',  ( 0.0000000000000000000, 0.0000000000000000000, 1.000000000000000000 ) ) ;
#348 = VECTOR ( 'NONE', #60, 39.37007874015748143 ) ;
#349 = CARTESIAN_POINT ( 'NONE',  ( 0.0000000000000000000, 0.0000000000000000000, 0.0000000000000000000 ) ) ;
#350 = CARTESIAN_POINT ( 'NONE',  ( 0.09375000000000001388, 1.148106374200643863E-17, 0.3487499999999997824 ) ) ;
#351 = FACE_OUTER_BOUND ( 'NONE', #335, .T. ) ;
#352 = VECTOR ( 'NONE', #331, 39.37007874015748143 ) ;
#353 = CARTESIAN_POINT ( 'NONE',  ( 0.09375000000000002776, 1.148106374200644017E-17, 0.09299999999999999933 ) ) ;
#354 = CYLINDRICAL_SURFACE ( 'NONE', #279, 0.04500000000000001221 ) ;
#355 = LINE ( 'NONE', #30, #151 ) ;
#356 = AXIS2_PLACEMENT_3D ( 'NONE', #53, #28, #95 ) ;
#357 = CIRCLE ( 'NONE', #99, 0.04500000000000003303 ) ;
#358 = ORIENTED_EDGE ( 'NONE', *, *, #25, .T. ) ;
#359 = LENGTH_MEASURE_WITH_UNIT ( LENGTH_MEASURE( 0.02539999999999999897 ), #129 );
#360 = ORIENTED_EDGE ( 'NONE', *, *, #302, .T. ) ;
#361 =( NAMED_UNIT ( * ) PLANE_ANGLE_UNIT ( ) SI_UNIT ( $, .RADIAN. ) );
#362 = ORIENTED_EDGE ( 'NONE', *, *, #126, .F. ) ;
#363 = CONICAL_SURFACE ( 'NONE', #34, 0.07874999999999980627, 0.7853981633974466137 ) ;
#364 = CONICAL_SURFACE ( 'NONE', #198, 0.04500000000000003303, 0.7853981633974506105 ) ;
#365 = DIRECTION ( 'NONE',  ( 0.0000000000000000000, 0.0000000000000000000, 1.000000000000000000 ) ) ;
#366 = ORIENTED_EDGE ( 'NONE', *, *, #297, .T. ) ;
#367 = FILL_AREA_STYLE ('',( #272 ) ) ;
#368 = EDGE_LOOP ( 'NONE', ( #43, #191 ) ) ;
#369 = ADVANCED_FACE ( 'NONE', ( #299 ), #13, .F. ) ;
#370 = LINE ( 'NONE', #143, #192 ) ;
#371 = VECTOR ( 'NONE', #51, 39.37007874015748143 ) ;
#372 = VECTOR ( 'NONE', #77, 39.37007874015748143 ) ;
#373 = PLANE ( 'NONE',  #15 ) ;
#374 = UNCERTAINTY_MEASURE_WITH_UNIT (LENGTH_MEASURE( 1.000000000000000082E-05 ), #301, 'distance_accuracy_value', 'NONE');
#375 = FACE_OUTER_BOUND ( 'NONE', #221, .T. ) ;
#376 = CIRCLE ( 'NONE', #229, 0.09375000000000001388 ) ;
#377 = DIRECTION ( 'NONE',  ( 0.0000000000000000000, 0.0000000000000000000, 1.000000000000000000 ) ) ;
#378 = FACE_OUTER_BOUND ( 'NONE', #309, .T. ) ;
#379 = EDGE_CURVE ( 'NONE', #18, #200, #357, .T. ) ;
ENDSEC;
END-ISO-10303-21;
