ISO-10303-21;
HEADER;
FILE_DESCRIPTION (( 'STEP AP214' ),
    '1' );
FILE_NAME ('Micro_MRT-187-046.STEP',
    '2021-09-02T21:11:48',
    ( '' ),
    ( '' ),
    'SwSTEP 2.0',
    'SolidWorks 2020',
    '' );
FILE_SCHEMA (( 'AUTOMOTIVE_DESIGN' ));
ENDSEC;

DATA;
#1 = CARTESIAN_POINT ( 'NONE',  ( 0.07874999999999980627, 9.644093543285380530E-18, 2.000000000000000000 ) ) ;
#2 =( NAMED_UNIT ( * ) PLANE_ANGLE_UNIT ( ) SI_UNIT ( $, .RADIAN. ) );
#3 = VERTEX_POINT ( 'NONE', #120 ) ;
#4 = ORIENTED_EDGE ( 'NONE', *, *, #182, .T. ) ;
#5 = CIRCLE ( 'NONE', #104, 0.04689999999999999725 ) ;
#6 = AXIS2_PLACEMENT_3D ( 'NONE', #243, #122, #126 ) ;
#7 = ORIENTED_EDGE ( 'NONE', *, *, #60, .T. ) ;
#8 = PRODUCT_DEFINITION_SHAPE ( 'NONE', 'NONE',  #93 ) ;
#9 = DIRECTION ( 'NONE',  ( -0.0000000000000000000, -0.0000000000000000000, -1.000000000000000000 ) ) ;
#10 = DIRECTION ( 'NONE',  ( -1.000000000000000000, 0.0000000000000000000, 0.0000000000000000000 ) ) ;
#11 = APPLICATION_CONTEXT ( 'automotive_design' ) ;
#12 =( NAMED_UNIT ( * ) PLANE_ANGLE_UNIT ( ) SI_UNIT ( $, .RADIAN. ) );
#13 = CARTESIAN_POINT ( 'NONE',  ( 0.0000000000000000000, 0.0000000000000000000, 0.3616646019886528007 ) ) ;
#14 = FILL_AREA_STYLE ('',( #32 ) ) ;
#15 = CIRCLE ( 'NONE', #161, 0.07874999999999980627 ) ;
#16 = APPLICATION_PROTOCOL_DEFINITION ( 'draft international standard', 'automotive_design', 1998, #125 ) ;
#17 =( NAMED_UNIT ( * ) SI_UNIT ( $, .STERADIAN. ) SOLID_ANGLE_UNIT ( ) );
#18 =( CONVERSION_BASED_UNIT ( 'INCH', #186 ) LENGTH_UNIT ( ) NAMED_UNIT ( #84 ) );
#19 = EDGE_LOOP ( 'NONE', ( #63, #210, #256, #86 ) ) ;
#20 = ADVANCED_FACE ( 'NONE', ( #98 ), #254, .T. ) ;
#21 = DIRECTION ( 'NONE',  ( 0.0000000000000000000, 0.0000000000000000000, -1.000000000000000000 ) ) ;
#22 = CIRCLE ( 'NONE', #56, 0.09375000000000001388 ) ;
#23 = EDGE_LOOP ( 'NONE', ( #213, #193, #214 ) ) ;
#24 =( LENGTH_UNIT ( ) NAMED_UNIT ( * ) SI_UNIT ( $, .METRE. ) );
#25 = DIMENSIONAL_EXPONENTS ( 1.000000000000000000, 0.0000000000000000000, 0.0000000000000000000, 0.0000000000000000000, 0.0000000000000000000, 0.0000000000000000000, 0.0000000000000000000 ) ;
#26 = DIRECTION ( 'NONE',  ( 0.1736481776669234756, 0.0000000000000000000, 0.9848077530122092416 ) ) ;
#27 = ADVANCED_FACE ( 'NONE', ( #148 ), #232, .T. ) ;
#28 = CARTESIAN_POINT ( 'NONE',  ( -0.09375000000000001388, 0.0000000000000000000, 0.3084963349297349389 ) ) ;
#29 = LINE ( 'NONE', #236, #72 ) ;
#30 = VECTOR ( 'NONE', #244, 39.37007874015748143 ) ;
#31 = CIRCLE ( 'NONE', #46, 0.09375000000000001388 ) ;
#32 = FILL_AREA_STYLE_COLOUR ( '', #217 ) ;
#33 = DIRECTION ( 'NONE',  ( -0.0000000000000000000, -1.000000000000000000, 0.0000000000000000000 ) ) ;
#34 = DIRECTION ( 'NONE',  ( 1.000000000000000000, 0.0000000000000000000, 0.0000000000000000000 ) ) ;
#35 = CARTESIAN_POINT ( 'NONE',  ( 0.0000000000000000000, 0.0000000000000000000, 2.000000000000000000 ) ) ;
#36 = DIRECTION ( 'NONE',  ( -0.0000000000000000000, -0.0000000000000000000, -1.000000000000000000 ) ) ;
#37 = VECTOR ( 'NONE', #215, 39.37007874015748143 ) ;
#38 = LENGTH_MEASURE_WITH_UNIT ( LENGTH_MEASURE( 0.02539999999999999897 ), #224 );
#39 = EDGE_CURVE ( 'NONE', #80, #89, #158, .T. ) ;
#40 = CARTESIAN_POINT ( 'NONE',  ( -0.1031249999999999389, 1.262917011620707355E-17, 0.3616646019886528007 ) ) ;
#41 = AXIS2_PLACEMENT_3D ( 'NONE', #90, #223, #169 ) ;
#42 = ORIENTED_EDGE ( 'NONE', *, *, #182, .F. ) ;
#43 = VERTEX_POINT ( 'NONE', #28 ) ;
#44 = ORIENTED_EDGE ( 'NONE', *, *, #99, .T. ) ;
#45 = DIRECTION ( 'NONE',  ( 1.000000000000000000, 0.0000000000000000000, 0.0000000000000000000 ) ) ;
#46 = AXIS2_PLACEMENT_3D ( 'NONE', #238, #173, #150 ) ;
#47 = CARTESIAN_POINT ( 'NONE',  ( -0.04618748361627260379, 8.568699569570172432E-18, 0.03875590046742132672 ) ) ;
#48 = CARTESIAN_POINT ( 'NONE',  ( 0.0000000000000000000, 0.0000000000000000000, 0.04689999999999999725 ) ) ;
#49 = ORIENTED_EDGE ( 'NONE', *, *, #233, .T. ) ;
#50 = AXIS2_PLACEMENT_3D ( 'NONE', #234, #147, #66 ) ;
#51 = CARTESIAN_POINT ( 'NONE',  ( 0.0000000000000000000, 0.0000000000000000000, 0.04689999999999999725 ) ) ;
#52 = STYLED_ITEM ( 'NONE', ( #205 ), #216 ) ;
#53 = CARTESIAN_POINT ( 'NONE',  ( -0.07874999999999980627, 0.0000000000000000000, 2.000000000000000000 ) ) ;
#54 = CARTESIAN_POINT ( 'NONE',  ( -0.09375000000000001388, 0.0000000000000000000, 2.000000000000000000 ) ) ;
#55 = EDGE_CURVE ( 'NONE', #3, #273, #218, .T. ) ;
#56 = AXIS2_PLACEMENT_3D ( 'NONE', #69, #96, #45 ) ;
#57 = DIRECTION ( 'NONE',  ( 0.0000000000000000000, 0.0000000000000000000, -1.000000000000000000 ) ) ;
#58 = CONICAL_SURFACE ( 'NONE', #41, 0.07874999999999980627, 0.7853981633974466137 ) ;
#59 = SURFACE_STYLE_FILL_AREA ( #246 ) ;
#60 = EDGE_CURVE ( 'NONE', #273, #68, #29, .T. ) ;
#61 = CARTESIAN_POINT ( 'NONE',  ( 0.09375000000000001388, 1.148106374200643863E-17, 1.984999999999999654 ) ) ;
#62 = CARTESIAN_POINT ( 'NONE',  ( 0.0000000000000000000, 0.0000000000000000000, 0.04689999999999999725 ) ) ;
#63 = ORIENTED_EDGE ( 'NONE', *, *, #128, .F. ) ;
#64 = ORIENTED_EDGE ( 'NONE', *, *, #60, .F. ) ;
#65 = ORIENTED_EDGE ( 'NONE', *, *, #145, .T. ) ;
#66 = DIRECTION ( 'NONE',  ( -1.000000000000000000, 0.0000000000000000000, 0.0000000000000000000 ) ) ;
#67 = VERTEX_POINT ( 'NONE', #47 ) ;
#68 = VERTEX_POINT ( 'NONE', #235 ) ;
#69 = CARTESIAN_POINT ( 'NONE',  ( 0.0000000000000000000, 0.0000000000000000000, 1.984999999999999654 ) ) ;
#70 = PRODUCT_CONTEXT ( 'NONE', #125, 'mechanical' ) ;
#71 = CARTESIAN_POINT ( 'NONE',  ( 0.0000000000000000000, 0.0000000000000000000, 2.000000000000000000 ) ) ;
#72 = VECTOR ( 'NONE', #121, 39.37007874015748143 ) ;
#73 = EDGE_CURVE ( 'NONE', #248, #273, #22, .T. ) ;
#74 = FACE_OUTER_BOUND ( 'NONE', #19, .T. ) ;
#75 = CIRCLE ( 'NONE', #137, 0.09375000000000001388 ) ;
#76 = CARTESIAN_POINT ( 'NONE',  ( 0.0000000000000000000, 0.0000000000000000000, 0.03875590046742132672 ) ) ;
#77 = EDGE_CURVE ( 'NONE', #119, #248, #144, .T. ) ;
#78 = CARTESIAN_POINT ( 'NONE',  ( -0.09375000000000001388, 0.0000000000000000000, 1.984999999999999654 ) ) ;
#79 = FACE_OUTER_BOUND ( 'NONE', #136, .T. ) ;
#80 = VERTEX_POINT ( 'NONE', #251 ) ;
#81 = CLOSED_SHELL ( 'NONE', ( #20, #155, #198, #263, #27, #124, #116, #189, #140 ) ) ;
#82 = EDGE_LOOP ( 'NONE', ( #139, #42, #274, #230 ) ) ;
#83 = DIRECTION ( 'NONE',  ( 0.7071067811865463515, 8.659560562354916834E-17, -0.7071067811865486830 ) ) ;
#84 = DIMENSIONAL_EXPONENTS ( 1.000000000000000000, 0.0000000000000000000, 0.0000000000000000000, 0.0000000000000000000, 0.0000000000000000000, 0.0000000000000000000, 0.0000000000000000000 ) ;
#85 = MECHANICAL_DESIGN_GEOMETRIC_PRESENTATION_REPRESENTATION (  '', ( #192 ), #250 ) ;
#86 = ORIENTED_EDGE ( 'NONE', *, *, #77, .F. ) ;
#87 = CIRCLE ( 'NONE', #171, 0.07874999999999980627 ) ;
#88 = CARTESIAN_POINT ( 'NONE',  ( 0.0000000000000000000, 0.0000000000000000000, 0.0000000000000000000 ) ) ;
#89 = VERTEX_POINT ( 'NONE', #231 ) ;
#90 = CARTESIAN_POINT ( 'NONE',  ( 0.0000000000000000000, 0.0000000000000000000, 2.000000000000000000 ) ) ;
#91 = LINE ( 'NONE', #54, #202 ) ;
#92 = FACE_OUTER_BOUND ( 'NONE', #166, .T. ) ;
#93 = PRODUCT_DEFINITION ( 'UNKNOWN', '', #177, #269 ) ;
#94 = AXIS2_PLACEMENT_3D ( 'NONE', #51, #33, #10 ) ;
#95 = ORIENTED_EDGE ( 'NONE', *, *, #128, .T. ) ;
#96 = DIRECTION ( 'NONE',  ( 0.0000000000000000000, 0.0000000000000000000, -1.000000000000000000 ) ) ;
#97 = AXIS2_PLACEMENT_3D ( 'NONE', #13, #174, #265 ) ;
#98 = FACE_OUTER_BOUND ( 'NONE', #257, .T. ) ;
#99 = EDGE_CURVE ( 'NONE', #89, #68, #163, .T. ) ;
#100 = CARTESIAN_POINT ( 'NONE',  ( 0.0000000000000000000, 0.0000000000000000000, 0.3084963349297349389 ) ) ;
#101 = PRESENTATION_LAYER_ASSIGNMENT (  '', '', ( #52 ) ) ;
#102 = FACE_OUTER_BOUND ( 'NONE', #82, .T. ) ;
#103 = ORIENTED_EDGE ( 'NONE', *, *, #208, .F. ) ;
#104 = AXIS2_PLACEMENT_3D ( 'NONE', #62, #203, #157 ) ;
#105 = DIRECTION ( 'NONE',  ( -1.224646799147353207E-16, -1.000000000000000000, -0.0000000000000000000 ) ) ;
#106 = VECTOR ( 'NONE', #26, 39.37007874015748143 ) ;
#107 =( CONVERSION_BASED_UNIT ( 'INCH', #195 ) LENGTH_UNIT ( ) NAMED_UNIT ( #118 ) );
#108 =( NAMED_UNIT ( * ) SI_UNIT ( $, .STERADIAN. ) SOLID_ANGLE_UNIT ( ) );
#109 = CARTESIAN_POINT ( 'NONE',  ( 0.0000000000000000000, 0.0000000000000000000, 2.000000000000000000 ) ) ;
#110 = PRODUCT ( 'Micro_MRT-187-046', 'Micro_MRT-187-046', '', ( #70 ) ) ;
#111 = DIRECTION ( 'NONE',  ( 1.000000000000000000, 0.0000000000000000000, 0.0000000000000000000 ) ) ;
#112 = ORIENTED_EDGE ( 'NONE', *, *, #204, .T. ) ;
#113 = CONICAL_SURFACE ( 'NONE', #6, 0.1031249999999999389, 0.1745329251994259812 ) ;
#114 = ORIENTED_EDGE ( 'NONE', *, *, #73, .T. ) ;
#115 = ORIENTED_EDGE ( 'NONE', *, *, #253, .F. ) ;
#116 = ADVANCED_FACE ( 'NONE', ( #102 ), #154, .T. ) ;
#117 = CARTESIAN_POINT ( 'NONE',  ( 0.1031249999999999389, 0.0000000000000000000, 0.3616646019886528007 ) ) ;
#118 = DIMENSIONAL_EXPONENTS ( 1.000000000000000000, 0.0000000000000000000, 0.0000000000000000000, 0.0000000000000000000, 0.0000000000000000000, 0.0000000000000000000, 0.0000000000000000000 ) ;
#119 = VERTEX_POINT ( 'NONE', #53 ) ;
#120 = CARTESIAN_POINT ( 'NONE',  ( 0.07874999999999980627, 1.056257864264590573E-17, 2.000000000000000000 ) ) ;
#121 = DIRECTION ( 'NONE',  ( -0.0000000000000000000, -0.0000000000000000000, -1.000000000000000000 ) ) ;
#122 = DIRECTION ( 'NONE',  ( -0.0000000000000000000, -0.0000000000000000000, 1.000000000000000000 ) ) ;
#123 = FACE_OUTER_BOUND ( 'NONE', #23, .T. ) ;
#124 = ADVANCED_FACE ( 'NONE', ( #194 ), #127, .T. ) ;
#125 = APPLICATION_CONTEXT ( 'automotive_design' ) ;
#126 = DIRECTION ( 'NONE',  ( 1.000000000000000000, 0.0000000000000000000, 0.0000000000000000000 ) ) ;
#127 = PLANE ( 'NONE',  #221 ) ;
#128 = EDGE_CURVE ( 'NONE', #3, #119, #87, .T. ) ;
#129 = DIRECTION ( 'NONE',  ( -0.0000000000000000000, -0.0000000000000000000, 1.000000000000000000 ) ) ;
#130 = DIRECTION ( 'NONE',  ( -1.000000000000000000, 0.0000000000000000000, 0.0000000000000000000 ) ) ;
#131 = EDGE_LOOP ( 'NONE', ( #115, #112, #44, #49 ) ) ;
#132 =( GEOMETRIC_REPRESENTATION_CONTEXT ( 3 ) GLOBAL_UNCERTAINTY_ASSIGNED_CONTEXT ( ( #188 ) ) GLOBAL_UNIT_ASSIGNED_CONTEXT ( ( #18, #2, #255 ) ) REPRESENTATION_CONTEXT ( 'NONE', 'WORKASPACE' ) );
#133 = ORIENTED_EDGE ( 'NONE', *, *, #99, .F. ) ;
#134 = EDGE_CURVE ( 'NONE', #273, #248, #31, .T. ) ;
#135 = LINE ( 'NONE', #40, #30 ) ;
#136 = EDGE_LOOP ( 'NONE', ( #114, #7, #181, #168 ) ) ;
#137 = AXIS2_PLACEMENT_3D ( 'NONE', #100, #57, #180 ) ;
#138 = PRESENTATION_LAYER_ASSIGNMENT (  '', '', ( #192 ) ) ;
#139 = ORIENTED_EDGE ( 'NONE', *, *, #55, .F. ) ;
#140 = ADVANCED_FACE ( 'NONE', ( #123 ), #151, .T. ) ;
#141 = EDGE_LOOP ( 'NONE', ( #4, #95 ) ) ;
#142 = UNCERTAINTY_MEASURE_WITH_UNIT (LENGTH_MEASURE( 1.000000000000000082E-05 ), #178, 'distance_accuracy_value', 'NONE');
#143 = ORIENTED_EDGE ( 'NONE', *, *, #204, .F. ) ;
#144 = LINE ( 'NONE', #183, #37 ) ;
#145 = EDGE_CURVE ( 'NONE', #89, #67, #241, .T. ) ;
#146 =( GEOMETRIC_REPRESENTATION_CONTEXT ( 3 ) GLOBAL_UNCERTAINTY_ASSIGNED_CONTEXT ( ( #142 ) ) GLOBAL_UNIT_ASSIGNED_CONTEXT ( ( #178, #271, #17 ) ) REPRESENTATION_CONTEXT ( 'NONE', 'WORKASPACE' ) );
#147 = DIRECTION ( 'NONE',  ( -0.0000000000000000000, -0.0000000000000000000, -1.000000000000000000 ) ) ;
#148 = FACE_OUTER_BOUND ( 'NONE', #160, .T. ) ;
#149 = AXIS2_PLACEMENT_3D ( 'NONE', #197, #129, #34 ) ;
#150 = DIRECTION ( 'NONE',  ( 1.000000000000000000, 0.0000000000000000000, 0.0000000000000000000 ) ) ;
#151 = SPHERICAL_SURFACE ( 'NONE', #94, 0.04689999999999999725 ) ;
#152 = AXIS2_PLACEMENT_3D ( 'NONE', #201, #36, #130 ) ;
#153 = SURFACE_SIDE_STYLE ('',( #242 ) ) ;
#154 = CONICAL_SURFACE ( 'NONE', #267, 0.07874999999999980627, 0.7853981633974466137 ) ;
#155 = ADVANCED_FACE ( 'NONE', ( #92 ), #113, .T. ) ;
#156 = MANIFOLD_SOLID_BREP ( 'Cut-Revolve1', #81 ) ;
#157 = DIRECTION ( 'NONE',  ( 0.0000000000000000000, 0.0000000000000000000, 1.000000000000000000 ) ) ;
#158 = CIRCLE ( 'NONE', #196, 0.04689999999999999725 ) ;
#159 = FILL_AREA_STYLE_COLOUR ( '', #227 ) ;
#160 = EDGE_LOOP ( 'NONE', ( #64, #209, #190, #272 ) ) ;
#161 = AXIS2_PLACEMENT_3D ( 'NONE', #261, #264, #222 ) ;
#162 = DIRECTION ( 'NONE',  ( -1.000000000000000000, 0.0000000000000000000, 0.0000000000000000000 ) ) ;
#163 = LINE ( 'NONE', #117, #106 ) ;
#164 = DIRECTION ( 'NONE',  ( -0.0000000000000000000, -1.000000000000000000, 0.0000000000000000000 ) ) ;
#165 = DIRECTION ( 'NONE',  ( 1.000000000000000000, 0.0000000000000000000, 0.0000000000000000000 ) ) ;
#166 = EDGE_LOOP ( 'NONE', ( #65, #258, #206, #133 ) ) ;
#167 = AXIS2_PLACEMENT_3D ( 'NONE', #88, #260, #165 ) ;
#168 = ORIENTED_EDGE ( 'NONE', *, *, #179, .F. ) ;
#169 = DIRECTION ( 'NONE',  ( -1.000000000000000000, 0.0000000000000000000, 0.0000000000000000000 ) ) ;
#170 = APPLICATION_PROTOCOL_DEFINITION ( 'draft international standard', 'automotive_design', 1998, #11 ) ;
#171 = AXIS2_PLACEMENT_3D ( 'NONE', #71, #172, #111 ) ;
#172 = DIRECTION ( 'NONE',  ( 0.0000000000000000000, 0.0000000000000000000, 1.000000000000000000 ) ) ;
#173 = DIRECTION ( 'NONE',  ( 0.0000000000000000000, 0.0000000000000000000, -1.000000000000000000 ) ) ;
#174 = DIRECTION ( 'NONE',  ( -0.0000000000000000000, -0.0000000000000000000, 1.000000000000000000 ) ) ;
#175 = SURFACE_STYLE_USAGE ( .BOTH. , #153 ) ;
#176 = CARTESIAN_POINT ( 'NONE',  ( 0.0000000000000000000, 0.0000000000000000000, 0.3084963349297349389 ) ) ;
#177 = PRODUCT_DEFINITION_FORMATION_WITH_SPECIFIED_SOURCE ( 'ANY', '', #110, .NOT_KNOWN. ) ;
#178 =( CONVERSION_BASED_UNIT ( 'INCH', #38 ) LENGTH_UNIT ( ) NAMED_UNIT ( #25 ) );
#179 = EDGE_CURVE ( 'NONE', #248, #43, #91, .T. ) ;
#180 = DIRECTION ( 'NONE',  ( 1.000000000000000000, 0.0000000000000000000, 0.0000000000000000000 ) ) ;
#181 = ORIENTED_EDGE ( 'NONE', *, *, #225, .F. ) ;
#182 = EDGE_CURVE ( 'NONE', #119, #3, #15, .T. ) ;
#183 = CARTESIAN_POINT ( 'NONE',  ( -0.07874999999999980627, 0.0000000000000000000, 2.000000000000000000 ) ) ;
#184 = CONICAL_SURFACE ( 'NONE', #97, 0.1031249999999999389, 0.1745329251994259812 ) ;
#185 = DIRECTION ( 'NONE',  ( 1.000000000000000000, -1.224646799147353207E-16, 0.0000000000000000000 ) ) ;
#186 = LENGTH_MEASURE_WITH_UNIT ( LENGTH_MEASURE( 0.02539999999999999897 ), #24 );
#187 = CARTESIAN_POINT ( 'NONE',  ( 0.0000000000000000000, 0.0000000000000000000, 0.04689999999999999725 ) ) ;
#188 = UNCERTAINTY_MEASURE_WITH_UNIT (LENGTH_MEASURE( 1.000000000000000082E-05 ), #18, 'distance_accuracy_value', 'NONE');
#189 = ADVANCED_FACE ( 'NONE', ( #199 ), #184, .T. ) ;
#190 = ORIENTED_EDGE ( 'NONE', *, *, #179, .T. ) ;
#191 = CIRCLE ( 'NONE', #266, 0.09375000000000001388 ) ;
#192 = STYLED_ITEM ( 'NONE', ( #268 ), #156 ) ;
#193 = ORIENTED_EDGE ( 'NONE', *, *, #208, .T. ) ;
#194 = FACE_OUTER_BOUND ( 'NONE', #141, .T. ) ;
#195 = LENGTH_MEASURE_WITH_UNIT ( LENGTH_MEASURE( 0.02539999999999999897 ), #219 );
#196 = AXIS2_PLACEMENT_3D ( 'NONE', #48, #105, #185 ) ;
#197 = CARTESIAN_POINT ( 'NONE',  ( 0.0000000000000000000, 0.0000000000000000000, 0.03875590046742132672 ) ) ;
#198 = ADVANCED_FACE ( 'NONE', ( #74 ), #58, .T. ) ;
#199 = FACE_OUTER_BOUND ( 'NONE', #131, .T. ) ;
#200 = DIRECTION ( 'NONE',  ( 1.000000000000000000, 0.0000000000000000000, -0.0000000000000000000 ) ) ;
#201 = CARTESIAN_POINT ( 'NONE',  ( 0.0000000000000000000, 0.0000000000000000000, 2.000000000000000000 ) ) ;
#202 = VECTOR ( 'NONE', #9, 39.37007874015748143 ) ;
#203 = DIRECTION ( 'NONE',  ( 0.0000000000000000000, 1.000000000000000000, 0.0000000000000000000 ) ) ;
#204 = EDGE_CURVE ( 'NONE', #67, #89, #237, .T. ) ;
#205 = PRESENTATION_STYLE_ASSIGNMENT (( #207 ) ) ;
#206 = ORIENTED_EDGE ( 'NONE', *, *, #225, .T. ) ;
#207 = SURFACE_STYLE_USAGE ( .BOTH. , #212 ) ;
#208 = EDGE_CURVE ( 'NONE', #80, #67, #5, .T. ) ;
#209 = ORIENTED_EDGE ( 'NONE', *, *, #134, .T. ) ;
#210 = ORIENTED_EDGE ( 'NONE', *, *, #55, .T. ) ;
#211 = AXIS2_PLACEMENT_3D ( 'NONE', #187, #164, #162 ) ;
#212 = SURFACE_SIDE_STYLE ('',( #59 ) ) ;
#213 = ORIENTED_EDGE ( 'NONE', *, *, #39, .F. ) ;
#214 = ORIENTED_EDGE ( 'NONE', *, *, #145, .F. ) ;
#215 = DIRECTION ( 'NONE',  ( -0.7071067811865463515, 0.0000000000000000000, -0.7071067811865486830 ) ) ;
#216 = ADVANCED_BREP_SHAPE_REPRESENTATION ( 'Micro_MRT-187-046', ( #156, #167 ), #146 ) ;
#217 = COLOUR_RGB ( '',0.7921568627450980005, 0.8196078431372548767, 0.9333333333333333481 ) ;
#218 = LINE ( 'NONE', #1, #275 ) ;
#219 =( LENGTH_UNIT ( ) NAMED_UNIT ( * ) SI_UNIT ( $, .METRE. ) );
#220 = DIRECTION ( 'NONE',  ( -1.000000000000000000, 0.0000000000000000000, 0.0000000000000000000 ) ) ;
#221 = AXIS2_PLACEMENT_3D ( 'NONE', #35, #259, #200 ) ;
#222 = DIRECTION ( 'NONE',  ( 1.000000000000000000, 0.0000000000000000000, 0.0000000000000000000 ) ) ;
#223 = DIRECTION ( 'NONE',  ( 0.0000000000000000000, 0.0000000000000000000, -1.000000000000000000 ) ) ;
#224 =( LENGTH_UNIT ( ) NAMED_UNIT ( * ) SI_UNIT ( $, .METRE. ) );
#225 = EDGE_CURVE ( 'NONE', #43, #68, #191, .T. ) ;
#226 = DIRECTION ( 'NONE',  ( 1.000000000000000000, 0.0000000000000000000, 0.0000000000000000000 ) ) ;
#227 = COLOUR_RGB ( '',0.7921568627450980005, 0.8196078431372548767, 0.9333333333333333481 ) ;
#228 = CYLINDRICAL_SURFACE ( 'NONE', #152, 0.09375000000000001388 ) ;
#229 = AXIS2_PLACEMENT_3D ( 'NONE', #76, #270, #247 ) ;
#230 = ORIENTED_EDGE ( 'NONE', *, *, #134, .F. ) ;
#231 = CARTESIAN_POINT ( 'NONE',  ( 0.04618748361627260379, 0.0000000000000000000, 0.03875590046742132672 ) ) ;
#232 = CYLINDRICAL_SURFACE ( 'NONE', #50, 0.09375000000000001388 ) ;
#233 = EDGE_CURVE ( 'NONE', #68, #43, #75, .T. ) ;
#234 = CARTESIAN_POINT ( 'NONE',  ( 0.0000000000000000000, 0.0000000000000000000, 2.000000000000000000 ) ) ;
#235 = CARTESIAN_POINT ( 'NONE',  ( 0.09375000000000001388, 1.148106374200643863E-17, 0.3084963349297349389 ) ) ;
#236 = CARTESIAN_POINT ( 'NONE',  ( 0.09375000000000001388, 1.148106374200643863E-17, 2.000000000000000000 ) ) ;
#237 = CIRCLE ( 'NONE', #229, 0.04618748361627260379 ) ;
#238 = CARTESIAN_POINT ( 'NONE',  ( 0.0000000000000000000, 0.0000000000000000000, 1.984999999999999654 ) ) ;
#239 = SHAPE_DEFINITION_REPRESENTATION ( #8, #216 ) ;
#240 = DIRECTION ( 'NONE',  ( 0.0000000000000000000, 0.0000000000000000000, -1.000000000000000000 ) ) ;
#241 = CIRCLE ( 'NONE', #149, 0.04618748361627260379 ) ;
#242 = SURFACE_STYLE_FILL_AREA ( #14 ) ;
#243 = CARTESIAN_POINT ( 'NONE',  ( 0.0000000000000000000, 0.0000000000000000000, 0.3616646019886528007 ) ) ;
#244 = DIRECTION ( 'NONE',  ( -0.1736481776669234756, 2.126576849575687482E-17, 0.9848077530122092416 ) ) ;
#245 = PRODUCT_RELATED_PRODUCT_CATEGORY ( 'part', '', ( #110 ) ) ;
#246 = FILL_AREA_STYLE ('',( #159 ) ) ;
#247 = DIRECTION ( 'NONE',  ( 1.000000000000000000, 0.0000000000000000000, 0.0000000000000000000 ) ) ;
#248 = VERTEX_POINT ( 'NONE', #78 ) ;
#249 = ORIENTED_EDGE ( 'NONE', *, *, #39, .T. ) ;
#250 =( GEOMETRIC_REPRESENTATION_CONTEXT ( 3 ) GLOBAL_UNCERTAINTY_ASSIGNED_CONTEXT ( ( #252 ) ) GLOBAL_UNIT_ASSIGNED_CONTEXT ( ( #107, #12, #108 ) ) REPRESENTATION_CONTEXT ( 'NONE', 'WORKASPACE' ) );
#251 = CARTESIAN_POINT ( 'NONE',  ( -2.871796744000543383E-18, 0.0000000000000000000, 0.0000000000000000000 ) ) ;
#252 = UNCERTAINTY_MEASURE_WITH_UNIT (LENGTH_MEASURE( 1.000000000000000082E-05 ), #107, 'distance_accuracy_value', 'NONE');
#253 = EDGE_CURVE ( 'NONE', #67, #43, #135, .T. ) ;
#254 = SPHERICAL_SURFACE ( 'NONE', #211, 0.04689999999999999725 ) ;
#255 =( NAMED_UNIT ( * ) SI_UNIT ( $, .STERADIAN. ) SOLID_ANGLE_UNIT ( ) );
#256 = ORIENTED_EDGE ( 'NONE', *, *, #73, .F. ) ;
#257 = EDGE_LOOP ( 'NONE', ( #103, #249, #143 ) ) ;
#258 = ORIENTED_EDGE ( 'NONE', *, *, #253, .T. ) ;
#259 = DIRECTION ( 'NONE',  ( 0.0000000000000000000, 0.0000000000000000000, 1.000000000000000000 ) ) ;
#260 = DIRECTION ( 'NONE',  ( 0.0000000000000000000, 0.0000000000000000000, 1.000000000000000000 ) ) ;
#261 = CARTESIAN_POINT ( 'NONE',  ( 0.0000000000000000000, 0.0000000000000000000, 2.000000000000000000 ) ) ;
#262 = MECHANICAL_DESIGN_GEOMETRIC_PRESENTATION_REPRESENTATION (  '', ( #52 ), #132 ) ;
#263 = ADVANCED_FACE ( 'NONE', ( #79 ), #228, .T. ) ;
#264 = DIRECTION ( 'NONE',  ( 0.0000000000000000000, 0.0000000000000000000, 1.000000000000000000 ) ) ;
#265 = DIRECTION ( 'NONE',  ( 1.000000000000000000, 0.0000000000000000000, 0.0000000000000000000 ) ) ;
#266 = AXIS2_PLACEMENT_3D ( 'NONE', #176, #21, #226 ) ;
#267 = AXIS2_PLACEMENT_3D ( 'NONE', #109, #240, #220 ) ;
#268 = PRESENTATION_STYLE_ASSIGNMENT (( #175 ) ) ;
#269 = PRODUCT_DEFINITION_CONTEXT ( 'detailed design', #11, 'design' ) ;
#270 = DIRECTION ( 'NONE',  ( -0.0000000000000000000, -0.0000000000000000000, 1.000000000000000000 ) ) ;
#271 =( NAMED_UNIT ( * ) PLANE_ANGLE_UNIT ( ) SI_UNIT ( $, .RADIAN. ) );
#272 = ORIENTED_EDGE ( 'NONE', *, *, #233, .F. ) ;
#273 = VERTEX_POINT ( 'NONE', #61 ) ;
#274 = ORIENTED_EDGE ( 'NONE', *, *, #77, .T. ) ;
#275 = VECTOR ( 'NONE', #83, 39.37007874015748143 ) ;
ENDSEC;
END-ISO-10303-21;
