ISO-10303-21;
HEADER;
FILE_DESCRIPTION (( 'STEP AP214' ),
    '1' );
FILE_NAME ('Micro_GELM-250-3.STEP',
    '2021-09-01T18:42:04',
    ( '' ),
    ( '' ),
    'SwSTEP 2.0',
    'SolidWorks 2020',
    '' );
FILE_SCHEMA (( 'AUTOMOTIVE_DESIGN' ));
ENDSEC;

DATA;
#1 = FACE_OUTER_BOUND ( 'NONE', #255, .T. ) ;
#2 = ORIENTED_EDGE ( 'NONE', *, *, #267, .T. ) ;
#3 = ADVANCED_FACE ( 'NONE', ( #291 ), #126, .T. ) ;
#4 = ORIENTED_EDGE ( 'NONE', *, *, #232, .T. ) ;
#5 = AXIS2_PLACEMENT_3D ( 'NONE', #243, #283, #103 ) ;
#6 = CONICAL_SURFACE ( 'NONE', #211, 0.4771260000000020485, 0.7853981633974278509 ) ;
#7 = VERTEX_POINT ( 'NONE', #219 ) ;
#8 = ADVANCED_FACE ( 'NONE', ( #26 ), #170, .F. ) ;
#9 = LINE ( 'NONE', #13, #50 ) ;
#10 = DIRECTION ( 'NONE',  ( -1.224646799147353207E-16, -0.0000000000000000000, -1.000000000000000000 ) ) ;
#11 = CIRCLE ( 'NONE', #34, 0.4771260000000020485 ) ;
#12 = CARTESIAN_POINT ( 'NONE',  ( 0.0000000000000000000, 0.0000000000000000000, 5.905511999999999873 ) ) ;
#13 = CARTESIAN_POINT ( 'NONE',  ( -0.4771260000000020485, 0.0000000000000000000, 5.905511999999999873 ) ) ;
#14 = CARTESIAN_POINT ( 'NONE',  ( 0.0000000000000000000, 0.0000000000000000000, 5.905511999999999873 ) ) ;
#15 = AXIS2_PLACEMENT_3D ( 'NONE', #285, #269, #265 ) ;
#16 = APPLICATION_PROTOCOL_DEFINITION ( 'draft international standard', 'automotive_design', 1998, #246 ) ;
#17 = AXIS2_PLACEMENT_3D ( 'NONE', #12, #154, #109 ) ;
#18 = CARTESIAN_POINT ( 'NONE',  ( 0.0000000000000000000, 0.0000000000000000000, 5.890512000000001969 ) ) ;
#19 = ORIENTED_EDGE ( 'NONE', *, *, #75, .T. ) ;
#20 = EDGE_LOOP ( 'NONE', ( #35, #229, #208, #72 ) ) ;
#21 = ORIENTED_EDGE ( 'NONE', *, *, #53, .T. ) ;
#22 = ORIENTED_EDGE ( 'NONE', *, *, #227, .F. ) ;
#23 = AXIS2_PLACEMENT_3D ( 'NONE', #14, #98, #77 ) ;
#24 = LENGTH_MEASURE_WITH_UNIT ( LENGTH_MEASURE( 0.02539999999999999897 ), #43 );
#25 = CARTESIAN_POINT ( 'NONE',  ( 7.373327120194471968E-33, 0.0000000000000000000, 6.020778501465132931E-17 ) ) ;
#26 = FACE_OUTER_BOUND ( 'NONE', #278, .T. ) ;
#27 = CARTESIAN_POINT ( 'NONE',  ( -0.4916338739999996932, 6.020778501465132931E-17, 2.952755999999999936 ) ) ;
#28 = FACE_OUTER_BOUND ( 'NONE', #20, .T. ) ;
#29 = DIRECTION ( 'NONE',  ( 1.000000000000000000, 0.0000000000000000000, -0.0000000000000000000 ) ) ;
#30 = DIRECTION ( 'NONE',  ( -0.0000000000000000000, -0.0000000000000000000, -1.000000000000000000 ) ) ;
#31 = AXIS2_PLACEMENT_3D ( 'NONE', #94, #173, #275 ) ;
#32 = LINE ( 'NONE', #113, #179 ) ;
#33 = UNCERTAINTY_MEASURE_WITH_UNIT (LENGTH_MEASURE( 1.000000000000000082E-05 ), #136, 'distance_accuracy_value', 'NONE');
#34 = AXIS2_PLACEMENT_3D ( 'NONE', #134, #85, #222 ) ;
#35 = ORIENTED_EDGE ( 'NONE', *, *, #286, .F. ) ;
#36 = ORIENTED_EDGE ( 'NONE', *, *, #168, .T. ) ;
#37 = ORIENTED_EDGE ( 'NONE', *, *, #267, .F. ) ;
#38 = AXIS2_PLACEMENT_3D ( 'NONE', #18, #189, #195 ) ;
#39 = CARTESIAN_POINT ( 'NONE',  ( 0.0000000000000000000, 0.0000000000000000000, 0.0000000000000000000 ) ) ;
#40 = VERTEX_POINT ( 'NONE', #78 ) ;
#41 = DIRECTION ( 'NONE',  ( -1.224646799147353207E-16, -0.0000000000000000000, -1.000000000000000000 ) ) ;
#42 = ADVANCED_FACE ( 'NONE', ( #266 ), #6, .T. ) ;
#43 =( LENGTH_UNIT ( ) NAMED_UNIT ( * ) SI_UNIT ( $, .METRE. ) );
#44 = AXIS2_PLACEMENT_3D ( 'NONE', #86, #158, #121 ) ;
#45 = EDGE_LOOP ( 'NONE', ( #233, #254, #69, #209 ) ) ;
#46 = PRESENTATION_STYLE_ASSIGNMENT (( #290 ) ) ;
#47 = EDGE_CURVE ( 'NONE', #161, #7, #298, .T. ) ;
#48 = CARTESIAN_POINT ( 'NONE',  ( 0.0000000000000000000, 0.0000000000000000000, 0.0000000000000000000 ) ) ;
#49 = AXIS2_PLACEMENT_3D ( 'NONE', #48, #237, #29 ) ;
#50 = VECTOR ( 'NONE', #99, 39.37007874015748143 ) ;
#51 = LENGTH_MEASURE_WITH_UNIT ( LENGTH_MEASURE( 0.02539999999999999897 ), #81 );
#52 = PRODUCT ( 'Micro_GELM-250-3', 'Micro_GELM-250-3', '', ( #178 ) ) ;
#53 = EDGE_CURVE ( 'NONE', #187, #67, #253, .T. ) ;
#54 = LINE ( 'NONE', #273, #206 ) ;
#55 = DIMENSIONAL_EXPONENTS ( 1.000000000000000000, 0.0000000000000000000, 0.0000000000000000000, 0.0000000000000000000, 0.0000000000000000000, 0.0000000000000000000, 0.0000000000000000000 ) ;
#56 = ADVANCED_BREP_SHAPE_REPRESENTATION ( 'Micro_GELM-250-3', ( #58, #138 ), #164 ) ;
#57 = VECTOR ( 'NONE', #204, 39.37007874015748143 ) ;
#58 = MANIFOLD_SOLID_BREP ( 'Cut-Revolve1', #108 ) ;
#59 = CARTESIAN_POINT ( 'NONE',  ( 0.4771260000000020485, 5.934956796835864798E-17, 5.905511999999999873 ) ) ;
#60 = PRODUCT_DEFINITION ( 'UNKNOWN', '', #293, #203 ) ;
#61 = DIRECTION ( 'NONE',  ( -1.000000000000000000, 0.0000000000000000000, 0.0000000000000000000 ) ) ;
#62 = ORIENTED_EDGE ( 'NONE', *, *, #146, .F. ) ;
#63 = EDGE_CURVE ( 'NONE', #116, #279, #123, .T. ) ;
#64 = LINE ( 'NONE', #162, #137 ) ;
#65 = EDGE_CURVE ( 'NONE', #7, #161, #144, .T. ) ;
#66 = EDGE_CURVE ( 'NONE', #67, #40, #9, .T. ) ;
#67 = VERTEX_POINT ( 'NONE', #191 ) ;
#68 = STYLED_ITEM ( 'NONE', ( #221 ), #56 ) ;
#69 = ORIENTED_EDGE ( 'NONE', *, *, #150, .T. ) ;
#70 = CARTESIAN_POINT ( 'NONE',  ( -0.4916338739999996932, 6.023791904118518653E-17, 2.952755999999999936 ) ) ;
#71 = CARTESIAN_POINT ( 'NONE',  ( 0.0000000000000000000, 0.0000000000000000000, 5.905511999999999873 ) ) ;
#72 = ORIENTED_EDGE ( 'NONE', *, *, #232, .F. ) ;
#73 = AXIS2_PLACEMENT_3D ( 'NONE', #261, #10, #83 ) ;
#74 = CARTESIAN_POINT ( 'NONE',  ( 0.4916338740000000262, 6.020778501465132931E-17, -6.020778501465132931E-17 ) ) ;
#75 = EDGE_CURVE ( 'NONE', #258, #7, #288, .T. ) ;
#76 = DIRECTION ( 'NONE',  ( -1.224646799147353207E-16, -0.0000000000000000000, -1.000000000000000000 ) ) ;
#77 = DIRECTION ( 'NONE',  ( 1.000000000000000000, 0.0000000000000000000, 0.0000000000000000000 ) ) ;
#78 = CARTESIAN_POINT ( 'NONE',  ( -0.4921260000000000634, 0.0000000000000000000, 5.890512000000001969 ) ) ;
#79 = MECHANICAL_DESIGN_GEOMETRIC_PRESENTATION_REPRESENTATION (  '', ( #281 ), #111 ) ;
#80 = ADVANCED_FACE ( 'NONE', ( #268 ), #194, .T. ) ;
#81 =( LENGTH_UNIT ( ) NAMED_UNIT ( * ) SI_UNIT ( $, .METRE. ) );
#82 = DIRECTION ( 'NONE',  ( 1.224646799147353207E-16, 0.0000000000000000000, 1.000000000000000000 ) ) ;
#83 = DIRECTION ( 'NONE',  ( -1.000000000000000000, 0.0000000000000000000, 0.0000000000000000000 ) ) ;
#84 = SURFACE_SIDE_STYLE ('',( #155 ) ) ;
#85 = DIRECTION ( 'NONE',  ( 0.0000000000000000000, 0.0000000000000000000, 1.000000000000000000 ) ) ;
#86 = CARTESIAN_POINT ( 'NONE',  ( 0.0000000000000000000, 0.0000000000000000000, 5.905511999999999873 ) ) ;
#87 = DIRECTION ( 'NONE',  ( -1.000000000000000000, 0.0000000000000000000, 0.0000000000000000000 ) ) ;
#88 = CYLINDRICAL_SURFACE ( 'NONE', #220, 0.4921260000000000634 ) ;
#89 = CIRCLE ( 'NONE', #38, 0.4921260000000000634 ) ;
#90 = VERTEX_POINT ( 'NONE', #166 ) ;
#91 = ORIENTED_EDGE ( 'NONE', *, *, #47, .F. ) ;
#92 = CYLINDRICAL_SURFACE ( 'NONE', #106, 0.4916338740000000262 ) ;
#93 = ORIENTED_EDGE ( 'NONE', *, *, #168, .F. ) ;
#94 = CARTESIAN_POINT ( 'NONE',  ( 3.616083184063142379E-16, 0.0000000000000000000, 2.952755999999999936 ) ) ;
#95 = ORIENTED_EDGE ( 'NONE', *, *, #122, .F. ) ;
#96 = COLOUR_RGB ( '',0.7921568627450980005, 0.8196078431372548767, 0.9333333333333333481 ) ;
#97 = ORIENTED_EDGE ( 'NONE', *, *, #207, .T. ) ;
#98 = DIRECTION ( 'NONE',  ( 0.0000000000000000000, 0.0000000000000000000, 1.000000000000000000 ) ) ;
#99 = DIRECTION ( 'NONE',  ( -0.7071067811865330288, 0.0000000000000000000, -0.7071067811865620056 ) ) ;
#100 = PRESENTATION_LAYER_ASSIGNMENT (  '', '', ( #281 ) ) ;
#101 =( NAMED_UNIT ( * ) SI_UNIT ( $, .STERADIAN. ) SOLID_ANGLE_UNIT ( ) );
#102 =( CONVERSION_BASED_UNIT ( 'INCH', #157 ) LENGTH_UNIT ( ) NAMED_UNIT ( #55 ) );
#103 = DIRECTION ( 'NONE',  ( -1.000000000000000000, 0.0000000000000000000, 1.224646799147353454E-16 ) ) ;
#104 = FILL_AREA_STYLE_COLOUR ( '', #96 ) ;
#105 = CARTESIAN_POINT ( 'NONE',  ( 0.4916338740000004148, 0.0000000000000000000, 2.952755999999999936 ) ) ;
#106 = AXIS2_PLACEMENT_3D ( 'NONE', #39, #125, #197 ) ;
#107 = CARTESIAN_POINT ( 'NONE',  ( -0.4916338740000000262, 0.0000000000000000000, 1.204155700293026586E-16 ) ) ;
#108 = CLOSED_SHELL ( 'NONE', ( #238, #118, #42, #142, #80, #274, #185, #259, #3, #8 ) ) ;
#109 = DIRECTION ( 'NONE',  ( -1.000000000000000000, 0.0000000000000000000, 0.0000000000000000000 ) ) ;
#110 = PLANE ( 'NONE',  #44 ) ;
#111 =( GEOMETRIC_REPRESENTATION_CONTEXT ( 3 ) GLOBAL_UNCERTAINTY_ASSIGNED_CONTEXT ( ( #167 ) ) GLOBAL_UNIT_ASSIGNED_CONTEXT ( ( #175, #213, #241 ) ) REPRESENTATION_CONTEXT ( 'NONE', 'WORKASPACE' ) );
#112 = DIRECTION ( 'NONE',  ( 1.000000000000000000, 0.0000000000000000000, 0.0000000000000000000 ) ) ;
#113 = CARTESIAN_POINT ( 'NONE',  ( 0.4771260000000020485, 5.843108286899826453E-17, 5.905511999999999873 ) ) ;
#114 = CIRCLE ( 'NONE', #149, 0.4921260000000000634 ) ;
#115 = UNCERTAINTY_MEASURE_WITH_UNIT (LENGTH_MEASURE( 1.000000000000000082E-05 ), #102, 'distance_accuracy_value', 'NONE');
#116 = VERTEX_POINT ( 'NONE', #70 ) ;
#117 = EDGE_LOOP ( 'NONE', ( #37, #4, #210, #93 ) ) ;
#118 = ADVANCED_FACE ( 'NONE', ( #248 ), #171, .T. ) ;
#119 = EDGE_LOOP ( 'NONE', ( #296, #21 ) ) ;
#120 = AXIS2_PLACEMENT_3D ( 'NONE', #25, #214, #218 ) ;
#121 = DIRECTION ( 'NONE',  ( 1.000000000000000000, 0.0000000000000000000, -0.0000000000000000000 ) ) ;
#122 = EDGE_CURVE ( 'NONE', #116, #258, #236, .T. ) ;
#123 = LINE ( 'NONE', #27, #230 ) ;
#124 = DIMENSIONAL_EXPONENTS ( 1.000000000000000000, 0.0000000000000000000, 0.0000000000000000000, 0.0000000000000000000, 0.0000000000000000000, 0.0000000000000000000, 0.0000000000000000000 ) ;
#125 = DIRECTION ( 'NONE',  ( -1.224646799147353207E-16, -0.0000000000000000000, -1.000000000000000000 ) ) ;
#126 = CYLINDRICAL_SURFACE ( 'NONE', #5, 0.4916338740000000262 ) ;
#127 = CIRCLE ( 'NONE', #160, 0.4921260000000000634 ) ;
#128 =( GEOMETRIC_REPRESENTATION_CONTEXT ( 3 ) GLOBAL_UNCERTAINTY_ASSIGNED_CONTEXT ( ( #33 ) ) GLOBAL_UNIT_ASSIGNED_CONTEXT ( ( #136, #295, #198 ) ) REPRESENTATION_CONTEXT ( 'NONE', 'WORKASPACE' ) );
#129 = DIRECTION ( 'NONE',  ( -0.1736481776669311083, 2.126576849575782084E-17, 0.9848077530122080203 ) ) ;
#130 = SURFACE_STYLE_FILL_AREA ( #262 ) ;
#131 = SURFACE_STYLE_USAGE ( .BOTH. , #84 ) ;
#132 = FACE_OUTER_BOUND ( 'NONE', #119, .T. ) ;
#133 =( NAMED_UNIT ( * ) PLANE_ANGLE_UNIT ( ) SI_UNIT ( $, .RADIAN. ) );
#134 = CARTESIAN_POINT ( 'NONE',  ( 0.0000000000000000000, 0.0000000000000000000, 5.905511999999999873 ) ) ;
#135 = EDGE_CURVE ( 'NONE', #258, #165, #177, .T. ) ;
#136 =( CONVERSION_BASED_UNIT ( 'INCH', #51 ) LENGTH_UNIT ( ) NAMED_UNIT ( #124 ) );
#137 = VECTOR ( 'NONE', #41, 39.37007874015748143 ) ;
#138 = AXIS2_PLACEMENT_3D ( 'NONE', #226, #180, #205 ) ;
#139 = ORIENTED_EDGE ( 'NONE', *, *, #244, .F. ) ;
#140 = LINE ( 'NONE', #184, #57 ) ;
#141 = ORIENTED_EDGE ( 'NONE', *, *, #63, .F. ) ;
#142 = ADVANCED_FACE ( 'NONE', ( #250 ), #88, .T. ) ;
#143 = DIRECTION ( 'NONE',  ( -1.224646799147353207E-16, -0.0000000000000000000, -1.000000000000000000 ) ) ;
#144 = CIRCLE ( 'NONE', #120, 0.4916338740000000262 ) ;
#145 = CARTESIAN_POINT ( 'NONE',  ( 0.4916338740000004148, 0.0000000000000000000, 2.952755999999999936 ) ) ;
#146 = EDGE_CURVE ( 'NONE', #40, #279, #140, .T. ) ;
#147 = ORIENTED_EDGE ( 'NONE', *, *, #122, .T. ) ;
#148 = ORIENTED_EDGE ( 'NONE', *, *, #135, .T. ) ;
#149 = AXIS2_PLACEMENT_3D ( 'NONE', #270, #76, #174 ) ;
#150 = EDGE_CURVE ( 'NONE', #116, #161, #64, .T. ) ;
#151 = ORIENTED_EDGE ( 'NONE', *, *, #244, .T. ) ;
#152 = CARTESIAN_POINT ( 'NONE',  ( 0.0000000000000000000, 0.0000000000000000000, 5.905511999999999873 ) ) ;
#153 = MECHANICAL_DESIGN_GEOMETRIC_PRESENTATION_REPRESENTATION (  '', ( #68 ), #128 ) ;
#154 = DIRECTION ( 'NONE',  ( -0.0000000000000000000, -0.0000000000000000000, -1.000000000000000000 ) ) ;
#155 = SURFACE_STYLE_FILL_AREA ( #271 ) ;
#156 = APPLICATION_PROTOCOL_DEFINITION ( 'draft international standard', 'automotive_design', 1998, #263 ) ;
#157 = LENGTH_MEASURE_WITH_UNIT ( LENGTH_MEASURE( 0.02539999999999999897 ), #228 );
#158 = DIRECTION ( 'NONE',  ( 0.0000000000000000000, 0.0000000000000000000, 1.000000000000000000 ) ) ;
#159 = DIRECTION ( 'NONE',  ( 0.1736481776669313026, 0.0000000000000000000, 0.9848077530122077983 ) ) ;
#160 = AXIS2_PLACEMENT_3D ( 'NONE', #200, #234, #112 ) ;
#161 = VERTEX_POINT ( 'NONE', #107 ) ;
#162 = CARTESIAN_POINT ( 'NONE',  ( -0.4916338740000000262, 0.0000000000000000000, 6.020778501465132931E-17 ) ) ;
#163 = ORIENTED_EDGE ( 'NONE', *, *, #135, .F. ) ;
#164 =( GEOMETRIC_REPRESENTATION_CONTEXT ( 3 ) GLOBAL_UNCERTAINTY_ASSIGNED_CONTEXT ( ( #115 ) ) GLOBAL_UNIT_ASSIGNED_CONTEXT ( ( #102, #133, #101 ) ) REPRESENTATION_CONTEXT ( 'NONE', 'WORKASPACE' ) );
#165 = VERTEX_POINT ( 'NONE', #289 ) ;
#166 = CARTESIAN_POINT ( 'NONE',  ( 0.4921260000000000634, 6.026805306771904375E-17, 5.890512000000001969 ) ) ;
#167 = UNCERTAINTY_MEASURE_WITH_UNIT (LENGTH_MEASURE( 1.000000000000000082E-05 ), #175, 'distance_accuracy_value', 'NONE');
#168 = EDGE_CURVE ( 'NONE', #165, #279, #114, .T. ) ;
#169 = CARTESIAN_POINT ( 'NONE',  ( 7.373327120194471968E-33, 0.0000000000000000000, 6.020778501465132931E-17 ) ) ;
#170 = PLANE ( 'NONE',  #49 ) ;
#171 = CONICAL_SURFACE ( 'NONE', #31, 0.4916338740000000262, 0.1745329251994338082 ) ;
#172 = SURFACE_SIDE_STYLE ('',( #130 ) ) ;
#173 = DIRECTION ( 'NONE',  ( 1.224646799147353207E-16, 0.0000000000000000000, 1.000000000000000000 ) ) ;
#174 = DIRECTION ( 'NONE',  ( 1.000000000000000000, 0.0000000000000000000, 0.0000000000000000000 ) ) ;
#175 =( CONVERSION_BASED_UNIT ( 'INCH', #24 ) LENGTH_UNIT ( ) NAMED_UNIT ( #190 ) );
#176 = DIRECTION ( 'NONE',  ( -1.224646799147353207E-16, -0.0000000000000000000, -1.000000000000000000 ) ) ;
#177 = LINE ( 'NONE', #145, #287 ) ;
#178 = PRODUCT_CONTEXT ( 'NONE', #246, 'mechanical' ) ;
#179 = VECTOR ( 'NONE', #202, 39.37007874015748143 ) ;
#180 = DIRECTION ( 'NONE',  ( 0.0000000000000000000, 0.0000000000000000000, 1.000000000000000000 ) ) ;
#181 = AXIS2_PLACEMENT_3D ( 'NONE', #201, #82, #245 ) ;
#182 = CARTESIAN_POINT ( 'NONE',  ( 3.616083184063142379E-16, 0.0000000000000000000, 2.952755999999999936 ) ) ;
#183 = ORIENTED_EDGE ( 'NONE', *, *, #65, .T. ) ;
#184 = CARTESIAN_POINT ( 'NONE',  ( -0.4921260000000000634, 0.0000000000000000000, 5.905511999999999873 ) ) ;
#185 = ADVANCED_FACE ( 'NONE', ( #28 ), #252, .T. ) ;
#186 = ORIENTED_EDGE ( 'NONE', *, *, #53, .F. ) ;
#187 = VERTEX_POINT ( 'NONE', #59 ) ;
#188 = ORIENTED_EDGE ( 'NONE', *, *, #66, .F. ) ;
#189 = DIRECTION ( 'NONE',  ( 0.0000000000000000000, 0.0000000000000000000, -1.000000000000000000 ) ) ;
#190 = DIMENSIONAL_EXPONENTS ( 1.000000000000000000, 0.0000000000000000000, 0.0000000000000000000, 0.0000000000000000000, 0.0000000000000000000, 0.0000000000000000000, 0.0000000000000000000 ) ;
#191 = CARTESIAN_POINT ( 'NONE',  ( -0.4771260000000020485, 0.0000000000000000000, 5.905511999999999873 ) ) ;
#192 = AXIS2_PLACEMENT_3D ( 'NONE', #182, #143, #87 ) ;
#193 = DIRECTION ( 'NONE',  ( 0.0000000000000000000, 0.0000000000000000000, -1.000000000000000000 ) ) ;
#194 = CYLINDRICAL_SURFACE ( 'NONE', #17, 0.4921260000000000634 ) ;
#195 = DIRECTION ( 'NONE',  ( 1.000000000000000000, 0.0000000000000000000, 0.0000000000000000000 ) ) ;
#196 = EDGE_CURVE ( 'NONE', #67, #187, #11, .T. ) ;
#197 = DIRECTION ( 'NONE',  ( -1.000000000000000000, 0.0000000000000000000, 1.224646799147353454E-16 ) ) ;
#198 =( NAMED_UNIT ( * ) SI_UNIT ( $, .STERADIAN. ) SOLID_ANGLE_UNIT ( ) );
#199 = COLOUR_RGB ( '',0.7921568627450980005, 0.8196078431372548767, 0.9333333333333333481 ) ;
#200 = CARTESIAN_POINT ( 'NONE',  ( 0.0000000000000000000, 0.0000000000000000000, 5.890512000000001969 ) ) ;
#201 = CARTESIAN_POINT ( 'NONE',  ( 3.616083184063142379E-16, 0.0000000000000000000, 2.952755999999999936 ) ) ;
#202 = DIRECTION ( 'NONE',  ( 0.7071067811865330288, 8.659560562354755364E-17, -0.7071067811865620056 ) ) ;
#203 = PRODUCT_DEFINITION_CONTEXT ( 'detailed design', #263, 'design' ) ;
#204 = DIRECTION ( 'NONE',  ( -0.0000000000000000000, -0.0000000000000000000, -1.000000000000000000 ) ) ;
#205 = DIRECTION ( 'NONE',  ( 1.000000000000000000, 0.0000000000000000000, 0.0000000000000000000 ) ) ;
#206 = VECTOR ( 'NONE', #30, 39.37007874015748143 ) ;
#207 = EDGE_CURVE ( 'NONE', #40, #90, #89, .T. ) ;
#208 = ORIENTED_EDGE ( 'NONE', *, *, #66, .T. ) ;
#209 = ORIENTED_EDGE ( 'NONE', *, *, #65, .F. ) ;
#210 = ORIENTED_EDGE ( 'NONE', *, *, #146, .T. ) ;
#211 = AXIS2_PLACEMENT_3D ( 'NONE', #71, #193, #239 ) ;
#212 = ORIENTED_EDGE ( 'NONE', *, *, #207, .F. ) ;
#213 =( NAMED_UNIT ( * ) PLANE_ANGLE_UNIT ( ) SI_UNIT ( $, .RADIAN. ) );
#214 = DIRECTION ( 'NONE',  ( -1.224646799147353207E-16, -0.0000000000000000000, -1.000000000000000000 ) ) ;
#215 = FILL_AREA_STYLE_COLOUR ( '', #199 ) ;
#216 = CONICAL_SURFACE ( 'NONE', #181, 0.4916338740000000262, 0.1745329251994338082 ) ;
#217 = DIRECTION ( 'NONE',  ( 0.0000000000000000000, 0.0000000000000000000, -1.000000000000000000 ) ) ;
#218 = DIRECTION ( 'NONE',  ( -1.000000000000000000, 0.0000000000000000000, 1.224646799147353454E-16 ) ) ;
#219 = CARTESIAN_POINT ( 'NONE',  ( 0.4916338740000000262, 6.020778501465132931E-17, 0.0000000000000000000 ) ) ;
#220 = AXIS2_PLACEMENT_3D ( 'NONE', #297, #276, #61 ) ;
#221 = PRESENTATION_STYLE_ASSIGNMENT (( #131 ) ) ;
#222 = DIRECTION ( 'NONE',  ( 1.000000000000000000, 0.0000000000000000000, 0.0000000000000000000 ) ) ;
#223 = CARTESIAN_POINT ( 'NONE',  ( -0.4921259999999997303, 0.0000000000000000000, 2.955546985236761071 ) ) ;
#224 = FACE_OUTER_BOUND ( 'NONE', #260, .T. ) ;
#225 = ORIENTED_EDGE ( 'NONE', *, *, #286, .T. ) ;
#226 = CARTESIAN_POINT ( 'NONE',  ( 0.0000000000000000000, 0.0000000000000000000, 0.0000000000000000000 ) ) ;
#227 = EDGE_CURVE ( 'NONE', #258, #116, #292, .T. ) ;
#228 =( LENGTH_UNIT ( ) NAMED_UNIT ( * ) SI_UNIT ( $, .METRE. ) );
#229 = ORIENTED_EDGE ( 'NONE', *, *, #196, .F. ) ;
#230 = VECTOR ( 'NONE', #129, 39.37007874015747433 ) ;
#231 = ORIENTED_EDGE ( 'NONE', *, *, #63, .T. ) ;
#232 = EDGE_CURVE ( 'NONE', #90, #40, #127, .T. ) ;
#233 = ORIENTED_EDGE ( 'NONE', *, *, #75, .F. ) ;
#234 = DIRECTION ( 'NONE',  ( 0.0000000000000000000, 0.0000000000000000000, -1.000000000000000000 ) ) ;
#235 = EDGE_LOOP ( 'NONE', ( #97, #2, #139, #62 ) ) ;
#236 = CIRCLE ( 'NONE', #73, 0.4916338740000000262 ) ;
#237 = DIRECTION ( 'NONE',  ( 0.0000000000000000000, 0.0000000000000000000, 1.000000000000000000 ) ) ;
#238 = ADVANCED_FACE ( 'NONE', ( #1 ), #92, .T. ) ;
#239 = DIRECTION ( 'NONE',  ( -1.000000000000000000, 0.0000000000000000000, 0.0000000000000000000 ) ) ;
#240 = DIRECTION ( 'NONE',  ( -1.000000000000000000, 0.0000000000000000000, 0.0000000000000000000 ) ) ;
#241 =( NAMED_UNIT ( * ) SI_UNIT ( $, .STERADIAN. ) SOLID_ANGLE_UNIT ( ) );
#242 = PRESENTATION_LAYER_ASSIGNMENT (  '', '', ( #68 ) ) ;
#243 = CARTESIAN_POINT ( 'NONE',  ( 0.0000000000000000000, 0.0000000000000000000, 0.0000000000000000000 ) ) ;
#244 = EDGE_CURVE ( 'NONE', #279, #165, #277, .T. ) ;
#245 = DIRECTION ( 'NONE',  ( 1.000000000000000000, 0.0000000000000000000, 0.0000000000000000000 ) ) ;
#246 = APPLICATION_CONTEXT ( 'automotive_design' ) ;
#247 = AXIS2_PLACEMENT_3D ( 'NONE', #152, #217, #240 ) ;
#248 = FACE_OUTER_BOUND ( 'NONE', #282, .T. ) ;
#249 = PRODUCT_RELATED_PRODUCT_CATEGORY ( 'part', '', ( #52 ) ) ;
#250 = FACE_OUTER_BOUND ( 'NONE', #235, .T. ) ;
#251 = SHAPE_DEFINITION_REPRESENTATION ( #294, #56 ) ;
#252 = CONICAL_SURFACE ( 'NONE', #247, 0.4771260000000020485, 0.7853981633974278509 ) ;
#253 = CIRCLE ( 'NONE', #23, 0.4771260000000020485 ) ;
#254 = ORIENTED_EDGE ( 'NONE', *, *, #227, .T. ) ;
#255 = EDGE_LOOP ( 'NONE', ( #147, #19, #91, #280 ) ) ;
#256 = EDGE_LOOP ( 'NONE', ( #186, #225, #212, #188 ) ) ;
#257 = AXIS2_PLACEMENT_3D ( 'NONE', #169, #176, #284 ) ;
#258 = VERTEX_POINT ( 'NONE', #105 ) ;
#259 = ADVANCED_FACE ( 'NONE', ( #224 ), #216, .T. ) ;
#260 = EDGE_LOOP ( 'NONE', ( #141, #22, #148, #36 ) ) ;
#261 = CARTESIAN_POINT ( 'NONE',  ( 3.616083184063142379E-16, 0.0000000000000000000, 2.952755999999999936 ) ) ;
#262 = FILL_AREA_STYLE ('',( #104 ) ) ;
#263 = APPLICATION_CONTEXT ( 'automotive_design' ) ;
#264 = DIRECTION ( 'NONE',  ( -1.224646799147353207E-16, -0.0000000000000000000, -1.000000000000000000 ) ) ;
#265 = DIRECTION ( 'NONE',  ( 1.000000000000000000, 0.0000000000000000000, 0.0000000000000000000 ) ) ;
#266 = FACE_OUTER_BOUND ( 'NONE', #256, .T. ) ;
#267 = EDGE_CURVE ( 'NONE', #90, #165, #54, .T. ) ;
#268 = FACE_OUTER_BOUND ( 'NONE', #117, .T. ) ;
#269 = DIRECTION ( 'NONE',  ( -1.224646799147353207E-16, -0.0000000000000000000, -1.000000000000000000 ) ) ;
#270 = CARTESIAN_POINT ( 'NONE',  ( 3.619501155199809429E-16, 0.0000000000000000000, 2.955546985236761071 ) ) ;
#271 = FILL_AREA_STYLE ('',( #215 ) ) ;
#272 = VECTOR ( 'NONE', #264, 39.37007874015748143 ) ;
#273 = CARTESIAN_POINT ( 'NONE',  ( 0.4921260000000000634, 6.026805306771904375E-17, 5.905511999999999873 ) ) ;
#274 = ADVANCED_FACE ( 'NONE', ( #132 ), #110, .T. ) ;
#275 = DIRECTION ( 'NONE',  ( 1.000000000000000000, 0.0000000000000000000, 0.0000000000000000000 ) ) ;
#276 = DIRECTION ( 'NONE',  ( -0.0000000000000000000, -0.0000000000000000000, -1.000000000000000000 ) ) ;
#277 = CIRCLE ( 'NONE', #15, 0.4921260000000000634 ) ;
#278 = EDGE_LOOP ( 'NONE', ( #299, #183 ) ) ;
#279 = VERTEX_POINT ( 'NONE', #223 ) ;
#280 = ORIENTED_EDGE ( 'NONE', *, *, #150, .F. ) ;
#281 = STYLED_ITEM ( 'NONE', ( #46 ), #58 ) ;
#282 = EDGE_LOOP ( 'NONE', ( #95, #231, #151, #163 ) ) ;
#283 = DIRECTION ( 'NONE',  ( -1.224646799147353207E-16, -0.0000000000000000000, -1.000000000000000000 ) ) ;
#284 = DIRECTION ( 'NONE',  ( -1.000000000000000000, 0.0000000000000000000, 1.224646799147353454E-16 ) ) ;
#285 = CARTESIAN_POINT ( 'NONE',  ( 3.619501155199809429E-16, 0.0000000000000000000, 2.955546985236761071 ) ) ;
#286 = EDGE_CURVE ( 'NONE', #187, #90, #32, .T. ) ;
#287 = VECTOR ( 'NONE', #159, 39.37007874015748143 ) ;
#288 = LINE ( 'NONE', #74, #272 ) ;
#289 = CARTESIAN_POINT ( 'NONE',  ( 0.4921260000000003965, 6.026805306771908073E-17, 2.955546985236761071 ) ) ;
#290 = SURFACE_STYLE_USAGE ( .BOTH. , #172 ) ;
#291 = FACE_OUTER_BOUND ( 'NONE', #45, .T. ) ;
#292 = CIRCLE ( 'NONE', #192, 0.4916338740000000262 ) ;
#293 = PRODUCT_DEFINITION_FORMATION_WITH_SPECIFIED_SOURCE ( 'ANY', '', #52, .NOT_KNOWN. ) ;
#294 = PRODUCT_DEFINITION_SHAPE ( 'NONE', 'NONE',  #60 ) ;
#295 =( NAMED_UNIT ( * ) PLANE_ANGLE_UNIT ( ) SI_UNIT ( $, .RADIAN. ) );
#296 = ORIENTED_EDGE ( 'NONE', *, *, #196, .T. ) ;
#297 = CARTESIAN_POINT ( 'NONE',  ( 0.0000000000000000000, 0.0000000000000000000, 5.905511999999999873 ) ) ;
#298 = CIRCLE ( 'NONE', #257, 0.4916338740000000262 ) ;
#299 = ORIENTED_EDGE ( 'NONE', *, *, #47, .T. ) ;
ENDSEC;
END-ISO-10303-21;
