ISO-10303-21;
HEADER;
FILE_DESCRIPTION (( 'STEP AP214' ),
    '1' );
FILE_NAME ('Micro_SEM-250-03.STEP',
    '2021-09-02T02:31:40',
    ( '' ),
    ( '' ),
    'SwSTEP 2.0',
    'SolidWorks 2020',
    '' );
FILE_SCHEMA (( 'AUTOMOTIVE_DESIGN' ));
ENDSEC;

DATA;
#1 = ADVANCED_FACE ( 'NONE', ( #200 ), #297, .T. ) ;
#2 = AXIS2_PLACEMENT_3D ( 'NONE', #40, #92, #184 ) ;
#3 = DIRECTION ( 'NONE',  ( -1.000000000000000000, 0.0000000000000000000, 0.0000000000000000000 ) ) ;
#4 = AXIS2_PLACEMENT_3D ( 'NONE', #179, #31, #126 ) ;
#5 = CARTESIAN_POINT ( 'NONE',  ( -0.1248749999999999444, 1.530043094684724646E-17, 0.5000000000000000000 ) ) ;
#6 =( NAMED_UNIT ( * ) SI_UNIT ( $, .STERADIAN. ) SOLID_ANGLE_UNIT ( ) );
#7 = CARTESIAN_POINT ( 'NONE',  ( 6.123233995736766036E-17, 0.0000000000000000000, 0.5000000000000000000 ) ) ;
#8 = FACE_OUTER_BOUND ( 'NONE', #299, .T. ) ;
#9 = EDGE_CURVE ( 'NONE', #183, #140, #128, .T. ) ;
#10 = CARTESIAN_POINT ( 'NONE',  ( 0.1248749999999999999, 1.529277690435257475E-17, 0.0000000000000000000 ) ) ;
#11 = DIRECTION ( 'NONE',  ( 1.000000000000000000, 0.0000000000000000000, 0.0000000000000000000 ) ) ;
#12 = SHAPE_DEFINITION_REPRESENTATION ( #292, #112 ) ;
#13 = DIRECTION ( 'NONE',  ( -1.000000000000000000, 0.0000000000000000000, 1.224646799147353454E-16 ) ) ;
#14 = ORIENTED_EDGE ( 'NONE', *, *, #289, .F. ) ;
#15 = ORIENTED_EDGE ( 'NONE', *, *, #23, .T. ) ;
#16 = COLOUR_RGB ( '',0.7921568627450980005, 0.8196078431372548767, 0.9333333333333333481 ) ;
#17 = PRODUCT ( 'Micro_SEM-250-03', 'Micro_SEM-250-03', '', ( #68 ) ) ;
#18 = CARTESIAN_POINT ( 'NONE',  ( 0.0000000000000000000, 0.0000000000000000000, 2.000000000000000000 ) ) ;
#19 = CYLINDRICAL_SURFACE ( 'NONE', #191, 0.1248749999999999999 ) ;
#20 = DIRECTION ( 'NONE',  ( -1.224646799147353207E-16, -0.0000000000000000000, -1.000000000000000000 ) ) ;
#21 = CIRCLE ( 'NONE', #134, 0.1250000000000000000 ) ;
#22 = CARTESIAN_POINT ( 'NONE',  ( 0.0000000000000000000, 0.0000000000000000000, 2.000000000000000000 ) ) ;
#23 = EDGE_CURVE ( 'NONE', #99, #140, #49, .T. ) ;
#24 = CARTESIAN_POINT ( 'NONE',  ( -0.1250000000000000000, 0.0000000000000000000, 2.000000000000000000 ) ) ;
#25 = DIRECTION ( 'NONE',  ( -1.224646799147353207E-16, -0.0000000000000000000, -1.000000000000000000 ) ) ;
#26 = COLOUR_RGB ( '',0.7921568627450980005, 0.8196078431372548767, 0.9333333333333333481 ) ;
#27 = CARTESIAN_POINT ( 'NONE',  ( 0.1099999999999996397, 1.438959988998137757E-17, 2.000000000000000000 ) ) ;
#28 = CIRCLE ( 'NONE', #192, 0.1248749999999999999 ) ;
#29 = AXIS2_PLACEMENT_3D ( 'NONE', #178, #158, #255 ) ;
#30 = ORIENTED_EDGE ( 'NONE', *, *, #9, .F. ) ;
#31 = DIRECTION ( 'NONE',  ( 0.0000000000000000000, 0.0000000000000000000, 1.000000000000000000 ) ) ;
#32 = ORIENTED_EDGE ( 'NONE', *, *, #97, .T. ) ;
#33 = FACE_OUTER_BOUND ( 'NONE', #76, .T. ) ;
#34 = ORIENTED_EDGE ( 'NONE', *, *, #196, .F. ) ;
#35 = CARTESIAN_POINT ( 'NONE',  ( 6.123233995736766036E-17, 0.0000000000000000000, 0.5000000000000000000 ) ) ;
#36 = EDGE_CURVE ( 'NONE', #293, #99, #205, .T. ) ;
#37 = LINE ( 'NONE', #234, #119 ) ;
#38 = CIRCLE ( 'NONE', #75, 0.1248749999999999999 ) ;
#39 = VERTEX_POINT ( 'NONE', #130 ) ;
#40 = CARTESIAN_POINT ( 'NONE',  ( 0.0000000000000000000, 0.0000000000000000000, 0.0000000000000000000 ) ) ;
#41 = CARTESIAN_POINT ( 'NONE',  ( 0.0000000000000000000, 0.0000000000000000000, 0.0000000000000000000 ) ) ;
#42 = ADVANCED_FACE ( 'NONE', ( #33 ), #155, .F. ) ;
#43 = FILL_AREA_STYLE_COLOUR ( '', #16 ) ;
#44 = DIRECTION ( 'NONE',  ( -1.224646799147353207E-16, -0.0000000000000000000, -1.000000000000000000 ) ) ;
#45 = VECTOR ( 'NONE', #231, 39.37007874015748143 ) ;
#46 = UNCERTAINTY_MEASURE_WITH_UNIT (LENGTH_MEASURE( 1.000000000000000082E-05 ), #242, 'distance_accuracy_value', 'NONE');
#47 = FILL_AREA_STYLE_COLOUR ( '', #26 ) ;
#48 = LENGTH_MEASURE_WITH_UNIT ( LENGTH_MEASURE( 0.02539999999999999897 ), #216 );
#49 = CIRCLE ( 'NONE', #145, 0.1250000000000000000 ) ;
#50 = EDGE_CURVE ( 'NONE', #101, #89, #151, .T. ) ;
#51 = AXIS2_PLACEMENT_3D ( 'NONE', #252, #85, #157 ) ;
#52 = VECTOR ( 'NONE', #176, 39.37007874015748143 ) ;
#53 = EDGE_LOOP ( 'NONE', ( #55, #269, #227, #171 ) ) ;
#54 = ORIENTED_EDGE ( 'NONE', *, *, #138, .F. ) ;
#55 = ORIENTED_EDGE ( 'NONE', *, *, #196, .T. ) ;
#56 = DIRECTION ( 'NONE',  ( 0.0000000000000000000, 0.0000000000000000000, -1.000000000000000000 ) ) ;
#57 = CARTESIAN_POINT ( 'NONE',  ( -0.1248749999999999999, 0.0000000000000000000, 1.529277690435257475E-17 ) ) ;
#58 = EDGE_LOOP ( 'NONE', ( #34, #168, #224, #259 ) ) ;
#59 = FACE_OUTER_BOUND ( 'NONE', #237, .T. ) ;
#60 = DIRECTION ( 'NONE',  ( -1.000000000000000000, 0.0000000000000000000, 0.0000000000000000000 ) ) ;
#61 = CARTESIAN_POINT ( 'NONE',  ( 0.1248750000000000693, 0.0000000000000000000, 0.5000000000000000000 ) ) ;
#62 = MECHANICAL_DESIGN_GEOMETRIC_PRESENTATION_REPRESENTATION (  '', ( #199 ), #87 ) ;
#63 =( GEOMETRIC_REPRESENTATION_CONTEXT ( 3 ) GLOBAL_UNCERTAINTY_ASSIGNED_CONTEXT ( ( #46 ) ) GLOBAL_UNIT_ASSIGNED_CONTEXT ( ( #242, #286, #284 ) ) REPRESENTATION_CONTEXT ( 'NONE', 'WORKASPACE' ) );
#64 = SURFACE_STYLE_FILL_AREA ( #161 ) ;
#65 = AXIS2_PLACEMENT_3D ( 'NONE', #35, #20, #3 ) ;
#66 = APPLICATION_PROTOCOL_DEFINITION ( 'draft international standard', 'automotive_design', 1998, #70 ) ;
#67 =( GEOMETRIC_REPRESENTATION_CONTEXT ( 3 ) GLOBAL_UNCERTAINTY_ASSIGNED_CONTEXT ( ( #154 ) ) GLOBAL_UNIT_ASSIGNED_CONTEXT ( ( #180, #175, #6 ) ) REPRESENTATION_CONTEXT ( 'NONE', 'WORKASPACE' ) );
#68 = PRODUCT_CONTEXT ( 'NONE', #70, 'mechanical' ) ;
#69 = AXIS2_PLACEMENT_3D ( 'NONE', #41, #72, #118 ) ;
#70 = APPLICATION_CONTEXT ( 'automotive_design' ) ;
#71 = DIRECTION ( 'NONE',  ( -0.0000000000000000000, -0.0000000000000000000, -1.000000000000000000 ) ) ;
#72 = DIRECTION ( 'NONE',  ( -1.224646799147353207E-16, -0.0000000000000000000, -1.000000000000000000 ) ) ;
#73 = EDGE_CURVE ( 'NONE', #293, #183, #105, .T. ) ;
#74 = EDGE_CURVE ( 'NONE', #89, #201, #37, .T. ) ;
#75 = AXIS2_PLACEMENT_3D ( 'NONE', #114, #44, #141 ) ;
#76 = EDGE_LOOP ( 'NONE', ( #258, #113 ) ) ;
#77 = CONICAL_SURFACE ( 'NONE', #202, 0.1099999999999996397, 0.7853981633974426169 ) ;
#78 = DIRECTION ( 'NONE',  ( -0.0000000000000000000, -0.0000000000000000000, -1.000000000000000000 ) ) ;
#79 = LENGTH_MEASURE_WITH_UNIT ( LENGTH_MEASURE( 0.02539999999999999897 ), #291 );
#80 = CARTESIAN_POINT ( 'NONE',  ( 0.1250000000000000000, 1.530808498934191509E-17, 2.000000000000000000 ) ) ;
#81 = DIRECTION ( 'NONE',  ( 1.000000000000000000, 0.0000000000000000000, 0.0000000000000000000 ) ) ;
#82 = PLANE ( 'NONE',  #4 ) ;
#83 = EDGE_LOOP ( 'NONE', ( #254, #214, #248, #30 ) ) ;
#84 = PRODUCT_DEFINITION_CONTEXT ( 'detailed design', #148, 'design' ) ;
#85 = DIRECTION ( 'NONE',  ( 0.0000000000000000000, 0.0000000000000000000, 1.000000000000000000 ) ) ;
#86 = DIRECTION ( 'NONE',  ( 1.000000000000000000, 0.0000000000000000000, 0.0000000000000000000 ) ) ;
#87 =( GEOMETRIC_REPRESENTATION_CONTEXT ( 3 ) GLOBAL_UNCERTAINTY_ASSIGNED_CONTEXT ( ( #88 ) ) GLOBAL_UNIT_ASSIGNED_CONTEXT ( ( #144, #285, #232 ) ) REPRESENTATION_CONTEXT ( 'NONE', 'WORKASPACE' ) );
#88 = UNCERTAINTY_MEASURE_WITH_UNIT (LENGTH_MEASURE( 1.000000000000000082E-05 ), #144, 'distance_accuracy_value', 'NONE');
#89 = VERTEX_POINT ( 'NONE', #5 ) ;
#90 = SURFACE_STYLE_USAGE ( .BOTH. , #212 ) ;
#91 = DIRECTION ( 'NONE',  ( -0.0000000000000000000, -0.0000000000000000000, -1.000000000000000000 ) ) ;
#92 = DIRECTION ( 'NONE',  ( 0.0000000000000000000, 0.0000000000000000000, 1.000000000000000000 ) ) ;
#93 = EDGE_CURVE ( 'NONE', #101, #39, #278, .T. ) ;
#94 = AXIS2_PLACEMENT_3D ( 'NONE', #7, #282, #215 ) ;
#95 = FILL_AREA_STYLE ('',( #47 ) ) ;
#96 = VECTOR ( 'NONE', #203, 39.37007874015748143 ) ;
#97 = EDGE_CURVE ( 'NONE', #140, #201, #241, .T. ) ;
#98 = DIRECTION ( 'NONE',  ( -1.000000000000000000, 0.0000000000000000000, 0.0000000000000000000 ) ) ;
#99 = VERTEX_POINT ( 'NONE', #211 ) ;
#100 = DIRECTION ( 'NONE',  ( -1.224646799147353207E-16, -0.0000000000000000000, -1.000000000000000000 ) ) ;
#101 = VERTEX_POINT ( 'NONE', #279 ) ;
#102 = PRESENTATION_LAYER_ASSIGNMENT (  '', '', ( #197 ) ) ;
#103 = EDGE_LOOP ( 'NONE', ( #149, #127, #133, #170 ) ) ;
#104 = LINE ( 'NONE', #80, #124 ) ;
#105 = CIRCLE ( 'NONE', #29, 0.1099999999999996397 ) ;
#106 = PRODUCT_DEFINITION ( 'UNKNOWN', '', #236, #84 ) ;
#107 = ORIENTED_EDGE ( 'NONE', *, *, #226, .F. ) ;
#108 = DIRECTION ( 'NONE',  ( -1.000000000000000000, 0.0000000000000000000, 1.224646799147353454E-16 ) ) ;
#109 = AXIS2_PLACEMENT_3D ( 'NONE', #265, #263, #11 ) ;
#110 = DIRECTION ( 'NONE',  ( -0.1736481776669312194, 2.126576849575783625E-17, 0.9848077530122080203 ) ) ;
#111 = FACE_OUTER_BOUND ( 'NONE', #195, .T. ) ;
#112 = ADVANCED_BREP_SHAPE_REPRESENTATION ( 'Micro_SEM-250-03', ( #235, #2 ), #67 ) ;
#113 = ORIENTED_EDGE ( 'NONE', *, *, #138, .T. ) ;
#114 = CARTESIAN_POINT ( 'NONE',  ( 6.123233995736766036E-17, 0.0000000000000000000, 0.5000000000000000000 ) ) ;
#115 = ADVANCED_FACE ( 'NONE', ( #111 ), #280, .T. ) ;
#116 = DIRECTION ( 'NONE',  ( 0.1736481776669314137, 0.0000000000000000000, 0.9848077530122077983 ) ) ;
#117 = DIRECTION ( 'NONE',  ( -1.224646799147353207E-16, -0.0000000000000000000, -1.000000000000000000 ) ) ;
#118 = DIRECTION ( 'NONE',  ( -1.000000000000000000, 0.0000000000000000000, 1.224646799147353454E-16 ) ) ;
#119 = VECTOR ( 'NONE', #110, 39.37007874015747433 ) ;
#120 = DIRECTION ( 'NONE',  ( 0.0000000000000000000, 0.0000000000000000000, 1.000000000000000000 ) ) ;
#121 = AXIS2_PLACEMENT_3D ( 'NONE', #243, #25, #238 ) ;
#122 = ORIENTED_EDGE ( 'NONE', *, *, #36, .F. ) ;
#123 = PRODUCT_RELATED_PRODUCT_CATEGORY ( 'part', '', ( #17 ) ) ;
#124 = VECTOR ( 'NONE', #177, 39.37007874015748143 ) ;
#125 = ORIENTED_EDGE ( 'NONE', *, *, #50, .T. ) ;
#126 = DIRECTION ( 'NONE',  ( 1.000000000000000000, 0.0000000000000000000, -0.0000000000000000000 ) ) ;
#127 = ORIENTED_EDGE ( 'NONE', *, *, #266, .T. ) ;
#128 = LINE ( 'NONE', #172, #45 ) ;
#129 = ORIENTED_EDGE ( 'NONE', *, *, #73, .T. ) ;
#130 = CARTESIAN_POINT ( 'NONE',  ( 0.1250000000000000555, 1.530808498934192125E-17, 0.5007089102274522308 ) ) ;
#131 = VERTEX_POINT ( 'NONE', #10 ) ;
#132 = DIRECTION ( 'NONE',  ( -1.000000000000000000, 0.0000000000000000000, 0.0000000000000000000 ) ) ;
#133 = ORIENTED_EDGE ( 'NONE', *, *, #198, .F. ) ;
#134 = AXIS2_PLACEMENT_3D ( 'NONE', #257, #135, #288 ) ;
#135 = DIRECTION ( 'NONE',  ( 0.0000000000000000000, 0.0000000000000000000, -1.000000000000000000 ) ) ;
#136 = AXIS2_PLACEMENT_3D ( 'NONE', #223, #100, #86 ) ;
#137 = CARTESIAN_POINT ( 'NONE',  ( -0.1249999999999999306, 0.0000000000000000000, 0.5007089102274522308 ) ) ;
#138 = EDGE_CURVE ( 'NONE', #131, #274, #268, .T. ) ;
#139 = APPLICATION_PROTOCOL_DEFINITION ( 'draft international standard', 'automotive_design', 1998, #148 ) ;
#140 = VERTEX_POINT ( 'NONE', #208 ) ;
#141 = DIRECTION ( 'NONE',  ( -1.000000000000000000, 0.0000000000000000000, 0.0000000000000000000 ) ) ;
#142 = SURFACE_STYLE_FILL_AREA ( #95 ) ;
#143 = EDGE_CURVE ( 'NONE', #140, #99, #21, .T. ) ;
#144 =( CONVERSION_BASED_UNIT ( 'INCH', #48 ) LENGTH_UNIT ( ) NAMED_UNIT ( #152 ) );
#145 = AXIS2_PLACEMENT_3D ( 'NONE', #173, #56, #81 ) ;
#146 = VECTOR ( 'NONE', #116, 39.37007874015748143 ) ;
#147 = ORIENTED_EDGE ( 'NONE', *, *, #266, .F. ) ;
#148 = APPLICATION_CONTEXT ( 'automotive_design' ) ;
#149 = ORIENTED_EDGE ( 'NONE', *, *, #143, .T. ) ;
#150 = DIMENSIONAL_EXPONENTS ( 1.000000000000000000, 0.0000000000000000000, 0.0000000000000000000, 0.0000000000000000000, 0.0000000000000000000, 0.0000000000000000000, 0.0000000000000000000 ) ;
#151 = CIRCLE ( 'NONE', #65, 0.1248749999999999999 ) ;
#152 = DIMENSIONAL_EXPONENTS ( 1.000000000000000000, 0.0000000000000000000, 0.0000000000000000000, 0.0000000000000000000, 0.0000000000000000000, 0.0000000000000000000, 0.0000000000000000000 ) ;
#153 = ADVANCED_FACE ( 'NONE', ( #181 ), #270, .T. ) ;
#154 = UNCERTAINTY_MEASURE_WITH_UNIT (LENGTH_MEASURE( 1.000000000000000082E-05 ), #180, 'distance_accuracy_value', 'NONE');
#155 = PLANE ( 'NONE',  #51 ) ;
#156 = CARTESIAN_POINT ( 'NONE',  ( 0.0000000000000000000, 0.0000000000000000000, 0.0000000000000000000 ) ) ;
#157 = DIRECTION ( 'NONE',  ( 1.000000000000000000, 0.0000000000000000000, -0.0000000000000000000 ) ) ;
#158 = DIRECTION ( 'NONE',  ( 0.0000000000000000000, 0.0000000000000000000, 1.000000000000000000 ) ) ;
#159 = CONICAL_SURFACE ( 'NONE', #109, 0.1248749999999999999, 0.1745329251994339192 ) ;
#160 = VECTOR ( 'NONE', #169, 39.37007874015748143 ) ;
#161 = FILL_AREA_STYLE ('',( #43 ) ) ;
#162 = EDGE_CURVE ( 'NONE', #274, #131, #28, .T. ) ;
#163 = CARTESIAN_POINT ( 'NONE',  ( -0.1099999999999996397, 0.0000000000000000000, 2.000000000000000000 ) ) ;
#164 = CLOSED_SHELL ( 'NONE', ( #204, #222, #153, #1, #210, #276, #189, #115, #245, #42 ) ) ;
#165 = VECTOR ( 'NONE', #71, 39.37007874015748143 ) ;
#166 = LENGTH_MEASURE_WITH_UNIT ( LENGTH_MEASURE( 0.02539999999999999897 ), #187 );
#167 = CYLINDRICAL_SURFACE ( 'NONE', #69, 0.1248749999999999999 ) ;
#168 = ORIENTED_EDGE ( 'NONE', *, *, #74, .T. ) ;
#169 = DIRECTION ( 'NONE',  ( -1.224646799147353207E-16, -0.0000000000000000000, -1.000000000000000000 ) ) ;
#170 = ORIENTED_EDGE ( 'NONE', *, *, #97, .F. ) ;
#171 = ORIENTED_EDGE ( 'NONE', *, *, #256, .F. ) ;
#172 = CARTESIAN_POINT ( 'NONE',  ( -0.1099999999999996397, 0.0000000000000000000, 2.000000000000000000 ) ) ;
#173 = CARTESIAN_POINT ( 'NONE',  ( 0.0000000000000000000, 0.0000000000000000000, 1.984999999999999432 ) ) ;
#174 = DIRECTION ( 'NONE',  ( -1.000000000000000000, 0.0000000000000000000, 1.224646799147353454E-16 ) ) ;
#175 =( NAMED_UNIT ( * ) PLANE_ANGLE_UNIT ( ) SI_UNIT ( $, .RADIAN. ) );
#176 = DIRECTION ( 'NONE',  ( 0.7071067811865434649, 8.659560562354883554E-17, -0.7071067811865515695 ) ) ;
#177 = DIRECTION ( 'NONE',  ( -0.0000000000000000000, -0.0000000000000000000, -1.000000000000000000 ) ) ;
#178 = CARTESIAN_POINT ( 'NONE',  ( 0.0000000000000000000, 0.0000000000000000000, 2.000000000000000000 ) ) ;
#179 = CARTESIAN_POINT ( 'NONE',  ( 0.0000000000000000000, 0.0000000000000000000, 2.000000000000000000 ) ) ;
#180 =( CONVERSION_BASED_UNIT ( 'INCH', #79 ) LENGTH_UNIT ( ) NAMED_UNIT ( #150 ) );
#181 = FACE_OUTER_BOUND ( 'NONE', #83, .T. ) ;
#182 = ORIENTED_EDGE ( 'NONE', *, *, #93, .T. ) ;
#183 = VERTEX_POINT ( 'NONE', #163 ) ;
#184 = DIRECTION ( 'NONE',  ( 1.000000000000000000, 0.0000000000000000000, 0.0000000000000000000 ) ) ;
#185 = EDGE_CURVE ( 'NONE', #183, #293, #207, .T. ) ;
#186 = ORIENTED_EDGE ( 'NONE', *, *, #23, .F. ) ;
#187 =( LENGTH_UNIT ( ) NAMED_UNIT ( * ) SI_UNIT ( $, .METRE. ) );
#188 = CARTESIAN_POINT ( 'NONE',  ( 0.1248749999999999999, 1.529277690435257475E-17, -1.529277690435257475E-17 ) ) ;
#189 = ADVANCED_FACE ( 'NONE', ( #8 ), #77, .T. ) ;
#190 = CYLINDRICAL_SURFACE ( 'NONE', #281, 0.1250000000000000000 ) ;
#191 = AXIS2_PLACEMENT_3D ( 'NONE', #156, #294, #174 ) ;
#192 = AXIS2_PLACEMENT_3D ( 'NONE', #267, #117, #13 ) ;
#193 = PRESENTATION_STYLE_ASSIGNMENT (( #261 ) ) ;
#194 = CARTESIAN_POINT ( 'NONE',  ( 0.0000000000000000000, 0.0000000000000000000, 2.000000000000000000 ) ) ;
#195 = EDGE_LOOP ( 'NONE', ( #233, #229, #182, #228 ) ) ;
#196 = EDGE_CURVE ( 'NONE', #89, #101, #38, .T. ) ;
#197 = STYLED_ITEM ( 'NONE', ( #260 ), #112 ) ;
#198 = EDGE_CURVE ( 'NONE', #201, #39, #250, .T. ) ;
#199 = STYLED_ITEM ( 'NONE', ( #193 ), #235 ) ;
#200 = FACE_OUTER_BOUND ( 'NONE', #103, .T. ) ;
#201 = VERTEX_POINT ( 'NONE', #137 ) ;
#202 = AXIS2_PLACEMENT_3D ( 'NONE', #262, #240, #98 ) ;
#203 = DIRECTION ( 'NONE',  ( -1.224646799147353207E-16, -0.0000000000000000000, -1.000000000000000000 ) ) ;
#204 = ADVANCED_FACE ( 'NONE', ( #290 ), #167, .T. ) ;
#205 = LINE ( 'NONE', #253, #52 ) ;
#206 = LINE ( 'NONE', #57, #96 ) ;
#207 = CIRCLE ( 'NONE', #230, 0.1099999999999996397 ) ;
#208 = CARTESIAN_POINT ( 'NONE',  ( -0.1250000000000000000, 0.0000000000000000000, 1.984999999999999432 ) ) ;
#209 = DIRECTION ( 'NONE',  ( 0.0000000000000000000, 0.0000000000000000000, -1.000000000000000000 ) ) ;
#210 = ADVANCED_FACE ( 'NONE', ( #217 ), #190, .T. ) ;
#211 = CARTESIAN_POINT ( 'NONE',  ( 0.1250000000000000000, 1.530808498934191509E-17, 1.984999999999999432 ) ) ;
#212 = SURFACE_SIDE_STYLE ('',( #64 ) ) ;
#213 = DIRECTION ( 'NONE',  ( 1.000000000000000000, 0.0000000000000000000, 0.0000000000000000000 ) ) ;
#214 = ORIENTED_EDGE ( 'NONE', *, *, #36, .T. ) ;
#215 = DIRECTION ( 'NONE',  ( 1.000000000000000000, 0.0000000000000000000, 0.0000000000000000000 ) ) ;
#216 =( LENGTH_UNIT ( ) NAMED_UNIT ( * ) SI_UNIT ( $, .METRE. ) );
#217 = FACE_OUTER_BOUND ( 'NONE', #264, .T. ) ;
#218 = DIRECTION ( 'NONE',  ( -1.000000000000000000, 0.0000000000000000000, 0.0000000000000000000 ) ) ;
#219 = AXIS2_PLACEMENT_3D ( 'NONE', #18, #78, #60 ) ;
#220 = FACE_OUTER_BOUND ( 'NONE', #58, .T. ) ;
#221 = DIMENSIONAL_EXPONENTS ( 1.000000000000000000, 0.0000000000000000000, 0.0000000000000000000, 0.0000000000000000000, 0.0000000000000000000, 0.0000000000000000000, 0.0000000000000000000 ) ;
#222 = ADVANCED_FACE ( 'NONE', ( #220 ), #159, .T. ) ;
#223 = CARTESIAN_POINT ( 'NONE',  ( 6.131915642146087268E-17, 0.0000000000000000000, 0.5007089102274522308 ) ) ;
#224 = ORIENTED_EDGE ( 'NONE', *, *, #198, .T. ) ;
#225 = ORIENTED_EDGE ( 'NONE', *, *, #185, .F. ) ;
#226 = EDGE_CURVE ( 'NONE', #101, #131, #287, .T. ) ;
#227 = ORIENTED_EDGE ( 'NONE', *, *, #162, .F. ) ;
#228 = ORIENTED_EDGE ( 'NONE', *, *, #289, .T. ) ;
#229 = ORIENTED_EDGE ( 'NONE', *, *, #50, .F. ) ;
#230 = AXIS2_PLACEMENT_3D ( 'NONE', #194, #120, #213 ) ;
#231 = DIRECTION ( 'NONE',  ( -0.7071067811865434649, 0.0000000000000000000, -0.7071067811865515695 ) ) ;
#232 =( NAMED_UNIT ( * ) SI_UNIT ( $, .STERADIAN. ) SOLID_ANGLE_UNIT ( ) );
#233 = ORIENTED_EDGE ( 'NONE', *, *, #74, .F. ) ;
#234 = CARTESIAN_POINT ( 'NONE',  ( -0.1248749999999999444, 1.529277690435257475E-17, 0.5000000000000000000 ) ) ;
#235 = MANIFOLD_SOLID_BREP ( 'Cut-Revolve1', #164 ) ;
#236 = PRODUCT_DEFINITION_FORMATION_WITH_SPECIFIED_SOURCE ( 'ANY', '', #17, .NOT_KNOWN. ) ;
#237 = EDGE_LOOP ( 'NONE', ( #295, #129 ) ) ;
#238 = DIRECTION ( 'NONE',  ( 1.000000000000000000, 0.0000000000000000000, 0.0000000000000000000 ) ) ;
#239 = EDGE_LOOP ( 'NONE', ( #107, #125, #247, #54 ) ) ;
#240 = DIRECTION ( 'NONE',  ( 0.0000000000000000000, 0.0000000000000000000, -1.000000000000000000 ) ) ;
#241 = LINE ( 'NONE', #24, #165 ) ;
#242 =( CONVERSION_BASED_UNIT ( 'INCH', #166 ) LENGTH_UNIT ( ) NAMED_UNIT ( #221 ) );
#243 = CARTESIAN_POINT ( 'NONE',  ( 6.131915642146087268E-17, 0.0000000000000000000, 0.5007089102274522308 ) ) ;
#244 = AXIS2_PLACEMENT_3D ( 'NONE', #249, #271, #108 ) ;
#245 = ADVANCED_FACE ( 'NONE', ( #298 ), #19, .T. ) ;
#246 = AXIS2_PLACEMENT_3D ( 'NONE', #277, #209, #132 ) ;
#247 = ORIENTED_EDGE ( 'NONE', *, *, #256, .T. ) ;
#248 = ORIENTED_EDGE ( 'NONE', *, *, #143, .F. ) ;
#249 = CARTESIAN_POINT ( 'NONE',  ( 1.872825028598994811E-33, 0.0000000000000000000, 1.529277690435257475E-17 ) ) ;
#250 = CIRCLE ( 'NONE', #121, 0.1250000000000000000 ) ;
#251 = ORIENTED_EDGE ( 'NONE', *, *, #9, .T. ) ;
#252 = CARTESIAN_POINT ( 'NONE',  ( 0.0000000000000000000, 0.0000000000000000000, 0.0000000000000000000 ) ) ;
#253 = CARTESIAN_POINT ( 'NONE',  ( 0.1099999999999996397, 1.347111479062084158E-17, 2.000000000000000000 ) ) ;
#254 = ORIENTED_EDGE ( 'NONE', *, *, #73, .F. ) ;
#255 = DIRECTION ( 'NONE',  ( 1.000000000000000000, 0.0000000000000000000, 0.0000000000000000000 ) ) ;
#256 = EDGE_CURVE ( 'NONE', #89, #274, #206, .T. ) ;
#257 = CARTESIAN_POINT ( 'NONE',  ( 0.0000000000000000000, 0.0000000000000000000, 1.984999999999999432 ) ) ;
#258 = ORIENTED_EDGE ( 'NONE', *, *, #162, .T. ) ;
#259 = ORIENTED_EDGE ( 'NONE', *, *, #93, .F. ) ;
#260 = PRESENTATION_STYLE_ASSIGNMENT (( #90 ) ) ;
#261 = SURFACE_STYLE_USAGE ( .BOTH. , #283 ) ;
#262 = CARTESIAN_POINT ( 'NONE',  ( 0.0000000000000000000, 0.0000000000000000000, 2.000000000000000000 ) ) ;
#263 = DIRECTION ( 'NONE',  ( 1.224646799147353207E-16, 0.0000000000000000000, 1.000000000000000000 ) ) ;
#264 = EDGE_LOOP ( 'NONE', ( #147, #15, #32, #14 ) ) ;
#265 = CARTESIAN_POINT ( 'NONE',  ( 6.123233995736766036E-17, 0.0000000000000000000, 0.5000000000000000000 ) ) ;
#266 = EDGE_CURVE ( 'NONE', #99, #39, #104, .T. ) ;
#267 = CARTESIAN_POINT ( 'NONE',  ( 1.872825028598994811E-33, 0.0000000000000000000, 1.529277690435257475E-17 ) ) ;
#268 = CIRCLE ( 'NONE', #244, 0.1248749999999999999 ) ;
#269 = ORIENTED_EDGE ( 'NONE', *, *, #226, .T. ) ;
#270 = CONICAL_SURFACE ( 'NONE', #246, 0.1099999999999996397, 0.7853981633974426169 ) ;
#271 = DIRECTION ( 'NONE',  ( -1.224646799147353207E-16, -0.0000000000000000000, -1.000000000000000000 ) ) ;
#272 = CIRCLE ( 'NONE', #136, 0.1250000000000000000 ) ;
#273 = CARTESIAN_POINT ( 'NONE',  ( -0.1248749999999999999, 0.0000000000000000000, 3.058555380870514950E-17 ) ) ;
#274 = VERTEX_POINT ( 'NONE', #273 ) ;
#275 = MECHANICAL_DESIGN_GEOMETRIC_PRESENTATION_REPRESENTATION (  '', ( #197 ), #63 ) ;
#276 = ADVANCED_FACE ( 'NONE', ( #59 ), #82, .T. ) ;
#277 = CARTESIAN_POINT ( 'NONE',  ( 0.0000000000000000000, 0.0000000000000000000, 2.000000000000000000 ) ) ;
#278 = LINE ( 'NONE', #61, #146 ) ;
#279 = CARTESIAN_POINT ( 'NONE',  ( 0.1248750000000000693, 0.0000000000000000000, 0.5000000000000000000 ) ) ;
#280 = CONICAL_SURFACE ( 'NONE', #94, 0.1248749999999999999, 0.1745329251994339192 ) ;
#281 = AXIS2_PLACEMENT_3D ( 'NONE', #22, #91, #218 ) ;
#282 = DIRECTION ( 'NONE',  ( 1.224646799147353207E-16, 0.0000000000000000000, 1.000000000000000000 ) ) ;
#283 = SURFACE_SIDE_STYLE ('',( #142 ) ) ;
#284 =( NAMED_UNIT ( * ) SI_UNIT ( $, .STERADIAN. ) SOLID_ANGLE_UNIT ( ) );
#285 =( NAMED_UNIT ( * ) PLANE_ANGLE_UNIT ( ) SI_UNIT ( $, .RADIAN. ) );
#286 =( NAMED_UNIT ( * ) PLANE_ANGLE_UNIT ( ) SI_UNIT ( $, .RADIAN. ) );
#287 = LINE ( 'NONE', #188, #160 ) ;
#288 = DIRECTION ( 'NONE',  ( 1.000000000000000000, 0.0000000000000000000, 0.0000000000000000000 ) ) ;
#289 = EDGE_CURVE ( 'NONE', #39, #201, #272, .T. ) ;
#290 = FACE_OUTER_BOUND ( 'NONE', #53, .T. ) ;
#291 =( LENGTH_UNIT ( ) NAMED_UNIT ( * ) SI_UNIT ( $, .METRE. ) );
#292 = PRODUCT_DEFINITION_SHAPE ( 'NONE', 'NONE',  #106 ) ;
#293 = VERTEX_POINT ( 'NONE', #27 ) ;
#294 = DIRECTION ( 'NONE',  ( -1.224646799147353207E-16, -0.0000000000000000000, -1.000000000000000000 ) ) ;
#295 = ORIENTED_EDGE ( 'NONE', *, *, #185, .T. ) ;
#296 = PRESENTATION_LAYER_ASSIGNMENT (  '', '', ( #199 ) ) ;
#297 = CYLINDRICAL_SURFACE ( 'NONE', #219, 0.1250000000000000000 ) ;
#298 = FACE_OUTER_BOUND ( 'NONE', #239, .T. ) ;
#299 = EDGE_LOOP ( 'NONE', ( #122, #225, #251, #186 ) ) ;
ENDSEC;
END-ISO-10303-21;
