ISO-10303-21;
HEADER;
FILE_DESCRIPTION (( 'STEP AP214' ),
    '1' );
FILE_NAME ('Micro_RMEM-006-2.STEP',
    '2021-09-01T23:39:10',
    ( '' ),
    ( '' ),
    'SwSTEP 2.0',
    'SolidWorks 2020',
    '' );
FILE_SCHEMA (( 'AUTOMOTIVE_DESIGN' ));
ENDSEC;

DATA;
#1 = ADVANCED_FACE ( 'NONE', ( #45 ), #228, .T. ) ;
#2 = DIRECTION ( 'NONE',  ( -1.000000000000000000, 0.0000000000000000000, 0.0000000000000000000 ) ) ;
#3 = FILL_AREA_STYLE ('',( #97 ) ) ;
#4 = FACE_OUTER_BOUND ( 'NONE', #263, .T. ) ;
#5 = PLANE ( 'NONE',  #293 ) ;
#6 = DIRECTION ( 'NONE',  ( -1.000000000000000000, 0.0000000000000000000, 1.224646799147353207E-16 ) ) ;
#7 = AXIS2_PLACEMENT_3D ( 'NONE', #47, #29, #105 ) ;
#8 = CARTESIAN_POINT ( 'NONE',  ( 0.0000000000000000000, 0.0000000000000000000, 0.0000000000000000000 ) ) ;
#9 = EDGE_CURVE ( 'NONE', #290, #85, #185, .T. ) ;
#10 = CARTESIAN_POINT ( 'NONE',  ( -0.04405499999999973326, 0.0000000000000000000, 1.496062999999999921 ) ) ;
#11 = DIRECTION ( 'NONE',  ( 1.224646799147353207E-16, 0.0000000000000000000, 1.000000000000000000 ) ) ;
#12 = ORIENTED_EDGE ( 'NONE', *, *, #15, .T. ) ;
#13 = DIRECTION ( 'NONE',  ( 0.0000000000000000000, 0.0000000000000000000, 1.000000000000000000 ) ) ;
#14 = DIRECTION ( 'NONE',  ( -0.0000000000000000000, -0.0000000000000000000, -1.000000000000000000 ) ) ;
#15 = EDGE_CURVE ( 'NONE', #89, #286, #141, .T. ) ;
#16 = ORIENTED_EDGE ( 'NONE', *, *, #296, .T. ) ;
#17 = COLOUR_RGB ( '',0.7921568627450980005, 0.8196078431372548767, 0.9333333333333333481 ) ;
#18 = DIRECTION ( 'NONE',  ( 1.000000000000000000, 0.0000000000000000000, 0.0000000000000000000 ) ) ;
#19 = VERTEX_POINT ( 'NONE', #233 ) ;
#20 = CARTESIAN_POINT ( 'NONE',  ( 0.0000000000000000000, 0.0000000000000000000, 0.0000000000000000000 ) ) ;
#21 = EDGE_LOOP ( 'NONE', ( #291, #12, #40, #56 ) ) ;
#22 =( NAMED_UNIT ( * ) SI_UNIT ( $, .STERADIAN. ) SOLID_ANGLE_UNIT ( ) );
#23 = VECTOR ( 'NONE', #260, 39.37007874015748143 ) ;
#24 = CIRCLE ( 'NONE', #110, 0.01179918900000000333 ) ;
#25 = STYLED_ITEM ( 'NONE', ( #272 ), #287 ) ;
#26 = UNCERTAINTY_MEASURE_WITH_UNIT (LENGTH_MEASURE( 1.000000000000000082E-05 ), #69, 'distance_accuracy_value', 'NONE');
#27 = CARTESIAN_POINT ( 'NONE',  ( 0.0000000000000000000, 0.0000000000000000000, 0.0000000000000000000 ) ) ;
#28 = LINE ( 'NONE', #175, #23 ) ;
#29 = DIRECTION ( 'NONE',  ( 0.0000000000000000000, 0.0000000000000000000, -1.000000000000000000 ) ) ;
#30 = LENGTH_MEASURE_WITH_UNIT ( LENGTH_MEASURE( 0.02539999999999999897 ), #194 );
#31 = AXIS2_PLACEMENT_3D ( 'NONE', #59, #33, #140 ) ;
#32 = LINE ( 'NONE', #128, #119 ) ;
#33 = DIRECTION ( 'NONE',  ( -0.0000000000000000000, -0.0000000000000000000, -1.000000000000000000 ) ) ;
#34 = VECTOR ( 'NONE', #218, 39.37007874015747433 ) ;
#35 = DIRECTION ( 'NONE',  ( -1.224646799147353207E-16, -0.0000000000000000000, -1.000000000000000000 ) ) ;
#36 = VERTEX_POINT ( 'NONE', #288 ) ;
#37 = ORIENTED_EDGE ( 'NONE', *, *, #134, .T. ) ;
#38 = ORIENTED_EDGE ( 'NONE', *, *, #211, .T. ) ;
#39 = ADVANCED_FACE ( 'NONE', ( #298 ), #268, .T. ) ;
#40 = ORIENTED_EDGE ( 'NONE', *, *, #282, .F. ) ;
#41 =( NAMED_UNIT ( * ) PLANE_ANGLE_UNIT ( ) SI_UNIT ( $, .RADIAN. ) );
#42 = AXIS2_PLACEMENT_3D ( 'NONE', #20, #35, #283 ) ;
#43 = DIRECTION ( 'NONE',  ( 1.000000000000000000, 0.0000000000000000000, 0.0000000000000000000 ) ) ;
#44 = CIRCLE ( 'NONE', #223, 0.05905500000000000332 ) ;
#45 = FACE_OUTER_BOUND ( 'NONE', #21, .T. ) ;
#46 = UNCERTAINTY_MEASURE_WITH_UNIT (LENGTH_MEASURE( 1.000000000000000082E-05 ), #219, 'distance_accuracy_value', 'NONE');
#47 = CARTESIAN_POINT ( 'NONE',  ( 0.0000000000000000000, 0.0000000000000000000, 1.481062999999999574 ) ) ;
#48 = EDGE_CURVE ( 'NONE', #154, #89, #24, .T. ) ;
#49 = PLANE ( 'NONE',  #65 ) ;
#50 = CARTESIAN_POINT ( 'NONE',  ( 4.149924135785646237E-17, 0.0000000000000000000, 0.3388670217955891406 ) ) ;
#51 = DIRECTION ( 'NONE',  ( -1.224646799147353207E-16, -0.0000000000000000000, -1.000000000000000000 ) ) ;
#52 = CARTESIAN_POINT ( 'NONE',  ( 0.0000000000000000000, 0.0000000000000000000, 1.496062999999999921 ) ) ;
#53 =( LENGTH_UNIT ( ) NAMED_UNIT ( * ) SI_UNIT ( $, .METRE. ) );
#54 = MECHANICAL_DESIGN_GEOMETRIC_PRESENTATION_REPRESENTATION (  '', ( #25 ), #187 ) ;
#55 = DIRECTION ( 'NONE',  ( -1.224646799147353207E-16, -0.0000000000000000000, -1.000000000000000000 ) ) ;
#56 = ORIENTED_EDGE ( 'NONE', *, *, #208, .F. ) ;
#57 = DIRECTION ( 'NONE',  ( -0.0000000000000000000, -0.0000000000000000000, -1.000000000000000000 ) ) ;
#58 = EDGE_LOOP ( 'NONE', ( #281, #146, #132, #202 ) ) ;
#59 = CARTESIAN_POINT ( 'NONE',  ( 0.0000000000000000000, 0.0000000000000000000, 1.496062999999999921 ) ) ;
#60 = EDGE_CURVE ( 'NONE', #286, #19, #153, .T. ) ;
#61 = FACE_OUTER_BOUND ( 'NONE', #226, .T. ) ;
#62 = ORIENTED_EDGE ( 'NONE', *, *, #60, .F. ) ;
#63 =( NAMED_UNIT ( * ) SI_UNIT ( $, .STERADIAN. ) SOLID_ANGLE_UNIT ( ) );
#64 = ORIENTED_EDGE ( 'NONE', *, *, #220, .T. ) ;
#65 = AXIS2_PLACEMENT_3D ( 'NONE', #8, #274, #249 ) ;
#66 = PRODUCT_DEFINITION_SHAPE ( 'NONE', 'NONE',  #186 ) ;
#67 = EDGE_LOOP ( 'NONE', ( #256, #205 ) ) ;
#68 = UNCERTAINTY_MEASURE_WITH_UNIT (LENGTH_MEASURE( 1.000000000000000082E-05 ), #270, 'distance_accuracy_value', 'NONE');
#69 =( CONVERSION_BASED_UNIT ( 'INCH', #184 ) LENGTH_UNIT ( ) NAMED_UNIT ( #227 ) );
#70 = ADVANCED_FACE ( 'NONE', ( #232 ), #49, .F. ) ;
#71 = VECTOR ( 'NONE', #51, 39.37007874015748143 ) ;
#72 = CARTESIAN_POINT ( 'NONE',  ( 0.0000000000000000000, 0.0000000000000000000, 0.0000000000000000000 ) ) ;
#73 = APPLICATION_CONTEXT ( 'automotive_design' ) ;
#74 = ADVANCED_BREP_SHAPE_REPRESENTATION ( 'Micro_RMEM-006-2', ( #287, #244 ), #116 ) ;
#75 = CONICAL_SURFACE ( 'NONE', #204, 0.04405499999999973326, 0.7853981633974491672 ) ;
#76 = AXIS2_PLACEMENT_3D ( 'NONE', #139, #148, #90 ) ;
#77 = ADVANCED_FACE ( 'NONE', ( #4 ), #96, .T. ) ;
#78 = APPLICATION_PROTOCOL_DEFINITION ( 'draft international standard', 'automotive_design', 1998, #73 ) ;
#79 = ORIENTED_EDGE ( 'NONE', *, *, #163, .F. ) ;
#80 = PRESENTATION_LAYER_ASSIGNMENT (  '', '', ( #25 ) ) ;
#81 =( NAMED_UNIT ( * ) SI_UNIT ( $, .STERADIAN. ) SOLID_ANGLE_UNIT ( ) );
#82 = CARTESIAN_POINT ( 'NONE',  ( 0.0000000000000000000, 0.0000000000000000000, 1.496062999999999921 ) ) ;
#83 = CARTESIAN_POINT ( 'NONE',  ( -0.04405499999999973326, 0.0000000000000000000, 1.496062999999999921 ) ) ;
#84 = CARTESIAN_POINT ( 'NONE',  ( 0.05905500000000004496, 7.232151672364700045E-18, 0.3388670217955891406 ) ) ;
#85 = VERTEX_POINT ( 'NONE', #83 ) ;
#86 = DIRECTION ( 'NONE',  ( 0.1736481776669313581, 0.0000000000000000000, 0.9848077530122077983 ) ) ;
#87 = ORIENTED_EDGE ( 'NONE', *, *, #208, .T. ) ;
#88 = DIRECTION ( 'NONE',  ( 0.0000000000000000000, 0.0000000000000000000, -1.000000000000000000 ) ) ;
#89 = VERTEX_POINT ( 'NONE', #168 ) ;
#90 = DIRECTION ( 'NONE',  ( -1.000000000000000000, 0.0000000000000000000, 0.0000000000000000000 ) ) ;
#91 = ORIENTED_EDGE ( 'NONE', *, *, #9, .F. ) ;
#92 = STYLED_ITEM ( 'NONE', ( #267 ), #74 ) ;
#93 = FILL_AREA_STYLE_COLOUR ( '', #179 ) ;
#94 = VECTOR ( 'NONE', #14, 39.37007874015748143 ) ;
#95 = PRODUCT_DEFINITION_FORMATION_WITH_SPECIFIED_SOURCE ( 'ANY', '', #117, .NOT_KNOWN. ) ;
#96 = CONICAL_SURFACE ( 'NONE', #214, 0.01179918900000000333, 0.1745329251994338637 ) ;
#97 = FILL_AREA_STYLE_COLOUR ( '', #17 ) ;
#98 = PRODUCT_RELATED_PRODUCT_CATEGORY ( 'part', '', ( #117 ) ) ;
#99 = DIRECTION ( 'NONE',  ( -1.000000000000000000, 0.0000000000000000000, 1.224646799147353207E-16 ) ) ;
#100 = DIRECTION ( 'NONE',  ( -1.224646799147353207E-16, -0.0000000000000000000, -1.000000000000000000 ) ) ;
#101 =( GEOMETRIC_REPRESENTATION_CONTEXT ( 3 ) GLOBAL_UNCERTAINTY_ASSIGNED_CONTEXT ( ( #26 ) ) GLOBAL_UNIT_ASSIGNED_CONTEXT ( ( #69, #41, #22 ) ) REPRESENTATION_CONTEXT ( 'NONE', 'WORKASPACE' ) );
#102 = FACE_OUTER_BOUND ( 'NONE', #258, .T. ) ;
#103 = CARTESIAN_POINT ( 'NONE',  ( 8.678582006837632658E-18, 0.0000000000000000000, 0.07086599999999999844 ) ) ;
#104 = CARTESIAN_POINT ( 'NONE',  ( 0.0000000000000000000, 0.0000000000000000000, 1.496062999999999921 ) ) ;
#105 = DIRECTION ( 'NONE',  ( 1.000000000000000000, 0.0000000000000000000, 0.0000000000000000000 ) ) ;
#106 = DIRECTION ( 'NONE',  ( 1.000000000000000000, 0.0000000000000000000, 0.0000000000000000000 ) ) ;
#107 = ADVANCED_FACE ( 'NONE', ( #253 ), #259, .T. ) ;
#108 = DIRECTION ( 'NONE',  ( -1.224646799147353207E-16, -0.0000000000000000000, -1.000000000000000000 ) ) ;
#109 = MECHANICAL_DESIGN_GEOMETRIC_PRESENTATION_REPRESENTATION (  '', ( #92 ), #101 ) ;
#110 = AXIS2_PLACEMENT_3D ( 'NONE', #217, #55, #2 ) ;
#111 = DIRECTION ( 'NONE',  ( 0.0000000000000000000, 0.0000000000000000000, 1.000000000000000000 ) ) ;
#112 = ORIENTED_EDGE ( 'NONE', *, *, #125, .T. ) ;
#113 = ADVANCED_FACE ( 'NONE', ( #197 ), #234, .T. ) ;
#114 = ORIENTED_EDGE ( 'NONE', *, *, #183, .F. ) ;
#115 = ORIENTED_EDGE ( 'NONE', *, *, #122, .T. ) ;
#116 =( GEOMETRIC_REPRESENTATION_CONTEXT ( 3 ) GLOBAL_UNCERTAINTY_ASSIGNED_CONTEXT ( ( #46 ) ) GLOBAL_UNIT_ASSIGNED_CONTEXT ( ( #219, #177, #63 ) ) REPRESENTATION_CONTEXT ( 'NONE', 'WORKASPACE' ) );
#117 = PRODUCT ( 'Micro_RMEM-006-2', 'Micro_RMEM-006-2', '', ( #245 ) ) ;
#118 = SURFACE_STYLE_USAGE ( .BOTH. , #182 ) ;
#119 = VECTOR ( 'NONE', #86, 39.37007874015748143 ) ;
#120 = DIRECTION ( 'NONE',  ( 1.000000000000000000, 0.0000000000000000000, 0.0000000000000000000 ) ) ;
#121 = CIRCLE ( 'NONE', #170, 0.01179918900000000333 ) ;
#122 = EDGE_CURVE ( 'NONE', #172, #36, #136, .T. ) ;
#123 = DIRECTION ( 'NONE',  ( 0.0000000000000000000, 0.0000000000000000000, -1.000000000000000000 ) ) ;
#124 = DIRECTION ( 'NONE',  ( -0.0000000000000000000, -0.0000000000000000000, -1.000000000000000000 ) ) ;
#125 = EDGE_CURVE ( 'NONE', #242, #176, #44, .T. ) ;
#126 = CARTESIAN_POINT ( 'NONE',  ( -0.01179918899999999465, 4.338567788251580372E-18, 0.07086599999999999844 ) ) ;
#127 = CIRCLE ( 'NONE', #138, 0.05905500000000000332 ) ;
#128 = CARTESIAN_POINT ( 'NONE',  ( 0.01179918900000001200, 0.0000000000000000000, 0.07086599999999999844 ) ) ;
#129 = AXIS2_PLACEMENT_3D ( 'NONE', #246, #11, #43 ) ;
#130 = ORIENTED_EDGE ( 'NONE', *, *, #122, .F. ) ;
#131 = ORIENTED_EDGE ( 'NONE', *, *, #210, .F. ) ;
#132 = ORIENTED_EDGE ( 'NONE', *, *, #125, .F. ) ;
#133 = ORIENTED_EDGE ( 'NONE', *, *, #9, .T. ) ;
#134 = EDGE_CURVE ( 'NONE', #154, #242, #142, .T. ) ;
#135 = ADVANCED_FACE ( 'NONE', ( #231 ), #75, .T. ) ;
#136 = CIRCLE ( 'NONE', #7, 0.05905500000000000332 ) ;
#137 = DIRECTION ( 'NONE',  ( -1.224646799147353207E-16, -0.0000000000000000000, -1.000000000000000000 ) ) ;
#138 = AXIS2_PLACEMENT_3D ( 'NONE', #289, #88, #199 ) ;
#139 = CARTESIAN_POINT ( 'NONE',  ( 8.678582006837632658E-18, 0.0000000000000000000, 0.07086599999999999844 ) ) ;
#140 = DIRECTION ( 'NONE',  ( -1.000000000000000000, 0.0000000000000000000, 0.0000000000000000000 ) ) ;
#141 = LINE ( 'NONE', #196, #71 ) ;
#142 = LINE ( 'NONE', #254, #34 ) ;
#143 = EDGE_CURVE ( 'NONE', #85, #36, #216, .T. ) ;
#144 = DIRECTION ( 'NONE',  ( 0.0000000000000000000, 0.0000000000000000000, 1.000000000000000000 ) ) ;
#145 = DIRECTION ( 'NONE',  ( 1.000000000000000000, 0.0000000000000000000, -0.0000000000000000000 ) ) ;
#146 = ORIENTED_EDGE ( 'NONE', *, *, #158, .T. ) ;
#147 = DIRECTION ( 'NONE',  ( -1.000000000000000000, 0.0000000000000000000, 0.0000000000000000000 ) ) ;
#148 = DIRECTION ( 'NONE',  ( -1.224646799147353207E-16, -0.0000000000000000000, -1.000000000000000000 ) ) ;
#149 = ADVANCED_FACE ( 'NONE', ( #102 ), #5, .T. ) ;
#150 = DIRECTION ( 'NONE',  ( -1.224646799147353207E-16, -0.0000000000000000000, -1.000000000000000000 ) ) ;
#151 = CIRCLE ( 'NONE', #189, 0.05905500000000000332 ) ;
#152 = PRESENTATION_LAYER_ASSIGNMENT (  '', '', ( #92 ) ) ;
#153 = CIRCLE ( 'NONE', #192, 0.01179918900000000333 ) ;
#154 = VERTEX_POINT ( 'NONE', #126 ) ;
#155 = FACE_OUTER_BOUND ( 'NONE', #200, .T. ) ;
#156 = SURFACE_STYLE_FILL_AREA ( #157 ) ;
#157 = FILL_AREA_STYLE ('',( #93 ) ) ;
#158 = EDGE_CURVE ( 'NONE', #172, #176, #285, .T. ) ;
#159 = AXIS2_PLACEMENT_3D ( 'NONE', #104, #144, #277 ) ;
#160 = CIRCLE ( 'NONE', #76, 0.01179918900000000333 ) ;
#161 = CARTESIAN_POINT ( 'NONE',  ( 1.769594913022618550E-34, 0.0000000000000000000, 1.444983904138466284E-18 ) ) ;
#162 = SHAPE_DEFINITION_REPRESENTATION ( #66, #74 ) ;
#163 = EDGE_CURVE ( 'NONE', #85, #290, #250, .T. ) ;
#164 = SURFACE_STYLE_FILL_AREA ( #3 ) ;
#165 = CONICAL_SURFACE ( 'NONE', #209, 0.04405499999999973326, 0.7853981633974491672 ) ;
#166 = DIRECTION ( 'NONE',  ( -1.224646799147353207E-16, -0.0000000000000000000, -1.000000000000000000 ) ) ;
#167 = DIRECTION ( 'NONE',  ( -1.000000000000000000, 0.0000000000000000000, 0.0000000000000000000 ) ) ;
#168 = CARTESIAN_POINT ( 'NONE',  ( 0.01179918900000001200, 0.0000000000000000000, 0.07086599999999999844 ) ) ;
#169 = DIRECTION ( 'NONE',  ( 1.000000000000000000, 0.0000000000000000000, 0.0000000000000000000 ) ) ;
#170 = AXIS2_PLACEMENT_3D ( 'NONE', #161, #137, #6 ) ;
#171 = CARTESIAN_POINT ( 'NONE',  ( 0.0000000000000000000, 0.0000000000000000000, 1.496062999999999921 ) ) ;
#172 = VERTEX_POINT ( 'NONE', #201 ) ;
#173 = ORIENTED_EDGE ( 'NONE', *, *, #220, .F. ) ;
#174 = EDGE_CURVE ( 'NONE', #36, #242, #284, .T. ) ;
#175 = CARTESIAN_POINT ( 'NONE',  ( 0.04405499999999973326, 5.395181473643630390E-18, 1.496062999999999921 ) ) ;
#176 = VERTEX_POINT ( 'NONE', #84 ) ;
#177 =( NAMED_UNIT ( * ) PLANE_ANGLE_UNIT ( ) SI_UNIT ( $, .RADIAN. ) );
#178 = ORIENTED_EDGE ( 'NONE', *, *, #163, .T. ) ;
#179 = COLOUR_RGB ( '',0.7921568627450980005, 0.8196078431372548767, 0.9333333333333333481 ) ;
#180 = EDGE_LOOP ( 'NONE', ( #221, #115, #261, #173 ) ) ;
#181 = VECTOR ( 'NONE', #198, 39.37007874015748143 ) ;
#182 = SURFACE_SIDE_STYLE ('',( #156 ) ) ;
#183 = EDGE_CURVE ( 'NONE', #36, #172, #127, .T. ) ;
#184 = LENGTH_MEASURE_WITH_UNIT ( LENGTH_MEASURE( 0.02539999999999999897 ), #206 );
#185 = CIRCLE ( 'NONE', #159, 0.04405499999999973326 ) ;
#186 = PRODUCT_DEFINITION ( 'UNKNOWN', '', #95, #229 ) ;
#187 =( GEOMETRIC_REPRESENTATION_CONTEXT ( 3 ) GLOBAL_UNCERTAINTY_ASSIGNED_CONTEXT ( ( #68 ) ) GLOBAL_UNIT_ASSIGNED_CONTEXT ( ( #270, #273, #81 ) ) REPRESENTATION_CONTEXT ( 'NONE', 'WORKASPACE' ) );
#188 = SURFACE_SIDE_STYLE ('',( #164 ) ) ;
#189 = AXIS2_PLACEMENT_3D ( 'NONE', #237, #150, #18 ) ;
#190 = DIRECTION ( 'NONE',  ( -1.000000000000000000, 0.0000000000000000000, 1.224646799147353207E-16 ) ) ;
#191 = ADVANCED_FACE ( 'NONE', ( #61 ), #165, .T. ) ;
#192 = AXIS2_PLACEMENT_3D ( 'NONE', #212, #166, #99 ) ;
#193 = CARTESIAN_POINT ( 'NONE',  ( 0.05905500000000000332, 7.232151672364695422E-18, 1.496062999999999921 ) ) ;
#194 =( LENGTH_UNIT ( ) NAMED_UNIT ( * ) SI_UNIT ( $, .METRE. ) );
#195 = DIRECTION ( 'NONE',  ( 1.224646799147353207E-16, 0.0000000000000000000, 1.000000000000000000 ) ) ;
#196 = CARTESIAN_POINT ( 'NONE',  ( 0.01179918900000000333, 1.444983904138466284E-18, -1.444983904138466284E-18 ) ) ;
#197 = FACE_OUTER_BOUND ( 'NONE', #180, .T. ) ;
#198 = DIRECTION ( 'NONE',  ( -0.7071067811865482389, 0.0000000000000000000, -0.7071067811865469066 ) ) ;
#199 = DIRECTION ( 'NONE',  ( 1.000000000000000000, 0.0000000000000000000, 0.0000000000000000000 ) ) ;
#200 = EDGE_LOOP ( 'NONE', ( #225, #266, #203, #64 ) ) ;
#201 = CARTESIAN_POINT ( 'NONE',  ( 0.05905500000000000332, 7.232151672364695422E-18, 1.481062999999999574 ) ) ;
#202 = ORIENTED_EDGE ( 'NONE', *, *, #174, .F. ) ;
#203 = ORIENTED_EDGE ( 'NONE', *, *, #210, .T. ) ;
#204 = AXIS2_PLACEMENT_3D ( 'NONE', #52, #123, #278 ) ;
#205 = ORIENTED_EDGE ( 'NONE', *, *, #60, .T. ) ;
#206 =( LENGTH_UNIT ( ) NAMED_UNIT ( * ) SI_UNIT ( $, .METRE. ) );
#207 = APPLICATION_CONTEXT ( 'automotive_design' ) ;
#208 = EDGE_CURVE ( 'NONE', #154, #19, #222, .T. ) ;
#209 = AXIS2_PLACEMENT_3D ( 'NONE', #171, #251, #147 ) ;
#210 = EDGE_CURVE ( 'NONE', #89, #176, #32, .T. ) ;
#211 = EDGE_CURVE ( 'NONE', #290, #172, #28, .T. ) ;
#212 = CARTESIAN_POINT ( 'NONE',  ( 1.769594913022618550E-34, 0.0000000000000000000, 1.444983904138466284E-18 ) ) ;
#213 = DIRECTION ( 'NONE',  ( -1.224646799147353207E-16, -0.0000000000000000000, -1.000000000000000000 ) ) ;
#214 = AXIS2_PLACEMENT_3D ( 'NONE', #103, #195, #279 ) ;
#215 = CONICAL_SURFACE ( 'NONE', #129, 0.01179918900000000333, 0.1745329251994338637 ) ;
#216 = LINE ( 'NONE', #10, #181 ) ;
#217 = CARTESIAN_POINT ( 'NONE',  ( 8.678582006837632658E-18, 0.0000000000000000000, 0.07086599999999999844 ) ) ;
#218 = DIRECTION ( 'NONE',  ( -0.1736481776669311639, 2.126576849575783008E-17, 0.9848077530122080203 ) ) ;
#219 =( CONVERSION_BASED_UNIT ( 'INCH', #265 ) LENGTH_UNIT ( ) NAMED_UNIT ( #292 ) );
#220 = EDGE_CURVE ( 'NONE', #176, #242, #151, .T. ) ;
#221 = ORIENTED_EDGE ( 'NONE', *, *, #158, .F. ) ;
#222 = LINE ( 'NONE', #230, #297 ) ;
#223 = AXIS2_PLACEMENT_3D ( 'NONE', #50, #213, #169 ) ;
#224 = EDGE_LOOP ( 'NONE', ( #294, #16, #87, #62 ) ) ;
#225 = ORIENTED_EDGE ( 'NONE', *, *, #134, .F. ) ;
#226 = EDGE_LOOP ( 'NONE', ( #239, #79, #235, #130 ) ) ;
#227 = DIMENSIONAL_EXPONENTS ( 1.000000000000000000, 0.0000000000000000000, 0.0000000000000000000, 0.0000000000000000000, 0.0000000000000000000, 0.0000000000000000000, 0.0000000000000000000 ) ;
#228 = CYLINDRICAL_SURFACE ( 'NONE', #276, 0.01179918900000000333 ) ;
#229 = PRODUCT_DEFINITION_CONTEXT ( 'detailed design', #207, 'design' ) ;
#230 = CARTESIAN_POINT ( 'NONE',  ( -0.01179918900000000333, 0.0000000000000000000, 1.444983904138466284E-18 ) ) ;
#231 = FACE_OUTER_BOUND ( 'NONE', #238, .T. ) ;
#232 = FACE_OUTER_BOUND ( 'NONE', #67, .T. ) ;
#233 = CARTESIAN_POINT ( 'NONE',  ( -0.01179918900000000333, 0.0000000000000000000, 2.889967808276932569E-18 ) ) ;
#234 = CYLINDRICAL_SURFACE ( 'NONE', #264, 0.05905500000000000332 ) ;
#235 = ORIENTED_EDGE ( 'NONE', *, *, #143, .T. ) ;
#236 = CARTESIAN_POINT ( 'NONE',  ( 0.0000000000000000000, 0.0000000000000000000, 1.496062999999999921 ) ) ;
#237 = CARTESIAN_POINT ( 'NONE',  ( 4.149924135785646237E-17, 0.0000000000000000000, 0.3388670217955891406 ) ) ;
#238 = EDGE_LOOP ( 'NONE', ( #91, #38, #114, #241 ) ) ;
#239 = ORIENTED_EDGE ( 'NONE', *, *, #211, .F. ) ;
#240 = CLOSED_SHELL ( 'NONE', ( #1, #77, #135, #107, #113, #149, #191, #247, #39, #70 ) ) ;
#241 = ORIENTED_EDGE ( 'NONE', *, *, #143, .F. ) ;
#242 = VERTEX_POINT ( 'NONE', #299 ) ;
#243 = DIRECTION ( 'NONE',  ( 0.0000000000000000000, 0.0000000000000000000, 1.000000000000000000 ) ) ;
#244 = AXIS2_PLACEMENT_3D ( 'NONE', #72, #243, #120 ) ;
#245 = PRODUCT_CONTEXT ( 'NONE', #73, 'mechanical' ) ;
#246 = CARTESIAN_POINT ( 'NONE',  ( 8.678582006837632658E-18, 0.0000000000000000000, 0.07086599999999999844 ) ) ;
#247 = ADVANCED_FACE ( 'NONE', ( #155 ), #215, .T. ) ;
#248 = VECTOR ( 'NONE', #57, 39.37007874015748143 ) ;
#249 = DIRECTION ( 'NONE',  ( 1.000000000000000000, 0.0000000000000000000, -0.0000000000000000000 ) ) ;
#250 = CIRCLE ( 'NONE', #269, 0.04405499999999973326 ) ;
#251 = DIRECTION ( 'NONE',  ( 0.0000000000000000000, 0.0000000000000000000, -1.000000000000000000 ) ) ;
#252 = CARTESIAN_POINT ( 'NONE',  ( 0.01179918900000000333, 1.444983904138466284E-18, 0.0000000000000000000 ) ) ;
#253 = FACE_OUTER_BOUND ( 'NONE', #58, .T. ) ;
#254 = CARTESIAN_POINT ( 'NONE',  ( -0.01179918899999999465, 1.444983904138466284E-18, 0.07086599999999999844 ) ) ;
#255 = CARTESIAN_POINT ( 'NONE',  ( -0.05905500000000000332, 0.0000000000000000000, 1.496062999999999921 ) ) ;
#256 = ORIENTED_EDGE ( 'NONE', *, *, #282, .T. ) ;
#257 = CARTESIAN_POINT ( 'NONE',  ( 0.04405499999999973326, 6.313666573004162521E-18, 1.496062999999999921 ) ) ;
#258 = EDGE_LOOP ( 'NONE', ( #178, #133 ) ) ;
#259 = CYLINDRICAL_SURFACE ( 'NONE', #31, 0.05905500000000000332 ) ;
#260 = DIRECTION ( 'NONE',  ( 0.7071067811865482389, 8.659560562354941486E-17, -0.7071067811865469066 ) ) ;
#261 = ORIENTED_EDGE ( 'NONE', *, *, #174, .T. ) ;
#262 = ORIENTED_EDGE ( 'NONE', *, *, #48, .F. ) ;
#263 = EDGE_LOOP ( 'NONE', ( #262, #37, #112, #131 ) ) ;
#264 = AXIS2_PLACEMENT_3D ( 'NONE', #280, #124, #167 ) ;
#265 = LENGTH_MEASURE_WITH_UNIT ( LENGTH_MEASURE( 0.02539999999999999897 ), #53 );
#266 = ORIENTED_EDGE ( 'NONE', *, *, #296, .F. ) ;
#267 = PRESENTATION_STYLE_ASSIGNMENT (( #118 ) ) ;
#268 = CYLINDRICAL_SURFACE ( 'NONE', #42, 0.01179918900000000333 ) ;
#269 = AXIS2_PLACEMENT_3D ( 'NONE', #82, #13, #106 ) ;
#270 =( CONVERSION_BASED_UNIT ( 'INCH', #30 ) LENGTH_UNIT ( ) NAMED_UNIT ( #295 ) );
#271 = APPLICATION_PROTOCOL_DEFINITION ( 'draft international standard', 'automotive_design', 1998, #207 ) ;
#272 = PRESENTATION_STYLE_ASSIGNMENT (( #275 ) ) ;
#273 =( NAMED_UNIT ( * ) PLANE_ANGLE_UNIT ( ) SI_UNIT ( $, .RADIAN. ) );
#274 = DIRECTION ( 'NONE',  ( 0.0000000000000000000, 0.0000000000000000000, 1.000000000000000000 ) ) ;
#275 = SURFACE_STYLE_USAGE ( .BOTH. , #188 ) ;
#276 = AXIS2_PLACEMENT_3D ( 'NONE', #27, #100, #190 ) ;
#277 = DIRECTION ( 'NONE',  ( 1.000000000000000000, 0.0000000000000000000, 0.0000000000000000000 ) ) ;
#278 = DIRECTION ( 'NONE',  ( -1.000000000000000000, 0.0000000000000000000, 0.0000000000000000000 ) ) ;
#279 = DIRECTION ( 'NONE',  ( 1.000000000000000000, 0.0000000000000000000, 0.0000000000000000000 ) ) ;
#280 = CARTESIAN_POINT ( 'NONE',  ( 0.0000000000000000000, 0.0000000000000000000, 1.496062999999999921 ) ) ;
#281 = ORIENTED_EDGE ( 'NONE', *, *, #183, .T. ) ;
#282 = EDGE_CURVE ( 'NONE', #19, #286, #121, .T. ) ;
#283 = DIRECTION ( 'NONE',  ( -1.000000000000000000, 0.0000000000000000000, 1.224646799147353207E-16 ) ) ;
#284 = LINE ( 'NONE', #255, #248 ) ;
#285 = LINE ( 'NONE', #193, #94 ) ;
#286 = VERTEX_POINT ( 'NONE', #252 ) ;
#287 = MANIFOLD_SOLID_BREP ( 'Cut-Revolve1', #240 ) ;
#288 = CARTESIAN_POINT ( 'NONE',  ( -0.05905500000000000332, 0.0000000000000000000, 1.481062999999999574 ) ) ;
#289 = CARTESIAN_POINT ( 'NONE',  ( 0.0000000000000000000, 0.0000000000000000000, 1.481062999999999574 ) ) ;
#290 = VERTEX_POINT ( 'NONE', #257 ) ;
#291 = ORIENTED_EDGE ( 'NONE', *, *, #48, .T. ) ;
#292 = DIMENSIONAL_EXPONENTS ( 1.000000000000000000, 0.0000000000000000000, 0.0000000000000000000, 0.0000000000000000000, 0.0000000000000000000, 0.0000000000000000000, 0.0000000000000000000 ) ;
#293 = AXIS2_PLACEMENT_3D ( 'NONE', #236, #111, #145 ) ;
#294 = ORIENTED_EDGE ( 'NONE', *, *, #15, .F. ) ;
#295 = DIMENSIONAL_EXPONENTS ( 1.000000000000000000, 0.0000000000000000000, 0.0000000000000000000, 0.0000000000000000000, 0.0000000000000000000, 0.0000000000000000000, 0.0000000000000000000 ) ;
#296 = EDGE_CURVE ( 'NONE', #89, #154, #160, .T. ) ;
#297 = VECTOR ( 'NONE', #108, 39.37007874015748143 ) ;
#298 = FACE_OUTER_BOUND ( 'NONE', #224, .T. ) ;
#299 = CARTESIAN_POINT ( 'NONE',  ( -0.05905499999999996169, 0.0000000000000000000, 0.3388670217955891406 ) ) ;
ENDSEC;
END-ISO-10303-21;
