ISO-10303-21;
HEADER;
FILE_DESCRIPTION (( 'STEP AP214' ),
    '1' );
FILE_NAME ('84592.STEP',
    '2023-07-12T13:09:18',
    ( '' ),
    ( '' ),
    'SwSTEP 2.0',
    'SolidWorks 2023',
    '' );
FILE_SCHEMA (( 'AUTOMOTIVE_DESIGN' ));
ENDSEC;

DATA;
#1 = CARTESIAN_POINT ( 'NONE',  ( 2.417373285256995277E-16, 0.02453738644055890664, 0.000000000000000000 ) ) ;
#2 = DIRECTION ( 'NONE',  ( 9.656694405676853608E-33, -1.000000000000000000, -0.000000000000000000 ) ) ;
#3 = ADVANCED_FACE ( 'NONE', ( #79 ), #235, .T. ) ;
#4 = ORIENTED_EDGE ( 'NONE', *, *, #100, .T. ) ;
#5 = DIRECTION ( 'NONE',  ( 1.000000000000000000, 9.656694405676852239E-33, 0.000000000000000000 ) ) ;
#6 = DIRECTION ( 'NONE',  ( -1.000000000000000000, -1.365923996832137033E-16, 0.000000000000000000 ) ) ;
#7 = LENGTH_MEASURE_WITH_UNIT ( LENGTH_MEASURE( 0.02539999999999999897 ), #54 );
#8 = DIRECTION ( 'NONE',  ( 9.656694405676853608E-33, -1.000000000000000000, -0.000000000000000000 ) ) ;
#9 = FILL_AREA_STYLE ('',( #255 ) ) ;
#10 = CIRCLE ( 'NONE', #63, 0.06249999999999975020 ) ;
#11 = ORIENTED_EDGE ( 'NONE', *, *, #145, .T. ) ;
#12 = SURFACE_SIDE_STYLE ('',( #175 ) ) ;
#13 = DIRECTION ( 'NONE',  ( -0.8660254037844397068, 0.4999999999999979461, 0.000000000000000000 ) ) ;
#14 = UNCERTAINTY_MEASURE_WITH_UNIT (LENGTH_MEASURE( 1.000000000000000082E-05 ), #263, 'distance_accuracy_value', 'NONE');
#15 =( GEOMETRIC_REPRESENTATION_CONTEXT ( 3 ) GLOBAL_UNCERTAINTY_ASSIGNED_CONTEXT ( ( #14 ) ) GLOBAL_UNIT_ASSIGNED_CONTEXT ( ( #263, #244, #41 ) ) REPRESENTATION_CONTEXT ( 'NONE', 'WORKASPACE' ) );
#16 = STYLED_ITEM ( 'NONE', ( #49 ), #239 ) ;
#17 = EDGE_CURVE ( 'NONE', #50, #228, #10, .T. ) ;
#18 = PLANE ( 'NONE',  #266 ) ;
#19 = ADVANCED_FACE ( 'NONE', ( #61 ), #157, .F. ) ;
#20 = MECHANICAL_DESIGN_GEOMETRIC_PRESENTATION_REPRESENTATION (  '', ( #306 ), #243 ) ;
#21 = FILL_AREA_STYLE_COLOUR ( '', #60 ) ;
#22 = CARTESIAN_POINT ( 'NONE',  ( -0.06250000000000001388, 0.02453738644055896562, 0.000000000000000000 ) ) ;
#23 = LENGTH_MEASURE_WITH_UNIT ( LENGTH_MEASURE( 0.02539999999999999897 ), #287 );
#24 = ORIENTED_EDGE ( 'NONE', *, *, #17, .T. ) ;
#25 = DIRECTION ( 'NONE',  ( 9.656694405676853608E-33, -1.000000000000000000, -0.000000000000000000 ) ) ;
#26 =( LENGTH_UNIT ( ) NAMED_UNIT ( * ) SI_UNIT ( $, .METRE. ) );
#27 = COLOUR_RGB ( '',1.000000000000000000, 0.000000000000000000, 0.000000000000000000 ) ;
#28 = CIRCLE ( 'NONE', #47, 0.02000000000000000042 ) ;
#29 = CARTESIAN_POINT ( 'NONE',  ( 6.123233995736763571E-17, 1.500000000000000222, 0.000000000000000000 ) ) ;
#30 = ORIENTED_EDGE ( 'NONE', *, *, #66, .T. ) ;
#31 = LENGTH_MEASURE_WITH_UNIT ( LENGTH_MEASURE( 0.02539999999999999897 ), #33 );
#32 = EDGE_LOOP ( 'NONE', ( #148, #150 ) ) ;
#33 =( LENGTH_UNIT ( ) NAMED_UNIT ( * ) SI_UNIT ( $, .METRE. ) );
#34 = ORIENTED_EDGE ( 'NONE', *, *, #127, .F. ) ;
#35 = LINE ( 'NONE', #233, #84 ) ;
#36 = SURFACE_SIDE_STYLE ('',( #109 ) ) ;
#37 = FILL_AREA_STYLE ('',( #303 ) ) ;
#38 = MANIFOLD_SOLID_BREP ( 'Revolve - Cutting Edge', #122 ) ;
#39 = AXIS2_PLACEMENT_3D ( 'NONE', #251, #218, #170 ) ;
#40 = SURFACE_SIDE_STYLE ('',( #305 ) ) ;
#41 =( NAMED_UNIT ( * ) SI_UNIT ( $, .STERADIAN. ) SOLID_ANGLE_UNIT ( ) );
#42 = DIRECTION ( 'NONE',  ( 9.656694405676853608E-33, -1.000000000000000000, -0.000000000000000000 ) ) ;
#43 = CONICAL_SURFACE ( 'NONE', #93, 0.02000000000000000042, 1.047197551196600074 ) ;
#44 = ADVANCED_FACE ( 'NONE', ( #121 ), #43, .T. ) ;
#45 = ORIENTED_EDGE ( 'NONE', *, *, #17, .F. ) ;
#46 = AXIS2_PLACEMENT_3D ( 'NONE', #80, #2, #5 ) ;
#47 = AXIS2_PLACEMENT_3D ( 'NONE', #248, #25, #292 ) ;
#48 = DIRECTION ( 'NONE',  ( -1.223378938303813434E-16, 1.000000000000000000, -0.000000000000000000 ) ) ;
#49 = PRESENTATION_STYLE_ASSIGNMENT (( #179 ) ) ;
#50 = VERTEX_POINT ( 'NONE', #221 ) ;
#51 = DIRECTION ( 'NONE',  ( -1.223378938303813434E-16, 1.000000000000000000, 0.000000000000000000 ) ) ;
#52 = DIRECTION ( 'NONE',  ( -1.223378938303813434E-16, 1.000000000000000000, -0.000000000000000000 ) ) ;
#53 = VERTEX_POINT ( 'NONE', #197 ) ;
#54 =( LENGTH_UNIT ( ) NAMED_UNIT ( * ) SI_UNIT ( $, .METRE. ) );
#55 = STYLED_ITEM ( 'NONE', ( #149 ), #44 ) ;
#56 = DIRECTION ( 'NONE',  ( -1.223378938303813434E-16, 1.000000000000000000, -0.000000000000000000 ) ) ;
#57 = CARTESIAN_POINT ( 'NONE',  ( 0.02000000000000000042, 0.000000000000000000, 5.051668046482832349E-18 ) ) ;
#58 = SURFACE_STYLE_FILL_AREA ( #9 ) ;
#59 = EDGE_LOOP ( 'NONE', ( #199, #174, #4, #107 ) ) ;
#60 = COLOUR_RGB ( '',0.7921568627450980005, 0.8196078431372548767, 0.9333333333333333481 ) ;
#61 = FACE_OUTER_BOUND ( 'NONE', #32, .T. ) ;
#62 = SURFACE_STYLE_USAGE ( .BOTH. , #91 ) ;
#63 = AXIS2_PLACEMENT_3D ( 'NONE', #67, #90, #183 ) ;
#64 = PRODUCT_DEFINITION_FORMATION_WITH_SPECIFIED_SOURCE ( 'ANY', '', #120, .NOT_KNOWN. ) ;
#65 =( NAMED_UNIT ( * ) PLANE_ANGLE_UNIT ( ) SI_UNIT ( $, .RADIAN. ) );
#66 = EDGE_CURVE ( 'NONE', #250, #70, #274, .T. ) ;
#67 = CARTESIAN_POINT ( 'NONE',  ( 2.417373285256995277E-16, 0.02453738644055890664, 0.000000000000000000 ) ) ;
#68 = ADVANCED_FACE ( 'NONE', ( #278 ), #18, .T. ) ;
#69 = SURFACE_STYLE_USAGE ( .BOTH. , #193 ) ;
#70 = VERTEX_POINT ( 'NONE', #158 ) ;
#71 = PRODUCT_DEFINITION_CONTEXT ( 'detailed design', #87, 'design' ) ;
#72 = LINE ( 'NONE', #273, #267 ) ;
#73 = DIRECTION ( 'NONE',  ( -1.000000000000000000, -9.656694405676852239E-33, 0.000000000000000000 ) ) ;
#74 =( CONVERSION_BASED_UNIT ( 'INCH', #31 ) LENGTH_UNIT ( ) NAMED_UNIT ( #214 ) );
#75 =( NAMED_UNIT ( * ) SI_UNIT ( $, .STERADIAN. ) SOLID_ANGLE_UNIT ( ) );
#76 = STYLED_ITEM ( 'NONE', ( #207 ), #68 ) ;
#77 = FACE_OUTER_BOUND ( 'NONE', #130, .T. ) ;
#78 = AXIS2_PLACEMENT_3D ( 'NONE', #198, #166, #226 ) ;
#79 = FACE_OUTER_BOUND ( 'NONE', #123, .T. ) ;
#80 = CARTESIAN_POINT ( 'NONE',  ( 1.865034936892612844E-66, -1.931338881135370533E-34, 0.000000000000000000 ) ) ;
#81 = FILL_AREA_STYLE_COLOUR ( '', #176 ) ;
#82 = CARTESIAN_POINT ( 'NONE',  ( 0.06249999999999997918, 1.500000000000000222, 7.654042494670942137E-18 ) ) ;
#83 = PRESENTATION_LAYER_ASSIGNMENT (  '', '', ( #55 ) ) ;
#84 = VECTOR ( 'NONE', #13, 39.37007874015748854 ) ;
#85 =( CONVERSION_BASED_UNIT ( 'INCH', #205 ) LENGTH_UNIT ( ) NAMED_UNIT ( #143 ) );
#86 = SURFACE_STYLE_USAGE ( .BOTH. , #40 ) ;
#87 = APPLICATION_CONTEXT ( 'automotive_design' ) ;
#88 = DIMENSIONAL_EXPONENTS ( 1.000000000000000000, 0.000000000000000000, 0.000000000000000000, 0.000000000000000000, 0.000000000000000000, 0.000000000000000000, 0.000000000000000000 ) ;
#89 = MECHANICAL_DESIGN_GEOMETRIC_PRESENTATION_REPRESENTATION (  '', ( #76 ), #132 ) ;
#90 = DIRECTION ( 'NONE',  ( -1.223378938303813434E-16, 1.000000000000000000, -0.000000000000000000 ) ) ;
#91 = SURFACE_SIDE_STYLE ('',( #309 ) ) ;
#92 =( CONVERSION_BASED_UNIT ( 'INCH', #114 ) LENGTH_UNIT ( ) NAMED_UNIT ( #94 ) );
#93 = AXIS2_PLACEMENT_3D ( 'NONE', #162, #164, #73 ) ;
#94 = DIMENSIONAL_EXPONENTS ( 1.000000000000000000, 0.000000000000000000, 0.000000000000000000, 0.000000000000000000, 0.000000000000000000, 0.000000000000000000, 0.000000000000000000 ) ;
#95 =( NAMED_UNIT ( * ) SI_UNIT ( $, .STERADIAN. ) SOLID_ANGLE_UNIT ( ) );
#96 = DIRECTION ( 'NONE',  ( -1.000000000000000000, -9.656694405676852239E-33, 0.000000000000000000 ) ) ;
#97 = VECTOR ( 'NONE', #165, 39.37007874015748143 ) ;
#98 = PRODUCT_CONTEXT ( 'NONE', #204, 'mechanical' ) ;
#99 = DIRECTION ( 'NONE',  ( -1.223378938303813434E-16, 1.000000000000000000, -0.000000000000000000 ) ) ;
#100 = EDGE_CURVE ( 'NONE', #53, #106, #167, .T. ) ;
#101 = SURFACE_STYLE_FILL_AREA ( #225 ) ;
#102 = DIRECTION ( 'NONE',  ( 1.000000000000000000, 0.000000000000000000, 0.000000000000000000 ) ) ;
#103 = ORIENTED_EDGE ( 'NONE', *, *, #260, .F. ) ;
#104 =( NAMED_UNIT ( * ) SI_UNIT ( $, .STERADIAN. ) SOLID_ANGLE_UNIT ( ) );
#105 = SURFACE_SIDE_STYLE ('',( #58 ) ) ;
#106 = VERTEX_POINT ( 'NONE', #22 ) ;
#107 = ORIENTED_EDGE ( 'NONE', *, *, #194, .F. ) ;
#108 = UNCERTAINTY_MEASURE_WITH_UNIT (LENGTH_MEASURE( 1.000000000000000082E-05 ), #215, 'distance_accuracy_value', 'NONE');
#109 = SURFACE_STYLE_FILL_AREA ( #37 ) ;
#110 = PRESENTATION_STYLE_ASSIGNMENT (( #240 ) ) ;
#111 = DIRECTION ( 'NONE',  ( -1.000000000000000000, -9.656694405676853608E-33, 0.000000000000000000 ) ) ;
#112 = PRESENTATION_LAYER_ASSIGNMENT (  '', '', ( #76 ) ) ;
#113 = FILL_AREA_STYLE ('',( #21 ) ) ;
#114 = LENGTH_MEASURE_WITH_UNIT ( LENGTH_MEASURE( 0.02539999999999999897 ), #140 );
#115 = DIRECTION ( 'NONE',  ( 1.000000000000000000, 1.223378938303813434E-16, 0.000000000000000000 ) ) ;
#116 = CONICAL_SURFACE ( 'NONE', #282, 0.02000000000000000042, 1.047197551196600074 ) ;
#117 = VERTEX_POINT ( 'NONE', #82 ) ;
#118 = FILL_AREA_STYLE_COLOUR ( '', #257 ) ;
#119 = CARTESIAN_POINT ( 'NONE',  ( -0.06249999999999986122, 1.500000000000000222, 0.000000000000000000 ) ) ;
#120 = PRODUCT ( '84592', '84592', '', ( #98 ) ) ;
#121 = FACE_OUTER_BOUND ( 'NONE', #59, .T. ) ;
#122 = CLOSED_SHELL ( 'NONE', ( #44, #68, #239, #3 ) ) ;
#123 = EDGE_LOOP ( 'NONE', ( #200, #30 ) ) ;
#124 = AXIS2_PLACEMENT_3D ( 'NONE', #271, #8, #102 ) ;
#125 = DIRECTION ( 'NONE',  ( -1.000000000000000000, -1.223378938303813434E-16, 0.000000000000000000 ) ) ;
#126 = LINE ( 'NONE', #294, #97 ) ;
#127 = EDGE_CURVE ( 'NONE', #250, #53, #237, .T. ) ;
#128 = EDGE_LOOP ( 'NONE', ( #11, #258, #196, #220 ) ) ;
#129 = CARTESIAN_POINT ( 'NONE',  ( 1.865034936892612844E-66, -1.931338881135370533E-34, 0.000000000000000000 ) ) ;
#130 = EDGE_LOOP ( 'NONE', ( #34, #103, #275, #234 ) ) ;
#131 = LENGTH_MEASURE_WITH_UNIT ( LENGTH_MEASURE( 0.02539999999999999897 ), #254 );
#132 =( GEOMETRIC_REPRESENTATION_CONTEXT ( 3 ) GLOBAL_UNCERTAINTY_ASSIGNED_CONTEXT ( ( #296 ) ) GLOBAL_UNIT_ASSIGNED_CONTEXT ( ( #85, #262, #283 ) ) REPRESENTATION_CONTEXT ( 'NONE', 'WORKASPACE' ) );
#133 = CYLINDRICAL_SURFACE ( 'NONE', #78, 0.06249999999999984041 ) ;
#134 = MANIFOLD_SOLID_BREP ( 'Revolve - Tool Body (Tipped Off)', #219 ) ;
#135 = EDGE_CURVE ( 'NONE', #228, #300, #126, .T. ) ;
#136 = DIMENSIONAL_EXPONENTS ( 1.000000000000000000, 0.000000000000000000, 0.000000000000000000, 0.000000000000000000, 0.000000000000000000, 0.000000000000000000, 0.000000000000000000 ) ;
#137 = CARTESIAN_POINT ( 'NONE',  ( 0.06249999999999997918, 1.500000000000000222, 0.000000000000000000 ) ) ;
#138 = STYLED_ITEM ( 'NONE', ( #110 ), #3 ) ;
#139 = EDGE_LOOP ( 'NONE', ( #168, #24, #253, #227 ) ) ;
#140 =( LENGTH_UNIT ( ) NAMED_UNIT ( * ) SI_UNIT ( $, .METRE. ) );
#141 = PRESENTATION_STYLE_ASSIGNMENT (( #62 ) ) ;
#142 = CIRCLE ( 'NONE', #124, 0.06250000000000000000 ) ;
#143 = DIMENSIONAL_EXPONENTS ( 1.000000000000000000, 0.000000000000000000, 0.000000000000000000, 0.000000000000000000, 0.000000000000000000, 0.000000000000000000, 0.000000000000000000 ) ;
#144 = CARTESIAN_POINT ( 'NONE',  ( 6.123233995736763571E-17, 1.500000000000000222, 0.000000000000000000 ) ) ;
#145 = EDGE_CURVE ( 'NONE', #228, #50, #285, .T. ) ;
#146 = AXIS2_PLACEMENT_3D ( 'NONE', #1, #301, #6 ) ;
#147 = CARTESIAN_POINT ( 'NONE',  ( 6.123233995736763571E-17, 1.500000000000000222, 0.000000000000000000 ) ) ;
#148 = ORIENTED_EDGE ( 'NONE', *, *, #252, .T. ) ;
#149 = PRESENTATION_STYLE_ASSIGNMENT (( #69 ) ) ;
#150 = ORIENTED_EDGE ( 'NONE', *, *, #247, .T. ) ;
#151 = UNCERTAINTY_MEASURE_WITH_UNIT (LENGTH_MEASURE( 1.000000000000000082E-05 ), #92, 'distance_accuracy_value', 'NONE');
#152 =( LENGTH_UNIT ( ) NAMED_UNIT ( * ) SI_UNIT ( $, .METRE. ) );
#153 = AXIS2_PLACEMENT_3D ( 'NONE', #307, #265, #210 ) ;
#154 =( GEOMETRIC_REPRESENTATION_CONTEXT ( 3 ) GLOBAL_UNCERTAINTY_ASSIGNED_CONTEXT ( ( #280 ) ) GLOBAL_UNIT_ASSIGNED_CONTEXT ( ( #192, #190, #75 ) ) REPRESENTATION_CONTEXT ( 'NONE', 'WORKASPACE' ) );
#155 = CARTESIAN_POINT ( 'NONE',  ( -2.369500423704768587E-34, 0.02453738644055896562, 0.000000000000000000 ) ) ;
#156 = PRODUCT_DEFINITION ( 'UNKNOWN', '', #64, #71 ) ;
#157 = PLANE ( 'NONE',  #186 ) ;
#158 = CARTESIAN_POINT ( 'NONE',  ( -0.02000000000000000042, -3.862677762270741067E-34, 0.000000000000000000 ) ) ;
#159 = CIRCLE ( 'NONE', #232, 0.06249999999999992367 ) ;
#160 = MECHANICAL_DESIGN_GEOMETRIC_PRESENTATION_REPRESENTATION (  '', ( #138 ), #15 ) ;
#161 = APPLICATION_PROTOCOL_DEFINITION ( 'draft international standard', 'automotive_design', 1998, #204 ) ;
#162 = CARTESIAN_POINT ( 'NONE',  ( 1.865034936892612844E-66, -1.931338881135370533E-34, 0.000000000000000000 ) ) ;
#163 =( NAMED_UNIT ( * ) SI_UNIT ( $, .STERADIAN. ) SOLID_ANGLE_UNIT ( ) );
#164 = DIRECTION ( 'NONE',  ( -9.656694405676853608E-33, 1.000000000000000000, 0.000000000000000000 ) ) ;
#165 = DIRECTION ( 'NONE',  ( -1.223378938303813434E-16, 1.000000000000000000, -0.000000000000000000 ) ) ;
#166 = DIRECTION ( 'NONE',  ( -1.223378938303813434E-16, 1.000000000000000000, -0.000000000000000000 ) ) ;
#167 = CIRCLE ( 'NONE', #212, 0.06250000000000000000 ) ;
#168 = ORIENTED_EDGE ( 'NONE', *, *, #211, .F. ) ;
#169 = PRESENTATION_LAYER_ASSIGNMENT (  '', '', ( #16 ) ) ;
#170 = DIRECTION ( 'NONE',  ( 1.000000000000000000, 0.000000000000000000, 0.000000000000000000 ) ) ;
#171 = FACE_OUTER_BOUND ( 'NONE', #139, .T. ) ;
#172 = ORIENTED_EDGE ( 'NONE', *, *, #100, .F. ) ;
#173 = SURFACE_STYLE_USAGE ( .BOTH. , #12 ) ;
#174 = ORIENTED_EDGE ( 'NONE', *, *, #127, .T. ) ;
#175 = SURFACE_STYLE_FILL_AREA ( #222 ) ;
#176 = COLOUR_RGB ( '',0.7921568627450980005, 0.8196078431372548767, 0.9333333333333333481 ) ;
#177 = UNCERTAINTY_MEASURE_WITH_UNIT (LENGTH_MEASURE( 1.000000000000000082E-05 ), #74, 'distance_accuracy_value', 'NONE');
#178 = CARTESIAN_POINT ( 'NONE',  ( -2.369500423704768587E-34, 0.02453738644055896562, 0.000000000000000000 ) ) ;
#179 = SURFACE_STYLE_USAGE ( .BOTH. , #105 ) ;
#180 = COLOUR_RGB ( '',1.000000000000000000, 0.000000000000000000, 0.000000000000000000 ) ;
#181 = ADVANCED_FACE ( 'NONE', ( #229 ), #259, .T. ) ;
#182 = STYLED_ITEM ( 'NONE', ( #141 ), #38 ) ;
#183 = DIRECTION ( 'NONE',  ( -1.000000000000000000, -1.365923996832137033E-16, 0.000000000000000000 ) ) ;
#184 = CARTESIAN_POINT ( 'NONE',  ( 0.02000000000000000042, 0.000000000000000000, 2.449293598294706769E-18 ) ) ;
#185 = PLANE ( 'NONE',  #203 ) ;
#186 = AXIS2_PLACEMENT_3D ( 'NONE', #137, #241, #115 ) ;
#187 = ADVANCED_FACE ( 'NONE', ( #171 ), #133, .T. ) ;
#188 =( NAMED_UNIT ( * ) PLANE_ANGLE_UNIT ( ) SI_UNIT ( $, .RADIAN. ) );
#189 =( CONVERSION_BASED_UNIT ( 'INCH', #131 ) LENGTH_UNIT ( ) NAMED_UNIT ( #88 ) );
#190 =( NAMED_UNIT ( * ) PLANE_ANGLE_UNIT ( ) SI_UNIT ( $, .RADIAN. ) );
#191 = EDGE_LOOP ( 'NONE', ( #277, #45 ) ) ;
#192 =( CONVERSION_BASED_UNIT ( 'INCH', #7 ) LENGTH_UNIT ( ) NAMED_UNIT ( #136 ) );
#193 = SURFACE_SIDE_STYLE ('',( #101 ) ) ;
#194 = EDGE_CURVE ( 'NONE', #70, #106, #35, .T. ) ;
#195 = DIRECTION ( 'NONE',  ( -1.000000000000000000, 0.000000000000000000, 0.000000000000000000 ) ) ;
#196 = ORIENTED_EDGE ( 'NONE', *, *, #252, .F. ) ;
#197 = CARTESIAN_POINT ( 'NONE',  ( 0.06250000000000001388, 0.02453738644055896562, 7.654042494670959086E-18 ) ) ;
#198 = CARTESIAN_POINT ( 'NONE',  ( 6.123233995736763571E-17, 1.500000000000000222, 0.000000000000000000 ) ) ;
#199 = ORIENTED_EDGE ( 'NONE', *, *, #66, .F. ) ;
#200 = ORIENTED_EDGE ( 'NONE', *, *, #260, .T. ) ;
#201 = PRESENTATION_LAYER_ASSIGNMENT (  '', '', ( #138 ) ) ;
#202 = UNCERTAINTY_MEASURE_WITH_UNIT (LENGTH_MEASURE( 1.000000000000000082E-05 ), #189, 'distance_accuracy_value', 'NONE');
#203 = AXIS2_PLACEMENT_3D ( 'NONE', #270, #51, #125 ) ;
#204 = APPLICATION_CONTEXT ( 'automotive_design' ) ;
#205 = LENGTH_MEASURE_WITH_UNIT ( LENGTH_MEASURE( 0.02539999999999999897 ), #152 );
#206 = DIMENSIONAL_EXPONENTS ( 1.000000000000000000, 0.000000000000000000, 0.000000000000000000, 0.000000000000000000, 0.000000000000000000, 0.000000000000000000, 0.000000000000000000 ) ;
#207 = PRESENTATION_STYLE_ASSIGNMENT (( #86 ) ) ;
#208 = PRESENTATION_LAYER_ASSIGNMENT (  '', '', ( #182 ) ) ;
#209 = DIMENSIONAL_EXPONENTS ( 1.000000000000000000, 0.000000000000000000, 0.000000000000000000, 0.000000000000000000, 0.000000000000000000, 0.000000000000000000, 0.000000000000000000 ) ;
#210 = DIRECTION ( 'NONE',  ( 1.000000000000000000, 9.656694405676853608E-33, 0.000000000000000000 ) ) ;
#211 = EDGE_CURVE ( 'NONE', #50, #117, #72, .T. ) ;
#212 = AXIS2_PLACEMENT_3D ( 'NONE', #178, #42, #242 ) ;
#213 = MECHANICAL_DESIGN_GEOMETRIC_PRESENTATION_REPRESENTATION (  '', ( #16 ), #304 ) ;
#214 = DIMENSIONAL_EXPONENTS ( 1.000000000000000000, 0.000000000000000000, 0.000000000000000000, 0.000000000000000000, 0.000000000000000000, 0.000000000000000000, 0.000000000000000000 ) ;
#215 =( CONVERSION_BASED_UNIT ( 'INCH', #216 ) LENGTH_UNIT ( ) NAMED_UNIT ( #206 ) );
#216 = LENGTH_MEASURE_WITH_UNIT ( LENGTH_MEASURE( 0.02539999999999999897 ), #26 );
#217 = EDGE_CURVE ( 'NONE', #106, #53, #142, .T. ) ;
#218 = DIRECTION ( 'NONE',  ( 0.000000000000000000, 0.000000000000000000, 1.000000000000000000 ) ) ;
#219 = CLOSED_SHELL ( 'NONE', ( #181, #308, #187, #19 ) ) ;
#220 = ORIENTED_EDGE ( 'NONE', *, *, #135, .F. ) ;
#221 = CARTESIAN_POINT ( 'NONE',  ( 0.06249999999999999306, 0.02453738644055891358, 7.654042494670942137E-18 ) ) ;
#222 = FILL_AREA_STYLE ('',( #81 ) ) ;
#223 = PRODUCT_RELATED_PRODUCT_CATEGORY ( 'part', '', ( #120 ) ) ;
#224 = PRODUCT_DEFINITION_SHAPE ( 'NONE', 'NONE',  #156 ) ;
#225 = FILL_AREA_STYLE ('',( #118 ) ) ;
#226 = DIRECTION ( 'NONE',  ( -1.000000000000000000, 0.000000000000000000, 0.000000000000000000 ) ) ;
#227 = ORIENTED_EDGE ( 'NONE', *, *, #247, .F. ) ;
#228 = VERTEX_POINT ( 'NONE', #297 ) ;
#229 = FACE_OUTER_BOUND ( 'NONE', #128, .T. ) ;
#230 = COLOUR_RGB ( '',1.000000000000000000, 0.000000000000000000, 0.000000000000000000 ) ;
#231 = ORIENTED_EDGE ( 'NONE', *, *, #217, .F. ) ;
#232 = AXIS2_PLACEMENT_3D ( 'NONE', #147, #99, #272 ) ;
#233 = CARTESIAN_POINT ( 'NONE',  ( -0.02000000000000000042, -3.862677762270741067E-34, 0.000000000000000000 ) ) ;
#234 = ORIENTED_EDGE ( 'NONE', *, *, #217, .T. ) ;
#235 = PLANE ( 'NONE',  #153 ) ;
#236 =( NAMED_UNIT ( * ) SI_UNIT ( $, .STERADIAN. ) SOLID_ANGLE_UNIT ( ) );
#237 = LINE ( 'NONE', #184, #261 ) ;
#238 = AXIS2_PLACEMENT_3D ( 'NONE', #144, #48, #288 ) ;
#239 = ADVANCED_FACE ( 'NONE', ( #77 ), #116, .T. ) ;
#240 = SURFACE_STYLE_USAGE ( .BOTH. , #36 ) ;
#241 = DIRECTION ( 'NONE',  ( 1.223378938303813434E-16, -1.000000000000000000, 0.000000000000000000 ) ) ;
#242 = DIRECTION ( 'NONE',  ( 1.000000000000000000, 0.000000000000000000, 0.000000000000000000 ) ) ;
#243 =( GEOMETRIC_REPRESENTATION_CONTEXT ( 3 ) GLOBAL_UNCERTAINTY_ASSIGNED_CONTEXT ( ( #177 ) ) GLOBAL_UNIT_ASSIGNED_CONTEXT ( ( #74, #302, #236 ) ) REPRESENTATION_CONTEXT ( 'NONE', 'WORKASPACE' ) );
#244 =( NAMED_UNIT ( * ) PLANE_ANGLE_UNIT ( ) SI_UNIT ( $, .RADIAN. ) );
#245 = MECHANICAL_DESIGN_GEOMETRIC_PRESENTATION_REPRESENTATION (  '', ( #182 ), #298 ) ;
#246 = AXIS2_PLACEMENT_3D ( 'NONE', #29, #52, #195 ) ;
#247 = EDGE_CURVE ( 'NONE', #117, #300, #159, .T. ) ;
#248 = CARTESIAN_POINT ( 'NONE',  ( 1.865034936892612844E-66, -1.931338881135370533E-34, 0.000000000000000000 ) ) ;
#249 =( GEOMETRIC_REPRESENTATION_CONTEXT ( 3 ) GLOBAL_UNCERTAINTY_ASSIGNED_CONTEXT ( ( #202 ) ) GLOBAL_UNIT_ASSIGNED_CONTEXT ( ( #189, #293, #104 ) ) REPRESENTATION_CONTEXT ( 'NONE', 'WORKASPACE' ) );
#250 = VERTEX_POINT ( 'NONE', #57 ) ;
#251 = CARTESIAN_POINT ( 'NONE',  ( 0.000000000000000000, 0.000000000000000000, 0.000000000000000000 ) ) ;
#252 = EDGE_CURVE ( 'NONE', #300, #117, #299, .T. ) ;
#253 = ORIENTED_EDGE ( 'NONE', *, *, #135, .T. ) ;
#254 =( LENGTH_UNIT ( ) NAMED_UNIT ( * ) SI_UNIT ( $, .METRE. ) );
#255 = FILL_AREA_STYLE_COLOUR ( '', #180 ) ;
#256 = FILL_AREA_STYLE_COLOUR ( '', #230 ) ;
#257 = COLOUR_RGB ( '',1.000000000000000000, 0.000000000000000000, 0.000000000000000000 ) ;
#258 = ORIENTED_EDGE ( 'NONE', *, *, #211, .T. ) ;
#259 = CYLINDRICAL_SURFACE ( 'NONE', #246, 0.06249999999999984041 ) ;
#260 = EDGE_CURVE ( 'NONE', #70, #250, #28, .T. ) ;
#261 = VECTOR ( 'NONE', #286, 39.37007874015748854 ) ;
#262 =( NAMED_UNIT ( * ) PLANE_ANGLE_UNIT ( ) SI_UNIT ( $, .RADIAN. ) );
#263 =( CONVERSION_BASED_UNIT ( 'INCH', #23 ) LENGTH_UNIT ( ) NAMED_UNIT ( #209 ) );
#264 = DIRECTION ( 'NONE',  ( -9.656694405676853608E-33, 1.000000000000000000, 0.000000000000000000 ) ) ;
#265 = DIRECTION ( 'NONE',  ( 9.656694405676853608E-33, -1.000000000000000000, -0.000000000000000000 ) ) ;
#266 = AXIS2_PLACEMENT_3D ( 'NONE', #155, #264, #111 ) ;
#267 = VECTOR ( 'NONE', #56, 39.37007874015748143 ) ;
#268 = EDGE_LOOP ( 'NONE', ( #231, #172 ) ) ;
#269 = FACE_OUTER_BOUND ( 'NONE', #191, .T. ) ;
#270 = CARTESIAN_POINT ( 'NONE',  ( 2.417373285256995277E-16, 0.02453738644055896215, 0.000000000000000000 ) ) ;
#271 = CARTESIAN_POINT ( 'NONE',  ( -2.369500423704768587E-34, 0.02453738644055896562, 0.000000000000000000 ) ) ;
#272 = DIRECTION ( 'NONE',  ( -1.000000000000000000, 0.000000000000000000, 0.000000000000000000 ) ) ;
#273 = CARTESIAN_POINT ( 'NONE',  ( 0.06249999999999989592, 1.500000000000000222, 7.654042494670937515E-18 ) ) ;
#274 = CIRCLE ( 'NONE', #46, 0.02000000000000000042 ) ;
#275 = ORIENTED_EDGE ( 'NONE', *, *, #194, .T. ) ;
#276 = DIRECTION ( 'NONE',  ( -9.656694405676853608E-33, 1.000000000000000000, 0.000000000000000000 ) ) ;
#277 = ORIENTED_EDGE ( 'NONE', *, *, #145, .F. ) ;
#278 = FACE_OUTER_BOUND ( 'NONE', #268, .T. ) ;
#279 = PRESENTATION_STYLE_ASSIGNMENT (( #173 ) ) ;
#280 = UNCERTAINTY_MEASURE_WITH_UNIT (LENGTH_MEASURE( 1.000000000000000082E-05 ), #192, 'distance_accuracy_value', 'NONE');
#281 = MECHANICAL_DESIGN_GEOMETRIC_PRESENTATION_REPRESENTATION (  '', ( #55 ), #249 ) ;
#282 = AXIS2_PLACEMENT_3D ( 'NONE', #129, #276, #96 ) ;
#283 =( NAMED_UNIT ( * ) SI_UNIT ( $, .STERADIAN. ) SOLID_ANGLE_UNIT ( ) );
#284 = FILL_AREA_STYLE ('',( #256 ) ) ;
#285 = CIRCLE ( 'NONE', #146, 0.06249999999999975020 ) ;
#286 = DIRECTION ( 'NONE',  ( 0.8660254037844397068, 0.4999999999999979461, 1.060575238724908024E-16 ) ) ;
#287 =( LENGTH_UNIT ( ) NAMED_UNIT ( * ) SI_UNIT ( $, .METRE. ) );
#288 = DIRECTION ( 'NONE',  ( -1.000000000000000000, 0.000000000000000000, 0.000000000000000000 ) ) ;
#289 = ADVANCED_BREP_SHAPE_REPRESENTATION ( '84592', ( #38, #134, #39 ), #154 ) ;
#290 = PRESENTATION_LAYER_ASSIGNMENT (  '', '', ( #306 ) ) ;
#291 = SHAPE_DEFINITION_REPRESENTATION ( #224, #289 ) ;
#292 = DIRECTION ( 'NONE',  ( 1.000000000000000000, 9.656694405676852239E-33, 0.000000000000000000 ) ) ;
#293 =( NAMED_UNIT ( * ) PLANE_ANGLE_UNIT ( ) SI_UNIT ( $, .RADIAN. ) );
#294 = CARTESIAN_POINT ( 'NONE',  ( -0.06249999999999977796, 1.500000000000000222, 0.000000000000000000 ) ) ;
#295 = APPLICATION_PROTOCOL_DEFINITION ( 'draft international standard', 'automotive_design', 1998, #87 ) ;
#296 = UNCERTAINTY_MEASURE_WITH_UNIT (LENGTH_MEASURE( 1.000000000000000082E-05 ), #85, 'distance_accuracy_value', 'NONE');
#297 = CARTESIAN_POINT ( 'NONE',  ( -0.06249999999999951428, 0.02453738644055889623, 0.000000000000000000 ) ) ;
#298 =( GEOMETRIC_REPRESENTATION_CONTEXT ( 3 ) GLOBAL_UNCERTAINTY_ASSIGNED_CONTEXT ( ( #151 ) ) GLOBAL_UNIT_ASSIGNED_CONTEXT ( ( #92, #65, #95 ) ) REPRESENTATION_CONTEXT ( 'NONE', 'WORKASPACE' ) );
#299 = CIRCLE ( 'NONE', #238, 0.06249999999999992367 ) ;
#300 = VERTEX_POINT ( 'NONE', #119 ) ;
#301 = DIRECTION ( 'NONE',  ( -1.223378938303813434E-16, 1.000000000000000000, -0.000000000000000000 ) ) ;
#302 =( NAMED_UNIT ( * ) PLANE_ANGLE_UNIT ( ) SI_UNIT ( $, .RADIAN. ) );
#303 = FILL_AREA_STYLE_COLOUR ( '', #27 ) ;
#304 =( GEOMETRIC_REPRESENTATION_CONTEXT ( 3 ) GLOBAL_UNCERTAINTY_ASSIGNED_CONTEXT ( ( #108 ) ) GLOBAL_UNIT_ASSIGNED_CONTEXT ( ( #215, #188, #163 ) ) REPRESENTATION_CONTEXT ( 'NONE', 'WORKASPACE' ) );
#305 = SURFACE_STYLE_FILL_AREA ( #284 ) ;
#306 = STYLED_ITEM ( 'NONE', ( #279 ), #134 ) ;
#307 = CARTESIAN_POINT ( 'NONE',  ( 9.325174684463064220E-67, -9.656694405676852667E-35, 0.000000000000000000 ) ) ;
#308 = ADVANCED_FACE ( 'NONE', ( #269 ), #185, .F. ) ;
#309 = SURFACE_STYLE_FILL_AREA ( #113 ) ;
ENDSEC;
END-ISO-10303-21;
