ISO-10303-21;
HEADER;
FILE_DESCRIPTION (( 'STEP AP214' ),
    '1' );
FILE_NAME ('Micro_RME-030-2X.STEP',
    '2021-09-01T23:10:46',
    ( '' ),
    ( '' ),
    'SwSTEP 2.0',
    'SolidWorks 2020',
    '' );
FILE_SCHEMA (( 'AUTOMOTIVE_DESIGN' ));
ENDSEC;

DATA;
#1 = CARTESIAN_POINT ( 'NONE',  ( 0.0000000000000000000, 0.0000000000000000000, 0.0000000000000000000 ) ) ;
#2 = PRODUCT_DEFINITION ( 'UNKNOWN', '', #136, #162 ) ;
#3 = COLOUR_RGB ( '',0.7921568627450980005, 0.8196078431372548767, 0.9333333333333333481 ) ;
#4 = CARTESIAN_POINT ( 'NONE',  ( -0.04750000000000064587, 0.0000000000000000000, 1.500000000000000222 ) ) ;
#5 = DIRECTION ( 'NONE',  ( 0.7071067811865462405, 8.659560562354916834E-17, -0.7071067811865486830 ) ) ;
#6 = DIRECTION ( 'NONE',  ( -1.224646799147353454E-16, -0.0000000000000000000, -1.000000000000000000 ) ) ;
#7 = CIRCLE ( 'NONE', #130, 0.06250000000000002776 ) ;
#8 = DIRECTION ( 'NONE',  ( -1.224646799147353454E-16, -0.0000000000000000000, -1.000000000000000000 ) ) ;
#9 = DIRECTION ( 'NONE',  ( -1.000000000000000000, 0.0000000000000000000, 0.0000000000000000000 ) ) ;
#10 = ORIENTED_EDGE ( 'NONE', *, *, #91, .T. ) ;
#11 = DIRECTION ( 'NONE',  ( -0.0000000000000000000, -0.0000000000000000000, -1.000000000000000000 ) ) ;
#12 = MECHANICAL_DESIGN_GEOMETRIC_PRESENTATION_REPRESENTATION (  '', ( #143 ), #154 ) ;
#13 = DIRECTION ( 'NONE',  ( -1.224646799147353454E-16, -0.0000000000000000000, -1.000000000000000000 ) ) ;
#14 = DIMENSIONAL_EXPONENTS ( 1.000000000000000000, 0.0000000000000000000, 0.0000000000000000000, 0.0000000000000000000, 0.0000000000000000000, 0.0000000000000000000, 0.0000000000000000000 ) ;
#15 = SHAPE_DEFINITION_REPRESENTATION ( #283, #163 ) ;
#16 = VERTEX_POINT ( 'NONE', #289 ) ;
#17 = SURFACE_STYLE_FILL_AREA ( #40 ) ;
#18 = EDGE_LOOP ( 'NONE', ( #30, #107, #79, #210 ) ) ;
#19 = CARTESIAN_POINT ( 'NONE',  ( 0.0000000000000000000, 0.0000000000000000000, 0.0000000000000000000 ) ) ;
#20 = DIRECTION ( 'NONE',  ( -1.000000000000000000, 0.0000000000000000000, 1.224646799147353454E-16 ) ) ;
#21 = PRESENTATION_STYLE_ASSIGNMENT (( #125 ) ) ;
#22 = AXIS2_PLACEMENT_3D ( 'NONE', #221, #13, #84 ) ;
#23 = CARTESIAN_POINT ( 'NONE',  ( -0.01498500000000000006, 0.0000000000000000000, 1.835133228522309201E-18 ) ) ;
#24 = SURFACE_SIDE_STYLE ('',( #183 ) ) ;
#25 = EDGE_CURVE ( 'NONE', #38, #16, #76, .T. ) ;
#26 = FACE_OUTER_BOUND ( 'NONE', #290, .T. ) ;
#27 = AXIS2_PLACEMENT_3D ( 'NONE', #83, #8, #242 ) ;
#28 = EDGE_CURVE ( 'NONE', #192, #219, #32, .T. ) ;
#29 =( LENGTH_UNIT ( ) NAMED_UNIT ( * ) SI_UNIT ( $, .METRE. ) );
#30 = ORIENTED_EDGE ( 'NONE', *, *, #85, .T. ) ;
#31 = DIRECTION ( 'NONE',  ( 1.000000000000000000, 0.0000000000000000000, 0.0000000000000000000 ) ) ;
#32 = CIRCLE ( 'NONE', #298, 0.01498500000000000353 ) ;
#33 = DIRECTION ( 'NONE',  ( 0.1736481776669313859, 0.0000000000000000000, 0.9848077530122077983 ) ) ;
#34 = AXIS2_PLACEMENT_3D ( 'NONE', #230, #207, #158 ) ;
#35 = DIRECTION ( 'NONE',  ( 1.000000000000000000, 0.0000000000000000000, -0.0000000000000000000 ) ) ;
#36 = EDGE_LOOP ( 'NONE', ( #58, #172, #171, #282 ) ) ;
#37 = CARTESIAN_POINT ( 'NONE',  ( 1.102182119232618065E-17, 0.0000000000000000000, 0.08999999999999999667 ) ) ;
#38 = VERTEX_POINT ( 'NONE', #62 ) ;
#39 = DIRECTION ( 'NONE',  ( 0.0000000000000000000, 0.0000000000000000000, -1.000000000000000000 ) ) ;
#40 = FILL_AREA_STYLE ('',( #88 ) ) ;
#41 = CLOSED_SHELL ( 'NONE', ( #198, #77, #108, #141, #180, #257, #57, #297, #127, #255 ) ) ;
#42 = EDGE_CURVE ( 'NONE', #145, #147, #272, .T. ) ;
#43 = ORIENTED_EDGE ( 'NONE', *, *, #233, .F. ) ;
#44 = CARTESIAN_POINT ( 'NONE',  ( -0.06250000000000002776, 0.0000000000000000000, 1.500000000000000222 ) ) ;
#45 = CARTESIAN_POINT ( 'NONE',  ( 0.06250000000000002776, 7.654042494670959086E-18, 1.485000000000000764 ) ) ;
#46 = CIRCLE ( 'NONE', #269, 0.01498500000000000353 ) ;
#47 = CARTESIAN_POINT ( 'NONE',  ( 1.102182119232618065E-17, 0.0000000000000000000, 0.08999999999999999667 ) ) ;
#48 = CARTESIAN_POINT ( 'NONE',  ( 0.0000000000000000000, 0.0000000000000000000, 1.500000000000000222 ) ) ;
#49 =( CONVERSION_BASED_UNIT ( 'INCH', #68 ) LENGTH_UNIT ( ) NAMED_UNIT ( #194 ) );
#50 = ORIENTED_EDGE ( 'NONE', *, *, #278, .T. ) ;
#51 = AXIS2_PLACEMENT_3D ( 'NONE', #271, #39, #65 ) ;
#52 = DIRECTION ( 'NONE',  ( 1.000000000000000000, 0.0000000000000000000, 0.0000000000000000000 ) ) ;
#53 = LINE ( 'NONE', #59, #215 ) ;
#54 = CARTESIAN_POINT ( 'NONE',  ( 1.102182119232618065E-17, 0.0000000000000000000, 0.08999999999999999667 ) ) ;
#55 = CARTESIAN_POINT ( 'NONE',  ( 0.0000000000000000000, 0.0000000000000000000, 0.0000000000000000000 ) ) ;
#56 = STYLED_ITEM ( 'NONE', ( #21 ), #163 ) ;
#57 = ADVANCED_FACE ( 'NONE', ( #247 ), #94, .T. ) ;
#58 = ORIENTED_EDGE ( 'NONE', *, *, #293, .F. ) ;
#59 = CARTESIAN_POINT ( 'NONE',  ( 0.01498500000000001393, 0.0000000000000000000, 0.08999999999999999667 ) ) ;
#60 = ORIENTED_EDGE ( 'NONE', *, *, #249, .T. ) ;
#61 = LINE ( 'NONE', #235, #193 ) ;
#62 = CARTESIAN_POINT ( 'NONE',  ( 0.01498500000000000006, 1.835133228522308816E-18, 0.0000000000000000000 ) ) ;
#63 = AXIS2_PLACEMENT_3D ( 'NONE', #19, #228, #296 ) ;
#64 = DIRECTION ( 'NONE',  ( -1.000000000000000000, 0.0000000000000000000, 0.0000000000000000000 ) ) ;
#65 = DIRECTION ( 'NONE',  ( -1.000000000000000000, 0.0000000000000000000, 0.0000000000000000000 ) ) ;
#66 = SURFACE_SIDE_STYLE ('',( #17 ) ) ;
#67 = EDGE_CURVE ( 'NONE', #184, #113, #152, .T. ) ;
#68 = LENGTH_MEASURE_WITH_UNIT ( LENGTH_MEASURE( 0.02539999999999999897 ), #29 );
#69 = DIRECTION ( 'NONE',  ( -0.7071067811865462405, 0.0000000000000000000, -0.7071067811865486830 ) ) ;
#70 = CONICAL_SURFACE ( 'NONE', #160, 0.01498500000000000353, 0.1745329251994338915 ) ;
#71 = CARTESIAN_POINT ( 'NONE',  ( 4.402249552343988286E-17, 0.0000000000000000000, 0.3594709556591341171 ) ) ;
#72 = UNCERTAINTY_MEASURE_WITH_UNIT (LENGTH_MEASURE( 1.000000000000000082E-05 ), #49, 'distance_accuracy_value', 'NONE');
#73 = CARTESIAN_POINT ( 'NONE',  ( -0.04750000000000064587, 0.0000000000000000000, 1.500000000000000222 ) ) ;
#74 = ORIENTED_EDGE ( 'NONE', *, *, #270, .T. ) ;
#75 = CARTESIAN_POINT ( 'NONE',  ( -0.01498499999999999312, 1.835133228522309201E-18, 0.08999999999999999667 ) ) ;
#76 = CIRCLE ( 'NONE', #22, 0.01498500000000000006 ) ;
#77 = ADVANCED_FACE ( 'NONE', ( #185 ), #70, .T. ) ;
#78 = FACE_OUTER_BOUND ( 'NONE', #101, .T. ) ;
#79 = ORIENTED_EDGE ( 'NONE', *, *, #165, .F. ) ;
#80 = FACE_OUTER_BOUND ( 'NONE', #151, .T. ) ;
#81 = AXIS2_PLACEMENT_3D ( 'NONE', #213, #11, #104 ) ;
#82 = EDGE_LOOP ( 'NONE', ( #10, #124 ) ) ;
#83 = CARTESIAN_POINT ( 'NONE',  ( 4.402249552343988286E-17, 0.0000000000000000000, 0.3594709556591341171 ) ) ;
#84 = DIRECTION ( 'NONE',  ( -1.000000000000000000, 0.0000000000000000000, 1.224646799147353454E-16 ) ) ;
#85 = EDGE_CURVE ( 'NONE', #184, #175, #134, .T. ) ;
#86 = ORIENTED_EDGE ( 'NONE', *, *, #178, .F. ) ;
#87 = DIRECTION ( 'NONE',  ( 1.000000000000000000, 0.0000000000000000000, 0.0000000000000000000 ) ) ;
#88 = FILL_AREA_STYLE_COLOUR ( '', #3 ) ;
#89 = CARTESIAN_POINT ( 'NONE',  ( 0.04750000000000064587, 6.735557395310483192E-18, 1.500000000000000222 ) ) ;
#90 = CIRCLE ( 'NONE', #246, 0.01498500000000000006 ) ;
#91 = EDGE_CURVE ( 'NONE', #147, #145, #156, .T. ) ;
#92 = FACE_OUTER_BOUND ( 'NONE', #264, .T. ) ;
#93 = CARTESIAN_POINT ( 'NONE',  ( 0.0000000000000000000, 0.0000000000000000000, 1.500000000000000222 ) ) ;
#94 = CONICAL_SURFACE ( 'NONE', #51, 0.04750000000000064587, 0.7853981633974466137 ) ;
#95 = FILL_AREA_STYLE ('',( #157 ) ) ;
#96 = ORIENTED_EDGE ( 'NONE', *, *, #253, .F. ) ;
#97 = DIRECTION ( 'NONE',  ( 1.224646799147353454E-16, 0.0000000000000000000, 1.000000000000000000 ) ) ;
#98 = AXIS2_PLACEMENT_3D ( 'NONE', #93, #139, #135 ) ;
#99 = DIRECTION ( 'NONE',  ( -0.0000000000000000000, -0.0000000000000000000, -1.000000000000000000 ) ) ;
#100 = CYLINDRICAL_SURFACE ( 'NONE', #81, 0.06250000000000002776 ) ;
#101 = EDGE_LOOP ( 'NONE', ( #122, #196, #50, #74 ) ) ;
#102 = CARTESIAN_POINT ( 'NONE',  ( 0.0000000000000000000, 0.0000000000000000000, 1.485000000000000764 ) ) ;
#103 = ORIENTED_EDGE ( 'NONE', *, *, #165, .T. ) ;
#104 = DIRECTION ( 'NONE',  ( -1.000000000000000000, 0.0000000000000000000, 0.0000000000000000000 ) ) ;
#105 = EDGE_LOOP ( 'NONE', ( #43, #169, #248, #224 ) ) ;
#106 = EDGE_LOOP ( 'NONE', ( #129, #226, #103, #190 ) ) ;
#107 = ORIENTED_EDGE ( 'NONE', *, *, #253, .T. ) ;
#108 = ADVANCED_FACE ( 'NONE', ( #26 ), #179, .T. ) ;
#109 = DIRECTION ( 'NONE',  ( 1.224646799147353454E-16, 0.0000000000000000000, 1.000000000000000000 ) ) ;
#110 = CONICAL_SURFACE ( 'NONE', #280, 0.01498500000000000353, 0.1745329251994338915 ) ;
#111 = DIRECTION ( 'NONE',  ( -0.0000000000000000000, -0.0000000000000000000, -1.000000000000000000 ) ) ;
#112 = LINE ( 'NONE', #73, #119 ) ;
#113 = VERTEX_POINT ( 'NONE', #206 ) ;
#114 = EDGE_CURVE ( 'NONE', #147, #184, #112, .T. ) ;
#115 =( NAMED_UNIT ( * ) PLANE_ANGLE_UNIT ( ) SI_UNIT ( $, .RADIAN. ) );
#116 = ORIENTED_EDGE ( 'NONE', *, *, #285, .T. ) ;
#117 = DIRECTION ( 'NONE',  ( 0.0000000000000000000, 0.0000000000000000000, 1.000000000000000000 ) ) ;
#118 =( NAMED_UNIT ( * ) SI_UNIT ( $, .STERADIAN. ) SOLID_ANGLE_UNIT ( ) );
#119 = VECTOR ( 'NONE', #69, 39.37007874015748854 ) ;
#120 = DIRECTION ( 'NONE',  ( -1.000000000000000000, 0.0000000000000000000, 1.224646799147353454E-16 ) ) ;
#121 = DIRECTION ( 'NONE',  ( 1.000000000000000000, 0.0000000000000000000, -0.0000000000000000000 ) ) ;
#122 = ORIENTED_EDGE ( 'NONE', *, *, #131, .F. ) ;
#123 = CYLINDRICAL_SURFACE ( 'NONE', #286, 0.01498500000000000006 ) ;
#124 = ORIENTED_EDGE ( 'NONE', *, *, #42, .T. ) ;
#125 = SURFACE_STYLE_USAGE ( .BOTH. , #66 ) ;
#126 = ORIENTED_EDGE ( 'NONE', *, *, #285, .F. ) ;
#127 = ADVANCED_FACE ( 'NONE', ( #231 ), #256, .T. ) ;
#128 = ORIENTED_EDGE ( 'NONE', *, *, #85, .F. ) ;
#129 = ORIENTED_EDGE ( 'NONE', *, *, #28, .F. ) ;
#130 = AXIS2_PLACEMENT_3D ( 'NONE', #102, #258, #31 ) ;
#131 = EDGE_CURVE ( 'NONE', #192, #113, #201, .T. ) ;
#132 = LENGTH_MEASURE_WITH_UNIT ( LENGTH_MEASURE( 0.02539999999999999897 ), #174 );
#133 = LINE ( 'NONE', #23, #238 ) ;
#134 = CIRCLE ( 'NONE', #261, 0.06250000000000002776 ) ;
#135 = DIRECTION ( 'NONE',  ( 1.000000000000000000, 0.0000000000000000000, 0.0000000000000000000 ) ) ;
#136 = PRODUCT_DEFINITION_FORMATION_WITH_SPECIFIED_SOURCE ( 'ANY', '', #240, .NOT_KNOWN. ) ;
#137 = AXIS2_PLACEMENT_3D ( 'NONE', #1, #275, #20 ) ;
#138 = EDGE_LOOP ( 'NONE', ( #243, #241, #126, #86 ) ) ;
#139 = DIRECTION ( 'NONE',  ( 0.0000000000000000000, 0.0000000000000000000, 1.000000000000000000 ) ) ;
#140 = UNCERTAINTY_MEASURE_WITH_UNIT (LENGTH_MEASURE( 1.000000000000000082E-05 ), #202, 'distance_accuracy_value', 'NONE');
#141 = ADVANCED_FACE ( 'NONE', ( #176 ), #295, .T. ) ;
#142 =( CONVERSION_BASED_UNIT ( 'INCH', #216 ) LENGTH_UNIT ( ) NAMED_UNIT ( #14 ) );
#143 = STYLED_ITEM ( 'NONE', ( #273 ), #155 ) ;
#144 = DIRECTION ( 'NONE',  ( -1.224646799147353454E-16, -0.0000000000000000000, -1.000000000000000000 ) ) ;
#145 = VERTEX_POINT ( 'NONE', #89 ) ;
#146 = CARTESIAN_POINT ( 'NONE',  ( -0.06250000000000002776, 0.0000000000000000000, 1.485000000000000764 ) ) ;
#147 = VERTEX_POINT ( 'NONE', #4 ) ;
#148 =( NAMED_UNIT ( * ) PLANE_ANGLE_UNIT ( ) SI_UNIT ( $, .RADIAN. ) );
#149 = CARTESIAN_POINT ( 'NONE',  ( 0.0000000000000000000, 0.0000000000000000000, 1.500000000000000222 ) ) ;
#150 = AXIS2_PLACEMENT_3D ( 'NONE', #48, #232, #181 ) ;
#151 = EDGE_LOOP ( 'NONE', ( #116, #287 ) ) ;
#152 = LINE ( 'NONE', #44, #229 ) ;
#153 = AXIS2_PLACEMENT_3D ( 'NONE', #188, #212, #121 ) ;
#154 =( GEOMETRIC_REPRESENTATION_CONTEXT ( 3 ) GLOBAL_UNCERTAINTY_ASSIGNED_CONTEXT ( ( #72 ) ) GLOBAL_UNIT_ASSIGNED_CONTEXT ( ( #49, #115, #251 ) ) REPRESENTATION_CONTEXT ( 'NONE', 'WORKASPACE' ) );
#155 = MANIFOLD_SOLID_BREP ( 'Cut-Revolve1', #41 ) ;
#156 = CIRCLE ( 'NONE', #98, 0.04750000000000064587 ) ;
#157 = FILL_AREA_STYLE_COLOUR ( '', #167 ) ;
#158 = DIRECTION ( 'NONE',  ( -1.000000000000000000, 0.0000000000000000000, 0.0000000000000000000 ) ) ;
#159 = DIRECTION ( 'NONE',  ( 1.000000000000000000, 0.0000000000000000000, 0.0000000000000000000 ) ) ;
#160 = AXIS2_PLACEMENT_3D ( 'NONE', #47, #109, #52 ) ;
#161 =( LENGTH_UNIT ( ) NAMED_UNIT ( * ) SI_UNIT ( $, .METRE. ) );
#162 = PRODUCT_DEFINITION_CONTEXT ( 'detailed design', #204, 'design' ) ;
#163 = ADVANCED_BREP_SHAPE_REPRESENTATION ( 'Micro_RME-030-2X', ( #155, #63 ), #187 ) ;
#164 = DIRECTION ( 'NONE',  ( -1.000000000000000000, 0.0000000000000000000, 1.224646799147353454E-16 ) ) ;
#165 = EDGE_CURVE ( 'NONE', #113, #262, #203, .T. ) ;
#166 = ORIENTED_EDGE ( 'NONE', *, *, #270, .F. ) ;
#167 = COLOUR_RGB ( '',0.7921568627450980005, 0.8196078431372548767, 0.9333333333333333481 ) ;
#168 = PLANE ( 'NONE',  #153 ) ;
#169 = ORIENTED_EDGE ( 'NONE', *, *, #217, .T. ) ;
#170 = DIRECTION ( 'NONE',  ( -1.224646799147353454E-16, -0.0000000000000000000, -1.000000000000000000 ) ) ;
#171 = ORIENTED_EDGE ( 'NONE', *, *, #114, .T. ) ;
#172 = ORIENTED_EDGE ( 'NONE', *, *, #91, .F. ) ;
#173 = PRESENTATION_LAYER_ASSIGNMENT (  '', '', ( #56 ) ) ;
#174 =( LENGTH_UNIT ( ) NAMED_UNIT ( * ) SI_UNIT ( $, .METRE. ) );
#175 = VERTEX_POINT ( 'NONE', #45 ) ;
#176 = FACE_OUTER_BOUND ( 'NONE', #18, .T. ) ;
#177 = PRODUCT_CONTEXT ( 'NONE', #259, 'mechanical' ) ;
#178 = EDGE_CURVE ( 'NONE', #192, #16, #133, .T. ) ;
#179 = CONICAL_SURFACE ( 'NONE', #150, 0.04750000000000064587, 0.7853981633974466137 ) ;
#180 = ADVANCED_FACE ( 'NONE', ( #92 ), #100, .T. ) ;
#181 = DIRECTION ( 'NONE',  ( -1.000000000000000000, 0.0000000000000000000, 0.0000000000000000000 ) ) ;
#182 = CIRCLE ( 'NONE', #27, 0.06250000000000002776 ) ;
#183 = SURFACE_STYLE_FILL_AREA ( #95 ) ;
#184 = VERTEX_POINT ( 'NONE', #146 ) ;
#185 = FACE_OUTER_BOUND ( 'NONE', #106, .T. ) ;
#186 = DIRECTION ( 'NONE',  ( 1.000000000000000000, 0.0000000000000000000, 0.0000000000000000000 ) ) ;
#187 =( GEOMETRIC_REPRESENTATION_CONTEXT ( 3 ) GLOBAL_UNCERTAINTY_ASSIGNED_CONTEXT ( ( #208 ) ) GLOBAL_UNIT_ASSIGNED_CONTEXT ( ( #142, #236, #118 ) ) REPRESENTATION_CONTEXT ( 'NONE', 'WORKASPACE' ) );
#188 = CARTESIAN_POINT ( 'NONE',  ( 0.0000000000000000000, 0.0000000000000000000, 1.500000000000000222 ) ) ;
#189 = CARTESIAN_POINT ( 'NONE',  ( 0.01498500000000001393, 0.0000000000000000000, 0.08999999999999999667 ) ) ;
#190 = ORIENTED_EDGE ( 'NONE', *, *, #278, .F. ) ;
#191 = CARTESIAN_POINT ( 'NONE',  ( -0.01498499999999999312, 4.744587861596634336E-18, 0.08999999999999999667 ) ) ;
#192 = VERTEX_POINT ( 'NONE', #191 ) ;
#193 = VECTOR ( 'NONE', #5, 39.37007874015748854 ) ;
#194 = DIMENSIONAL_EXPONENTS ( 1.000000000000000000, 0.0000000000000000000, 0.0000000000000000000, 0.0000000000000000000, 0.0000000000000000000, 0.0000000000000000000, 0.0000000000000000000 ) ;
#195 = FACE_OUTER_BOUND ( 'NONE', #82, .T. ) ;
#196 = ORIENTED_EDGE ( 'NONE', *, *, #217, .F. ) ;
#197 = ORIENTED_EDGE ( 'NONE', *, *, #293, .T. ) ;
#198 = ADVANCED_FACE ( 'NONE', ( #279 ), #123, .T. ) ;
#199 = DIRECTION ( 'NONE',  ( -1.224646799147353454E-16, -0.0000000000000000000, -1.000000000000000000 ) ) ;
#200 = PRESENTATION_LAYER_ASSIGNMENT (  '', '', ( #143 ) ) ;
#201 = LINE ( 'NONE', #75, #292 ) ;
#202 =( CONVERSION_BASED_UNIT ( 'INCH', #132 ) LENGTH_UNIT ( ) NAMED_UNIT ( #265 ) );
#203 = CIRCLE ( 'NONE', #209, 0.06250000000000002776 ) ;
#204 = APPLICATION_CONTEXT ( 'automotive_design' ) ;
#205 = DIRECTION ( 'NONE',  ( -1.224646799147353454E-16, -0.0000000000000000000, -1.000000000000000000 ) ) ;
#206 = CARTESIAN_POINT ( 'NONE',  ( -0.06249999999999997918, 0.0000000000000000000, 0.3594709556591341171 ) ) ;
#207 = DIRECTION ( 'NONE',  ( -0.0000000000000000000, -0.0000000000000000000, -1.000000000000000000 ) ) ;
#208 = UNCERTAINTY_MEASURE_WITH_UNIT (LENGTH_MEASURE( 1.000000000000000082E-05 ), #142, 'distance_accuracy_value', 'NONE');
#209 = AXIS2_PLACEMENT_3D ( 'NONE', #71, #277, #159 ) ;
#210 = ORIENTED_EDGE ( 'NONE', *, *, #67, .F. ) ;
#211 = DIRECTION ( 'NONE',  ( 1.000000000000000000, 0.0000000000000000000, 0.0000000000000000000 ) ) ;
#212 = DIRECTION ( 'NONE',  ( 0.0000000000000000000, 0.0000000000000000000, 1.000000000000000000 ) ) ;
#213 = CARTESIAN_POINT ( 'NONE',  ( 0.0000000000000000000, 0.0000000000000000000, 1.500000000000000222 ) ) ;
#214 =( GEOMETRIC_REPRESENTATION_CONTEXT ( 3 ) GLOBAL_UNCERTAINTY_ASSIGNED_CONTEXT ( ( #140 ) ) GLOBAL_UNIT_ASSIGNED_CONTEXT ( ( #202, #148, #223 ) ) REPRESENTATION_CONTEXT ( 'NONE', 'WORKASPACE' ) );
#215 = VECTOR ( 'NONE', #33, 39.37007874015748143 ) ;
#216 = LENGTH_MEASURE_WITH_UNIT ( LENGTH_MEASURE( 0.02539999999999999897 ), #161 );
#217 = EDGE_CURVE ( 'NONE', #219, #192, #46, .T. ) ;
#218 = CARTESIAN_POINT ( 'NONE',  ( 2.247390034318794663E-34, 0.0000000000000000000, 1.835133228522309201E-18 ) ) ;
#219 = VERTEX_POINT ( 'NONE', #189 ) ;
#220 = CARTESIAN_POINT ( 'NONE',  ( 0.06250000000000002776, 7.654042494670959086E-18, 1.500000000000000222 ) ) ;
#221 = CARTESIAN_POINT ( 'NONE',  ( 2.247390034318794663E-34, 0.0000000000000000000, 1.835133228522309201E-18 ) ) ;
#222 = VECTOR ( 'NONE', #144, 39.37007874015748143 ) ;
#223 =( NAMED_UNIT ( * ) SI_UNIT ( $, .STERADIAN. ) SOLID_ANGLE_UNIT ( ) );
#224 = ORIENTED_EDGE ( 'NONE', *, *, #25, .F. ) ;
#225 = ORIENTED_EDGE ( 'NONE', *, *, #114, .F. ) ;
#226 = ORIENTED_EDGE ( 'NONE', *, *, #131, .T. ) ;
#227 = MECHANICAL_DESIGN_GEOMETRIC_PRESENTATION_REPRESENTATION (  '', ( #56 ), #214 ) ;
#228 = DIRECTION ( 'NONE',  ( 0.0000000000000000000, 0.0000000000000000000, 1.000000000000000000 ) ) ;
#229 = VECTOR ( 'NONE', #111, 39.37007874015748143 ) ;
#230 = CARTESIAN_POINT ( 'NONE',  ( 0.0000000000000000000, 0.0000000000000000000, 1.500000000000000222 ) ) ;
#231 = FACE_OUTER_BOUND ( 'NONE', #105, .T. ) ;
#232 = DIRECTION ( 'NONE',  ( 0.0000000000000000000, 0.0000000000000000000, -1.000000000000000000 ) ) ;
#233 = EDGE_CURVE ( 'NONE', #219, #38, #284, .T. ) ;
#234 = VECTOR ( 'NONE', #99, 39.37007874015748143 ) ;
#235 = CARTESIAN_POINT ( 'NONE',  ( 0.04750000000000064587, 5.817072295950006528E-18, 1.500000000000000222 ) ) ;
#236 =( NAMED_UNIT ( * ) PLANE_ANGLE_UNIT ( ) SI_UNIT ( $, .RADIAN. ) );
#237 = PRODUCT_RELATED_PRODUCT_CATEGORY ( 'part', '', ( #240 ) ) ;
#238 = VECTOR ( 'NONE', #205, 39.37007874015748143 ) ;
#239 = DIRECTION ( 'NONE',  ( -1.224646799147353454E-16, -0.0000000000000000000, -1.000000000000000000 ) ) ;
#240 = PRODUCT ( 'Micro_RME-030-2X', 'Micro_RME-030-2X', '', ( #177 ) ) ;
#241 = ORIENTED_EDGE ( 'NONE', *, *, #233, .T. ) ;
#242 = DIRECTION ( 'NONE',  ( 1.000000000000000000, 0.0000000000000000000, 0.0000000000000000000 ) ) ;
#243 = ORIENTED_EDGE ( 'NONE', *, *, #28, .T. ) ;
#244 = APPLICATION_PROTOCOL_DEFINITION ( 'draft international standard', 'automotive_design', 1998, #204 ) ;
#245 = DIRECTION ( 'NONE',  ( 0.0000000000000000000, 0.0000000000000000000, 1.000000000000000000 ) ) ;
#246 = AXIS2_PLACEMENT_3D ( 'NONE', #218, #170, #164 ) ;
#247 = FACE_OUTER_BOUND ( 'NONE', #36, .T. ) ;
#248 = ORIENTED_EDGE ( 'NONE', *, *, #178, .T. ) ;
#249 = EDGE_CURVE ( 'NONE', #175, #184, #7, .T. ) ;
#250 = AXIS2_PLACEMENT_3D ( 'NONE', #149, #245, #87 ) ;
#251 =( NAMED_UNIT ( * ) SI_UNIT ( $, .STERADIAN. ) SOLID_ANGLE_UNIT ( ) );
#252 = DIRECTION ( 'NONE',  ( -0.1736481776669311916, 2.126576849575783316E-17, 0.9848077530122080203 ) ) ;
#253 = EDGE_CURVE ( 'NONE', #175, #262, #281, .T. ) ;
#254 = SURFACE_STYLE_USAGE ( .BOTH. , #24 ) ;
#255 = ADVANCED_FACE ( 'NONE', ( #80 ), #266, .F. ) ;
#256 = CYLINDRICAL_SURFACE ( 'NONE', #137, 0.01498500000000000006 ) ;
#257 = ADVANCED_FACE ( 'NONE', ( #195 ), #168, .T. ) ;
#258 = DIRECTION ( 'NONE',  ( 0.0000000000000000000, 0.0000000000000000000, -1.000000000000000000 ) ) ;
#259 = APPLICATION_CONTEXT ( 'automotive_design' ) ;
#260 = CARTESIAN_POINT ( 'NONE',  ( 0.01498500000000000006, 1.835133228522308816E-18, -1.835133228522309201E-18 ) ) ;
#261 = AXIS2_PLACEMENT_3D ( 'NONE', #276, #299, #211 ) ;
#262 = VERTEX_POINT ( 'NONE', #263 ) ;
#263 = CARTESIAN_POINT ( 'NONE',  ( 0.06250000000000006939, 7.654042494670963708E-18, 0.3594709556591341171 ) ) ;
#264 = EDGE_LOOP ( 'NONE', ( #96, #60, #268, #166 ) ) ;
#265 = DIMENSIONAL_EXPONENTS ( 1.000000000000000000, 0.0000000000000000000, 0.0000000000000000000, 0.0000000000000000000, 0.0000000000000000000, 0.0000000000000000000, 0.0000000000000000000 ) ;
#266 = PLANE ( 'NONE',  #274 ) ;
#267 = CARTESIAN_POINT ( 'NONE',  ( 1.102182119232618065E-17, 0.0000000000000000000, 0.08999999999999999667 ) ) ;
#268 = ORIENTED_EDGE ( 'NONE', *, *, #67, .T. ) ;
#269 = AXIS2_PLACEMENT_3D ( 'NONE', #37, #6, #9 ) ;
#270 = EDGE_CURVE ( 'NONE', #262, #113, #182, .T. ) ;
#271 = CARTESIAN_POINT ( 'NONE',  ( 0.0000000000000000000, 0.0000000000000000000, 1.500000000000000222 ) ) ;
#272 = CIRCLE ( 'NONE', #250, 0.04750000000000064587 ) ;
#273 = PRESENTATION_STYLE_ASSIGNMENT (( #254 ) ) ;
#274 = AXIS2_PLACEMENT_3D ( 'NONE', #55, #117, #35 ) ;
#275 = DIRECTION ( 'NONE',  ( -1.224646799147353454E-16, -0.0000000000000000000, -1.000000000000000000 ) ) ;
#276 = CARTESIAN_POINT ( 'NONE',  ( 0.0000000000000000000, 0.0000000000000000000, 1.485000000000000764 ) ) ;
#277 = DIRECTION ( 'NONE',  ( -1.224646799147353454E-16, -0.0000000000000000000, -1.000000000000000000 ) ) ;
#278 = EDGE_CURVE ( 'NONE', #219, #262, #53, .T. ) ;
#279 = FACE_OUTER_BOUND ( 'NONE', #138, .T. ) ;
#280 = AXIS2_PLACEMENT_3D ( 'NONE', #54, #97, #186 ) ;
#281 = LINE ( 'NONE', #220, #234 ) ;
#282 = ORIENTED_EDGE ( 'NONE', *, *, #249, .F. ) ;
#283 = PRODUCT_DEFINITION_SHAPE ( 'NONE', 'NONE',  #2 ) ;
#284 = LINE ( 'NONE', #260, #222 ) ;
#285 = EDGE_CURVE ( 'NONE', #16, #38, #90, .T. ) ;
#286 = AXIS2_PLACEMENT_3D ( 'NONE', #288, #239, #120 ) ;
#287 = ORIENTED_EDGE ( 'NONE', *, *, #25, .T. ) ;
#288 = CARTESIAN_POINT ( 'NONE',  ( 0.0000000000000000000, 0.0000000000000000000, 0.0000000000000000000 ) ) ;
#289 = CARTESIAN_POINT ( 'NONE',  ( -0.01498500000000000006, 0.0000000000000000000, 3.670266457044618402E-18 ) ) ;
#290 = EDGE_LOOP ( 'NONE', ( #291, #197, #128, #225 ) ) ;
#291 = ORIENTED_EDGE ( 'NONE', *, *, #42, .F. ) ;
#292 = VECTOR ( 'NONE', #252, 39.37007874015747433 ) ;
#293 = EDGE_CURVE ( 'NONE', #145, #175, #61, .T. ) ;
#294 = APPLICATION_PROTOCOL_DEFINITION ( 'draft international standard', 'automotive_design', 1998, #259 ) ;
#295 = CYLINDRICAL_SURFACE ( 'NONE', #34, 0.06250000000000002776 ) ;
#296 = DIRECTION ( 'NONE',  ( 1.000000000000000000, 0.0000000000000000000, 0.0000000000000000000 ) ) ;
#297 = ADVANCED_FACE ( 'NONE', ( #78 ), #110, .T. ) ;
#298 = AXIS2_PLACEMENT_3D ( 'NONE', #267, #199, #64 ) ;
#299 = DIRECTION ( 'NONE',  ( 0.0000000000000000000, 0.0000000000000000000, -1.000000000000000000 ) ) ;
ENDSEC;
END-ISO-10303-21;
