ISO-10303-21;
HEADER;
FILE_DESCRIPTION (( 'STEP AP214' ),
    '1' );
FILE_NAME ('84409.STEP',
    '2023-06-30T23:26:26',
    ( '' ),
    ( '' ),
    'SwSTEP 2.0',
    'SolidWorks 2023',
    '' );
FILE_SCHEMA (( 'AUTOMOTIVE_DESIGN' ));
ENDSEC;

DATA;
#1 = DIRECTION ( 'NONE',  ( -1.551219278919980663E-16, 1.000000000000000000, -0.000000000000000000 ) ) ;
#2 = SURFACE_STYLE_FILL_AREA ( #372 ) ;
#3 = DIRECTION ( 'NONE',  ( 1.551219278919980663E-16, -1.000000000000000000, 0.000000000000000000 ) ) ;
#4 = PRESENTATION_LAYER_ASSIGNMENT (  '', '', ( #94 ) ) ;
#5 = CIRCLE ( 'NONE', #328, 0.06249999999999969469 ) ;
#6 =( LENGTH_UNIT ( ) NAMED_UNIT ( * ) SI_UNIT ( $, .METRE. ) );
#7 = DIRECTION ( 'NONE',  ( -1.551219278919980663E-16, 1.000000000000000000, -0.000000000000000000 ) ) ;
#8 = CARTESIAN_POINT ( 'NONE',  ( 0.000000000000000000, 0.000000000000000000, 0.000000000000000000 ) ) ;
#9 = DIRECTION ( 'NONE',  ( -0.000000000000000000, -1.000000000000000000, -0.000000000000000000 ) ) ;
#10 = MECHANICAL_DESIGN_GEOMETRIC_PRESENTATION_REPRESENTATION (  '', ( #94 ), #130 ) ;
#11 = AXIS2_PLACEMENT_3D ( 'NONE', #28, #313, #64 ) ;
#12 = FILL_AREA_STYLE ('',( #272 ) ) ;
#13 =( NAMED_UNIT ( * ) SI_UNIT ( $, .STERADIAN. ) SOLID_ANGLE_UNIT ( ) );
#14 = EDGE_CURVE ( 'NONE', #166, #118, #253, .T. ) ;
#15 = PRODUCT_DEFINITION_SHAPE ( 'NONE', 'NONE',  #329 ) ;
#16 = SURFACE_STYLE_FILL_AREA ( #127 ) ;
#17 = FILL_AREA_STYLE_COLOUR ( '', #65 ) ;
#18 = CLOSED_SHELL ( 'NONE', ( #321, #87, #170, #34 ) ) ;
#19 = SURFACE_SIDE_STYLE ('',( #16 ) ) ;
#20 = PRESENTATION_STYLE_ASSIGNMENT (( #111 ) ) ;
#21 = FACE_OUTER_BOUND ( 'NONE', #228, .T. ) ;
#22 = UNCERTAINTY_MEASURE_WITH_UNIT (LENGTH_MEASURE( 1.000000000000000082E-05 ), #151, 'distance_accuracy_value', 'NONE');
#23 = VERTEX_POINT ( 'NONE', #224 ) ;
#24 = SURFACE_STYLE_USAGE ( .BOTH. , #19 ) ;
#25 = ORIENTED_EDGE ( 'NONE', *, *, #213, .F. ) ;
#26 = UNCERTAINTY_MEASURE_WITH_UNIT (LENGTH_MEASURE( 1.000000000000000082E-05 ), #335, 'distance_accuracy_value', 'NONE');
#27 = STYLED_ITEM ( 'NONE', ( #284 ), #242 ) ;
#28 = CARTESIAN_POINT ( 'NONE',  ( -7.654042494670957545E-18, 0.06250000000000001388, 0.000000000000000000 ) ) ;
#29 = ORIENTED_EDGE ( 'NONE', *, *, #231, .F. ) ;
#30 = DIRECTION ( 'NONE',  ( -0.000000000000000000, -1.000000000000000000, -0.000000000000000000 ) ) ;
#31 = ORIENTED_EDGE ( 'NONE', *, *, #340, .T. ) ;
#32 =( GEOMETRIC_REPRESENTATION_CONTEXT ( 3 ) GLOBAL_UNCERTAINTY_ASSIGNED_CONTEXT ( ( #26 ) ) GLOBAL_UNIT_ASSIGNED_CONTEXT ( ( #335, #175, #256 ) ) REPRESENTATION_CONTEXT ( 'NONE', 'WORKASPACE' ) );
#33 = AXIS2_PLACEMENT_3D ( 'NONE', #296, #238, #267 ) ;
#34 = ADVANCED_FACE ( 'NONE', ( #339 ), #195, .F. ) ;
#35 = PRESENTATION_STYLE_ASSIGNMENT (( #38 ) ) ;
#36 = ADVANCED_FACE ( 'NONE', ( #21 ), #294, .T. ) ;
#37 = DIRECTION ( 'NONE',  ( 0.000000000000000000, 0.000000000000000000, -1.000000000000000000 ) ) ;
#38 = SURFACE_STYLE_USAGE ( .BOTH. , #266 ) ;
#39 = VECTOR ( 'NONE', #124, 39.37007874015748143 ) ;
#40 = AXIS2_PLACEMENT_3D ( 'NONE', #263, #178, #205 ) ;
#41 = DIMENSIONAL_EXPONENTS ( 1.000000000000000000, 0.000000000000000000, 0.000000000000000000, 0.000000000000000000, 0.000000000000000000, 0.000000000000000000, 0.000000000000000000 ) ;
#42 = DIRECTION ( 'NONE',  ( -1.551219278919980663E-16, 1.000000000000000000, -0.000000000000000000 ) ) ;
#43 = CARTESIAN_POINT ( 'NONE',  ( 0.000000000000000000, 0.06250000000000002776, 0.000000000000000000 ) ) ;
#44 = DIRECTION ( 'NONE',  ( -0.000000000000000000, -1.000000000000000000, -0.000000000000000000 ) ) ;
#45 = DIRECTION ( 'NONE',  ( -1.551219278919980663E-16, 1.000000000000000000, -0.000000000000000000 ) ) ;
#46 =( GEOMETRIC_REPRESENTATION_CONTEXT ( 3 ) GLOBAL_UNCERTAINTY_ASSIGNED_CONTEXT ( ( #22 ) ) GLOBAL_UNIT_ASSIGNED_CONTEXT ( ( #151, #211, #303 ) ) REPRESENTATION_CONTEXT ( 'NONE', 'WORKASPACE' ) );
#47 = CARTESIAN_POINT ( 'NONE',  ( -6.123233995736766036E-17, 2.500000000000000000, 0.000000000000000000 ) ) ;
#48 =( CONVERSION_BASED_UNIT ( 'INCH', #301 ) LENGTH_UNIT ( ) NAMED_UNIT ( #126 ) );
#49 = MANIFOLD_SOLID_BREP ( 'Revolve - Tool Body (Straight Shanked)', #18 ) ;
#50 = DIMENSIONAL_EXPONENTS ( 1.000000000000000000, 0.000000000000000000, 0.000000000000000000, 0.000000000000000000, 0.000000000000000000, 0.000000000000000000, 0.000000000000000000 ) ;
#51 = SURFACE_SIDE_STYLE ('',( #157 ) ) ;
#52 = MANIFOLD_SOLID_BREP ( 'Revolve - Cutting Edge', #350 ) ;
#53 = MECHANICAL_DESIGN_GEOMETRIC_PRESENTATION_REPRESENTATION (  '', ( #202 ), #46 ) ;
#54 = FACE_OUTER_BOUND ( 'NONE', #283, .T. ) ;
#55 = VERTEX_POINT ( 'NONE', #341 ) ;
#56 = LENGTH_MEASURE_WITH_UNIT ( LENGTH_MEASURE( 0.02539999999999999897 ), #347 );
#57 = CARTESIAN_POINT ( 'NONE',  ( -0.06250000000000001388, 0.06250000000000002776, 7.654042494670957545E-18 ) ) ;
#58 = ORIENTED_EDGE ( 'NONE', *, *, #333, .T. ) ;
#59 = ORIENTED_EDGE ( 'NONE', *, *, #354, .T. ) ;
#60 = UNCERTAINTY_MEASURE_WITH_UNIT (LENGTH_MEASURE( 1.000000000000000082E-05 ), #349, 'distance_accuracy_value', 'NONE');
#61 = AXIS2_PLACEMENT_3D ( 'NONE', #315, #177, #319 ) ;
#62 = ORIENTED_EDGE ( 'NONE', *, *, #182, .T. ) ;
#63 = CARTESIAN_POINT ( 'NONE',  ( 0.000000000000000000, 0.06250000000000002776, -0.06250000000000000000 ) ) ;
#64 = DIRECTION ( 'NONE',  ( 1.000000000000000000, 0.000000000000000000, 0.000000000000000000 ) ) ;
#65 = COLOUR_RGB ( '',0.7921568627450980005, 0.8196078431372548767, 0.9333333333333333481 ) ;
#66 = LENGTH_MEASURE_WITH_UNIT ( LENGTH_MEASURE( 0.02539999999999999897 ), #199 );
#67 = AXIS2_PLACEMENT_3D ( 'NONE', #260, #146, #186 ) ;
#68 =( NAMED_UNIT ( * ) SI_UNIT ( $, .STERADIAN. ) SOLID_ANGLE_UNIT ( ) );
#69 = CARTESIAN_POINT ( 'NONE',  ( 0.000000000000000000, 0.000000000000000000, -0.06249999999999996531 ) ) ;
#70 = DIRECTION ( 'NONE',  ( -0.000000000000000000, -1.000000000000000000, -0.000000000000000000 ) ) ;
#71 = DIRECTION ( 'NONE',  ( -1.000000000000000000, 0.000000000000000000, 0.000000000000000000 ) ) ;
#72 = LENGTH_MEASURE_WITH_UNIT ( LENGTH_MEASURE( 0.02539999999999999897 ), #206 );
#73 = COLOUR_RGB ( '',1.000000000000000000, 0.000000000000000000, 0.000000000000000000 ) ;
#74 = FACE_OUTER_BOUND ( 'NONE', #314, .T. ) ;
#75 = SURFACE_STYLE_FILL_AREA ( #163 ) ;
#76 = PLANE ( 'NONE',  #33 ) ;
#77 = SURFACE_STYLE_FILL_AREA ( #12 ) ;
#78 =( LENGTH_UNIT ( ) NAMED_UNIT ( * ) SI_UNIT ( $, .METRE. ) );
#79 = MECHANICAL_DESIGN_GEOMETRIC_PRESENTATION_REPRESENTATION (  '', ( #137 ), #371 ) ;
#80 = FILL_AREA_STYLE ('',( #106 ) ) ;
#81 = CARTESIAN_POINT ( 'NONE',  ( -6.123233995736766036E-17, 2.500000000000000000, 0.000000000000000000 ) ) ;
#82 = PRESENTATION_LAYER_ASSIGNMENT (  '', '', ( #137 ) ) ;
#83 = SURFACE_STYLE_USAGE ( .BOTH. , #365 ) ;
#84 = EDGE_LOOP ( 'NONE', ( #116, #135 ) ) ;
#85 = DIRECTION ( 'NONE',  ( -1.000000000000000000, -1.551219278919980663E-16, 0.000000000000000000 ) ) ;
#86 = ORIENTED_EDGE ( 'NONE', *, *, #182, .F. ) ;
#87 = ADVANCED_FACE ( 'NONE', ( #168 ), #194, .F. ) ;
#88 = ORIENTED_EDGE ( 'NONE', *, *, #292, .F. ) ;
#89 = EDGE_LOOP ( 'NONE', ( #88, #58, #279, #25 ) ) ;
#90 = AXIS2_PLACEMENT_3D ( 'NONE', #8, #112, #108 ) ;
#91 = CARTESIAN_POINT ( 'NONE',  ( 0.000000000000000000, 0.6250000000000000000, 0.000000000000000000 ) ) ;
#92 = EDGE_LOOP ( 'NONE', ( #197, #120 ) ) ;
#93 =( CONVERSION_BASED_UNIT ( 'INCH', #72 ) LENGTH_UNIT ( ) NAMED_UNIT ( #129 ) );
#94 = STYLED_ITEM ( 'NONE', ( #364 ), #36 ) ;
#95 = COLOUR_RGB ( '',1.000000000000000000, 0.000000000000000000, 0.000000000000000000 ) ;
#96 = CARTESIAN_POINT ( 'NONE',  ( 0.06249999999999993755, 2.500000000000000000, 0.000000000000000000 ) ) ;
#97 = FILL_AREA_STYLE_COLOUR ( '', #158 ) ;
#98 = APPLICATION_PROTOCOL_DEFINITION ( 'draft international standard', 'automotive_design', 1998, #99 ) ;
#99 = APPLICATION_CONTEXT ( 'automotive_design' ) ;
#100 = VECTOR ( 'NONE', #44, 39.37007874015748143 ) ;
#101 = LINE ( 'NONE', #208, #100 ) ;
#102 = FILL_AREA_STYLE ('',( #17 ) ) ;
#103 = EDGE_CURVE ( 'NONE', #121, #105, #150, .T. ) ;
#104 = CARTESIAN_POINT ( 'NONE',  ( 0.06250000000000000000, 0.06250000000000002776, 0.000000000000000000 ) ) ;
#105 = VERTEX_POINT ( 'NONE', #227 ) ;
#106 = FILL_AREA_STYLE_COLOUR ( '', #179 ) ;
#107 = CARTESIAN_POINT ( 'NONE',  ( 2.296212748401286986E-16, 0.6250000000000000000, 0.000000000000000000 ) ) ;
#108 = DIRECTION ( 'NONE',  ( 0.000000000000000000, 0.000000000000000000, -1.000000000000000000 ) ) ;
#109 = AXIS2_PLACEMENT_3D ( 'NONE', #281, #322, #317 ) ;
#110 = AXIS2_PLACEMENT_3D ( 'NONE', #239, #264, #188 ) ;
#111 = SURFACE_STYLE_USAGE ( .BOTH. , #278 ) ;
#112 = DIRECTION ( 'NONE',  ( -0.000000000000000000, -1.000000000000000000, -0.000000000000000000 ) ) ;
#113 = CARTESIAN_POINT ( 'NONE',  ( -0.06249999999999945877, 0.6250000000000000000, 0.000000000000000000 ) ) ;
#114 = STYLED_ITEM ( 'NONE', ( #252 ), #52 ) ;
#115 =( GEOMETRIC_REPRESENTATION_CONTEXT ( 3 ) GLOBAL_UNCERTAINTY_ASSIGNED_CONTEXT ( ( #148 ) ) GLOBAL_UNIT_ASSIGNED_CONTEXT ( ( #147, #233, #355 ) ) REPRESENTATION_CONTEXT ( 'NONE', 'WORKASPACE' ) );
#116 = ORIENTED_EDGE ( 'NONE', *, *, #326, .F. ) ;
#117 = DIRECTION ( 'NONE',  ( -1.551219278919980663E-16, 1.000000000000000000, -0.000000000000000000 ) ) ;
#118 = VERTEX_POINT ( 'NONE', #369 ) ;
#119 = DIRECTION ( 'NONE',  ( -1.000000000000000000, 0.000000000000000000, 0.000000000000000000 ) ) ;
#120 = ORIENTED_EDGE ( 'NONE', *, *, #103, .F. ) ;
#121 = VERTEX_POINT ( 'NONE', #312 ) ;
#122 = PRESENTATION_LAYER_ASSIGNMENT (  '', '', ( #202 ) ) ;
#123 = VECTOR ( 'NONE', #45, 39.37007874015748143 ) ;
#124 = DIRECTION ( 'NONE',  ( -0.000000000000000000, -1.000000000000000000, -0.000000000000000000 ) ) ;
#125 = AXIS2_PLACEMENT_3D ( 'NONE', #154, #7, #357 ) ;
#126 = DIMENSIONAL_EXPONENTS ( 1.000000000000000000, 0.000000000000000000, 0.000000000000000000, 0.000000000000000000, 0.000000000000000000, 0.000000000000000000, 0.000000000000000000 ) ;
#127 = FILL_AREA_STYLE ('',( #271 ) ) ;
#128 = CARTESIAN_POINT ( 'NONE',  ( -7.654042494670957545E-18, 0.06250000000000001388, 0.000000000000000000 ) ) ;
#129 = DIMENSIONAL_EXPONENTS ( 1.000000000000000000, 0.000000000000000000, 0.000000000000000000, 0.000000000000000000, 0.000000000000000000, 0.000000000000000000, 0.000000000000000000 ) ;
#130 =( GEOMETRIC_REPRESENTATION_CONTEXT ( 3 ) GLOBAL_UNCERTAINTY_ASSIGNED_CONTEXT ( ( #304 ) ) GLOBAL_UNIT_ASSIGNED_CONTEXT ( ( #332, #217, #13 ) ) REPRESENTATION_CONTEXT ( 'NONE', 'WORKASPACE' ) );
#131 = PRODUCT_DEFINITION_FORMATION_WITH_SPECIFIED_SOURCE ( 'ANY', '', #247, .NOT_KNOWN. ) ;
#132 = APPLICATION_CONTEXT ( 'automotive_design' ) ;
#133 = CARTESIAN_POINT ( 'NONE',  ( -7.654042494670957545E-18, 0.06250000000000001388, 0.000000000000000000 ) ) ;
#134 = ORIENTED_EDGE ( 'NONE', *, *, #295, .T. ) ;
#135 = ORIENTED_EDGE ( 'NONE', *, *, #333, .F. ) ;
#136 = PRESENTATION_STYLE_ASSIGNMENT (( #24 ) ) ;
#137 = STYLED_ITEM ( 'NONE', ( #35 ), #311 ) ;
#138 = PRESENTATION_LAYER_ASSIGNMENT (  '', '', ( #174 ) ) ;
#139 = ORIENTED_EDGE ( 'NONE', *, *, #326, .T. ) ;
#140 = VERTEX_POINT ( 'NONE', #57 ) ;
#141 = DIRECTION ( 'NONE',  ( 0.000000000000000000, 0.000000000000000000, -1.000000000000000000 ) ) ;
#142 = EDGE_CURVE ( 'NONE', #265, #348, #221, .T. ) ;
#143 = ORIENTED_EDGE ( 'NONE', *, *, #354, .F. ) ;
#144 = AXIS2_PLACEMENT_3D ( 'NONE', #286, #185, #373 ) ;
#145 = CIRCLE ( 'NONE', #152, 0.06250000000000001388 ) ;
#146 = DIRECTION ( 'NONE',  ( -0.000000000000000000, -1.000000000000000000, -0.000000000000000000 ) ) ;
#147 =( CONVERSION_BASED_UNIT ( 'INCH', #66 ) LENGTH_UNIT ( ) NAMED_UNIT ( #243 ) );
#148 = UNCERTAINTY_MEASURE_WITH_UNIT (LENGTH_MEASURE( 1.000000000000000082E-05 ), #147, 'distance_accuracy_value', 'NONE');
#149 = LINE ( 'NONE', #69, #39 ) ;
#150 = CIRCLE ( 'NONE', #207, 0.06249999999999992367 ) ;
#151 =( CONVERSION_BASED_UNIT ( 'INCH', #220 ) LENGTH_UNIT ( ) NAMED_UNIT ( #249 ) );
#152 = AXIS2_PLACEMENT_3D ( 'NONE', #324, #156, #189 ) ;
#153 =( CONVERSION_BASED_UNIT ( 'INCH', #232 ) LENGTH_UNIT ( ) NAMED_UNIT ( #209 ) );
#154 = CARTESIAN_POINT ( 'NONE',  ( 2.296212748401286986E-16, 0.6250000000000000000, 0.000000000000000000 ) ) ;
#155 = DIRECTION ( 'NONE',  ( 0.000000000000000000, 0.000000000000000000, 1.000000000000000000 ) ) ;
#156 = DIRECTION ( 'NONE',  ( 1.224646799147353207E-16, -0.000000000000000000, 1.000000000000000000 ) ) ;
#157 = SURFACE_STYLE_FILL_AREA ( #102 ) ;
#158 = COLOUR_RGB ( '',1.000000000000000000, 0.000000000000000000, 0.000000000000000000 ) ;
#159 = DIRECTION ( 'NONE',  ( 0.000000000000000000, 0.000000000000000000, -1.000000000000000000 ) ) ;
#160 = FACE_OUTER_BOUND ( 'NONE', #336, .T. ) ;
#161 = SPHERICAL_SURFACE ( 'NONE', #310, 0.06250000000000001388 ) ;
#162 = DIRECTION ( 'NONE',  ( -1.000000000000000000, 0.000000000000000000, 0.000000000000000000 ) ) ;
#163 = FILL_AREA_STYLE ('',( #358 ) ) ;
#164 = LENGTH_MEASURE_WITH_UNIT ( LENGTH_MEASURE( 0.02539999999999999897 ), #216 );
#165 = CARTESIAN_POINT ( 'NONE',  ( 2.296212748401287479E-16, 0.6250000000000000000, 0.000000000000000000 ) ) ;
#166 = VERTEX_POINT ( 'NONE', #113 ) ;
#167 = ORIENTED_EDGE ( 'NONE', *, *, #262, .F. ) ;
#168 = FACE_OUTER_BOUND ( 'NONE', #84, .T. ) ;
#169 = VERTEX_POINT ( 'NONE', #63 ) ;
#170 = ADVANCED_FACE ( 'NONE', ( #259 ), #171, .T. ) ;
#171 = CYLINDRICAL_SURFACE ( 'NONE', #109, 0.06249999999999984734 ) ;
#172 = CARTESIAN_POINT ( 'NONE',  ( -0.06249999999999990286, 2.500000000000000000, 0.000000000000000000 ) ) ;
#173 = VECTOR ( 'NONE', #117, 39.37007874015748143 ) ;
#174 = STYLED_ITEM ( 'NONE', ( #20 ), #300 ) ;
#175 =( NAMED_UNIT ( * ) PLANE_ANGLE_UNIT ( ) SI_UNIT ( $, .RADIAN. ) );
#176 = ORIENTED_EDGE ( 'NONE', *, *, #142, .T. ) ;
#177 = DIRECTION ( 'NONE',  ( -0.000000000000000000, -1.000000000000000000, -0.000000000000000000 ) ) ;
#178 = DIRECTION ( 'NONE',  ( -0.000000000000000000, -1.000000000000000000, -0.000000000000000000 ) ) ;
#179 = COLOUR_RGB ( '',0.7921568627450980005, 0.8196078431372548767, 0.9333333333333333481 ) ;
#180 = MECHANICAL_DESIGN_GEOMETRIC_PRESENTATION_REPRESENTATION (  '', ( #174 ), #287 ) ;
#181 = FILL_AREA_STYLE_COLOUR ( '', #73 ) ;
#182 = EDGE_CURVE ( 'NONE', #169, #265, #316, .T. ) ;
#183 =( NAMED_UNIT ( * ) SI_UNIT ( $, .STERADIAN. ) SOLID_ANGLE_UNIT ( ) );
#184 = FACE_OUTER_BOUND ( 'NONE', #251, .T. ) ;
#185 = DIRECTION ( 'NONE',  ( -1.551219278919980663E-16, 1.000000000000000000, -0.000000000000000000 ) ) ;
#186 = DIRECTION ( 'NONE',  ( 0.000000000000000000, 0.000000000000000000, -1.000000000000000000 ) ) ;
#187 = CYLINDRICAL_SURFACE ( 'NONE', #290, 0.06249999999999984734 ) ;
#188 = DIRECTION ( 'NONE',  ( 1.000000000000000000, 0.000000000000000000, 0.000000000000000000 ) ) ;
#189 = DIRECTION ( 'NONE',  ( 1.000000000000000000, 0.000000000000000000, -1.224646799147353207E-16 ) ) ;
#190 = CIRCLE ( 'NONE', #250, 0.06250000000000000000 ) ;
#191 = SURFACE_STYLE_FILL_AREA ( #80 ) ;
#192 = ORIENTED_EDGE ( 'NONE', *, *, #308, .T. ) ;
#193 = VERTEX_POINT ( 'NONE', #356 ) ;
#194 = PLANE ( 'NONE',  #327 ) ;
#195 = PLANE ( 'NONE',  #225 ) ;
#196 = AXIS2_PLACEMENT_3D ( 'NONE', #133, #141, #119 ) ;
#197 = ORIENTED_EDGE ( 'NONE', *, *, #212, .F. ) ;
#198 = DIRECTION ( 'NONE',  ( -0.000000000000000000, -1.000000000000000000, -0.000000000000000000 ) ) ;
#199 =( LENGTH_UNIT ( ) NAMED_UNIT ( * ) SI_UNIT ( $, .METRE. ) );
#200 = PRODUCT_CONTEXT ( 'NONE', #99, 'mechanical' ) ;
#201 = UNCERTAINTY_MEASURE_WITH_UNIT (LENGTH_MEASURE( 1.000000000000000082E-05 ), #153, 'distance_accuracy_value', 'NONE');
#202 = STYLED_ITEM ( 'NONE', ( #241 ), #49 ) ;
#203 = AXIS2_PLACEMENT_3D ( 'NONE', #81, #1, #71 ) ;
#204 = FACE_OUTER_BOUND ( 'NONE', #92, .T. ) ;
#205 = DIRECTION ( 'NONE',  ( 0.000000000000000000, 0.000000000000000000, -1.000000000000000000 ) ) ;
#206 =( LENGTH_UNIT ( ) NAMED_UNIT ( * ) SI_UNIT ( $, .METRE. ) );
#207 = AXIS2_PLACEMENT_3D ( 'NONE', #91, #30, #370 ) ;
#208 = CARTESIAN_POINT ( 'NONE',  ( 7.654042494670954463E-18, 0.000000000000000000, 0.06249999999999996531 ) ) ;
#209 = DIMENSIONAL_EXPONENTS ( 1.000000000000000000, 0.000000000000000000, 0.000000000000000000, 0.000000000000000000, 0.000000000000000000, 0.000000000000000000, 0.000000000000000000 ) ;
#210 = DIRECTION ( 'NONE',  ( 0.000000000000000000, 0.000000000000000000, -1.000000000000000000 ) ) ;
#211 =( NAMED_UNIT ( * ) PLANE_ANGLE_UNIT ( ) SI_UNIT ( $, .RADIAN. ) );
#212 = EDGE_CURVE ( 'NONE', #105, #121, #261, .T. ) ;
#213 = EDGE_CURVE ( 'NONE', #193, #118, #361, .T. ) ;
#214 =( NAMED_UNIT ( * ) SI_UNIT ( $, .STERADIAN. ) SOLID_ANGLE_UNIT ( ) );
#215 = SURFACE_SIDE_STYLE ('',( #75 ) ) ;
#216 =( LENGTH_UNIT ( ) NAMED_UNIT ( * ) SI_UNIT ( $, .METRE. ) );
#217 =( NAMED_UNIT ( * ) PLANE_ANGLE_UNIT ( ) SI_UNIT ( $, .RADIAN. ) );
#218 = SURFACE_STYLE_USAGE ( .BOTH. , #246 ) ;
#219 = ORIENTED_EDGE ( 'NONE', *, *, #213, .T. ) ;
#220 = LENGTH_MEASURE_WITH_UNIT ( LENGTH_MEASURE( 0.02539999999999999897 ), #245 );
#221 = CIRCLE ( 'NONE', #196, 0.06250000000000001388 ) ;
#222 = MECHANICAL_DESIGN_GEOMETRIC_PRESENTATION_REPRESENTATION (  '', ( #362 ), #240 ) ;
#223 = ORIENTED_EDGE ( 'NONE', *, *, #340, .F. ) ;
#224 = CARTESIAN_POINT ( 'NONE',  ( 0.06249999999999992367, 0.6250000000000000000, 7.654042494670946760E-18 ) ) ;
#225 = AXIS2_PLACEMENT_3D ( 'NONE', #96, #3, #276 ) ;
#226 =( GEOMETRIC_REPRESENTATION_CONTEXT ( 3 ) GLOBAL_UNCERTAINTY_ASSIGNED_CONTEXT ( ( #60 ) ) GLOBAL_UNIT_ASSIGNED_CONTEXT ( ( #349, #323, #360 ) ) REPRESENTATION_CONTEXT ( 'NONE', 'WORKASPACE' ) );
#227 = CARTESIAN_POINT ( 'NONE',  ( 0.000000000000000000, 0.6250000000000000000, -0.06249999999999992367 ) ) ;
#228 = EDGE_LOOP ( 'NONE', ( #257, #31, #167, #86, #307 ) ) ;
#229 = EDGE_CURVE ( 'NONE', #105, #169, #149, .T. ) ;
#230 = CARTESIAN_POINT ( 'NONE',  ( 0.000000000000000000, 0.06250000000000002776, 0.000000000000000000 ) ) ;
#231 = EDGE_CURVE ( 'NONE', #55, #140, #248, .T. ) ;
#232 = LENGTH_MEASURE_WITH_UNIT ( LENGTH_MEASURE( 0.02539999999999999897 ), #6 );
#233 =( NAMED_UNIT ( * ) PLANE_ANGLE_UNIT ( ) SI_UNIT ( $, .RADIAN. ) );
#234 = COLOUR_RGB ( '',1.000000000000000000, 0.000000000000000000, 0.000000000000000000 ) ;
#235 = CIRCLE ( 'NONE', #203, 0.06250000000000000000 ) ;
#236 = ORIENTED_EDGE ( 'NONE', *, *, #262, .T. ) ;
#237 = SHAPE_DEFINITION_REPRESENTATION ( #15, #345 ) ;
#238 = DIRECTION ( 'NONE',  ( 0.000000000000000000, 1.000000000000000000, 0.000000000000000000 ) ) ;
#239 = CARTESIAN_POINT ( 'NONE',  ( 0.000000000000000000, 0.000000000000000000, 0.000000000000000000 ) ) ;
#240 =( GEOMETRIC_REPRESENTATION_CONTEXT ( 3 ) GLOBAL_UNCERTAINTY_ASSIGNED_CONTEXT ( ( #255 ) ) GLOBAL_UNIT_ASSIGNED_CONTEXT ( ( #93, #318, #183 ) ) REPRESENTATION_CONTEXT ( 'NONE', 'WORKASPACE' ) );
#241 = PRESENTATION_STYLE_ASSIGNMENT (( #299 ) ) ;
#242 = ADVANCED_FACE ( 'NONE', ( #184 ), #161, .T. ) ;
#243 = DIMENSIONAL_EXPONENTS ( 1.000000000000000000, 0.000000000000000000, 0.000000000000000000, 0.000000000000000000, 0.000000000000000000, 0.000000000000000000, 0.000000000000000000 ) ;
#244 =( NAMED_UNIT ( * ) PLANE_ANGLE_UNIT ( ) SI_UNIT ( $, .RADIAN. ) );
#245 =( LENGTH_UNIT ( ) NAMED_UNIT ( * ) SI_UNIT ( $, .METRE. ) );
#246 = SURFACE_SIDE_STYLE ('',( #2 ) ) ;
#247 = PRODUCT ( '84409', '84409', '', ( #200 ) ) ;
#248 = CIRCLE ( 'NONE', #277, 0.06250000000000000000 ) ;
#249 = DIMENSIONAL_EXPONENTS ( 1.000000000000000000, 0.000000000000000000, 0.000000000000000000, 0.000000000000000000, 0.000000000000000000, 0.000000000000000000, 0.000000000000000000 ) ;
#250 = AXIS2_PLACEMENT_3D ( 'NONE', #43, #9, #210 ) ;
#251 = EDGE_LOOP ( 'NONE', ( #366, #134, #285, #236 ) ) ;
#252 = PRESENTATION_STYLE_ASSIGNMENT (( #83 ) ) ;
#253 = LINE ( 'NONE', #172, #173 ) ;
#254 = AXIS2_PLACEMENT_3D ( 'NONE', #289, #70, #37 ) ;
#255 = UNCERTAINTY_MEASURE_WITH_UNIT (LENGTH_MEASURE( 1.000000000000000082E-05 ), #93, 'distance_accuracy_value', 'NONE');
#256 =( NAMED_UNIT ( * ) SI_UNIT ( $, .STERADIAN. ) SOLID_ANGLE_UNIT ( ) );
#257 = ORIENTED_EDGE ( 'NONE', *, *, #212, .T. ) ;
#258 = UNCERTAINTY_MEASURE_WITH_UNIT (LENGTH_MEASURE( 1.000000000000000082E-05 ), #48, 'distance_accuracy_value', 'NONE');
#259 = FACE_OUTER_BOUND ( 'NONE', #89, .T. ) ;
#260 = CARTESIAN_POINT ( 'NONE',  ( 0.000000000000000000, 0.06250000000000002776, 0.000000000000000000 ) ) ;
#261 = CIRCLE ( 'NONE', #61, 0.06249999999999992367 ) ;
#262 = EDGE_CURVE ( 'NONE', #265, #55, #190, .T. ) ;
#263 = CARTESIAN_POINT ( 'NONE',  ( 0.000000000000000000, 0.000000000000000000, 0.000000000000000000 ) ) ;
#264 = DIRECTION ( 'NONE',  ( 0.000000000000000000, 0.000000000000000000, 1.000000000000000000 ) ) ;
#265 = VERTEX_POINT ( 'NONE', #104 ) ;
#266 = SURFACE_SIDE_STYLE ('',( #288 ) ) ;
#267 = DIRECTION ( 'NONE',  ( 0.000000000000000000, -0.000000000000000000, 1.000000000000000000 ) ) ;
#268 =( NAMED_UNIT ( * ) PLANE_ANGLE_UNIT ( ) SI_UNIT ( $, .RADIAN. ) );
#269 = DIRECTION ( 'NONE',  ( 1.000000000000000000, 0.000000000000000000, 0.000000000000000000 ) ) ;
#270 = PRESENTATION_LAYER_ASSIGNMENT (  '', '', ( #362 ) ) ;
#271 = FILL_AREA_STYLE_COLOUR ( '', #95 ) ;
#272 = FILL_AREA_STYLE_COLOUR ( '', #298 ) ;
#273 = CYLINDRICAL_SURFACE ( 'NONE', #40, 0.06249999999999996531 ) ;
#274 = LINE ( 'NONE', #306, #123 ) ;
#275 = ORIENTED_EDGE ( 'NONE', *, *, #292, .T. ) ;
#276 = DIRECTION ( 'NONE',  ( 1.000000000000000000, 1.551219278919980663E-16, 0.000000000000000000 ) ) ;
#277 = AXIS2_PLACEMENT_3D ( 'NONE', #230, #198, #159 ) ;
#278 = SURFACE_SIDE_STYLE ('',( #77 ) ) ;
#279 = ORIENTED_EDGE ( 'NONE', *, *, #14, .T. ) ;
#280 = ORIENTED_EDGE ( 'NONE', *, *, #103, .T. ) ;
#281 = CARTESIAN_POINT ( 'NONE',  ( -6.123233995736766036E-17, 2.500000000000000000, 0.000000000000000000 ) ) ;
#282 = EDGE_LOOP ( 'NONE', ( #192, #219 ) ) ;
#283 = EDGE_LOOP ( 'NONE', ( #368, #59, #62, #176 ) ) ;
#284 = PRESENTATION_STYLE_ASSIGNMENT (( #218 ) ) ;
#285 = ORIENTED_EDGE ( 'NONE', *, *, #142, .F. ) ;
#286 = CARTESIAN_POINT ( 'NONE',  ( -6.123233995736766036E-17, 2.500000000000000000, 0.000000000000000000 ) ) ;
#287 =( GEOMETRIC_REPRESENTATION_CONTEXT ( 3 ) GLOBAL_UNCERTAINTY_ASSIGNED_CONTEXT ( ( #258 ) ) GLOBAL_UNIT_ASSIGNED_CONTEXT ( ( #48, #244, #214 ) ) REPRESENTATION_CONTEXT ( 'NONE', 'WORKASPACE' ) );
#288 = SURFACE_STYLE_FILL_AREA ( #291 ) ;
#289 = CARTESIAN_POINT ( 'NONE',  ( 0.000000000000000000, 0.06250000000000002776, 0.000000000000000000 ) ) ;
#290 = AXIS2_PLACEMENT_3D ( 'NONE', #47, #293, #162 ) ;
#291 = FILL_AREA_STYLE ('',( #181 ) ) ;
#292 = EDGE_CURVE ( 'NONE', #23, #193, #274, .T. ) ;
#293 = DIRECTION ( 'NONE',  ( -1.551219278919980663E-16, 1.000000000000000000, -0.000000000000000000 ) ) ;
#294 = CYLINDRICAL_SURFACE ( 'NONE', #90, 0.06249999999999996531 ) ;
#295 = EDGE_CURVE ( 'NONE', #140, #348, #145, .T. ) ;
#296 = CARTESIAN_POINT ( 'NONE',  ( 0.000000000000000000, 0.6250000000000000000, 0.000000000000000000 ) ) ;
#297 = DIMENSIONAL_EXPONENTS ( 1.000000000000000000, 0.000000000000000000, 0.000000000000000000, 0.000000000000000000, 0.000000000000000000, 0.000000000000000000, 0.000000000000000000 ) ;
#298 = COLOUR_RGB ( '',1.000000000000000000, 0.000000000000000000, 0.000000000000000000 ) ;
#299 = SURFACE_STYLE_USAGE ( .BOTH. , #51 ) ;
#300 = ADVANCED_FACE ( 'NONE', ( #54 ), #330, .T. ) ;
#301 = LENGTH_MEASURE_WITH_UNIT ( LENGTH_MEASURE( 0.02539999999999999897 ), #359 );
#302 = PRODUCT_RELATED_PRODUCT_CATEGORY ( 'part', '', ( #247 ) ) ;
#303 =( NAMED_UNIT ( * ) SI_UNIT ( $, .STERADIAN. ) SOLID_ANGLE_UNIT ( ) );
#304 = UNCERTAINTY_MEASURE_WITH_UNIT (LENGTH_MEASURE( 1.000000000000000082E-05 ), #332, 'distance_accuracy_value', 'NONE');
#305 = PRESENTATION_LAYER_ASSIGNMENT (  '', '', ( #114 ) ) ;
#306 = CARTESIAN_POINT ( 'NONE',  ( 0.06249999999999978489, 2.500000000000000000, 7.654042494670939056E-18 ) ) ;
#307 = ORIENTED_EDGE ( 'NONE', *, *, #229, .F. ) ;
#308 = EDGE_CURVE ( 'NONE', #118, #193, #235, .T. ) ;
#309 = DIRECTION ( 'NONE',  ( -1.551219278919980663E-16, 1.000000000000000000, 0.000000000000000000 ) ) ;
#310 = AXIS2_PLACEMENT_3D ( 'NONE', #128, #155, #269 ) ;
#311 = ADVANCED_FACE ( 'NONE', ( #204 ), #76, .T. ) ;
#312 = CARTESIAN_POINT ( 'NONE',  ( 7.654042494670949841E-18, 0.6250000000000000000, 0.06249999999999992367 ) ) ;
#313 = DIRECTION ( 'NONE',  ( 0.000000000000000000, 0.000000000000000000, 1.000000000000000000 ) ) ;
#314 = EDGE_LOOP ( 'NONE', ( #139, #275, #346, #337 ) ) ;
#315 = CARTESIAN_POINT ( 'NONE',  ( 0.000000000000000000, 0.6250000000000000000, 0.000000000000000000 ) ) ;
#316 = CIRCLE ( 'NONE', #254, 0.06250000000000000000 ) ;
#317 = DIRECTION ( 'NONE',  ( -1.000000000000000000, 0.000000000000000000, 0.000000000000000000 ) ) ;
#318 =( NAMED_UNIT ( * ) PLANE_ANGLE_UNIT ( ) SI_UNIT ( $, .RADIAN. ) );
#319 = DIRECTION ( 'NONE',  ( 0.000000000000000000, 0.000000000000000000, -1.000000000000000000 ) ) ;
#320 = CARTESIAN_POINT ( 'NONE',  ( -3.827021247335478002E-18, 0.000000000000000000, 0.000000000000000000 ) ) ;
#321 = ADVANCED_FACE ( 'NONE', ( #74 ), #187, .T. ) ;
#322 = DIRECTION ( 'NONE',  ( -1.551219278919980663E-16, 1.000000000000000000, -0.000000000000000000 ) ) ;
#323 =( NAMED_UNIT ( * ) PLANE_ANGLE_UNIT ( ) SI_UNIT ( $, .RADIAN. ) );
#324 = CARTESIAN_POINT ( 'NONE',  ( -7.654042494670957545E-18, 0.06250000000000001388, 0.000000000000000000 ) ) ;
#325 = LENGTH_MEASURE_WITH_UNIT ( LENGTH_MEASURE( 0.02539999999999999897 ), #78 );
#326 = EDGE_CURVE ( 'NONE', #166, #23, #5, .T. ) ;
#327 = AXIS2_PLACEMENT_3D ( 'NONE', #165, #309, #85 ) ;
#328 = AXIS2_PLACEMENT_3D ( 'NONE', #107, #42, #363 ) ;
#329 = PRODUCT_DEFINITION ( 'UNKNOWN', '', #131, #338 ) ;
#330 = SPHERICAL_SURFACE ( 'NONE', #11, 0.06250000000000001388 ) ;
#331 = SURFACE_STYLE_USAGE ( .BOTH. , #215 ) ;
#332 =( CONVERSION_BASED_UNIT ( 'INCH', #325 ) LENGTH_UNIT ( ) NAMED_UNIT ( #50 ) );
#333 = EDGE_CURVE ( 'NONE', #23, #166, #353, .T. ) ;
#334 = MECHANICAL_DESIGN_GEOMETRIC_PRESENTATION_REPRESENTATION (  '', ( #27 ), #226 ) ;
#335 =( CONVERSION_BASED_UNIT ( 'INCH', #56 ) LENGTH_UNIT ( ) NAMED_UNIT ( #297 ) );
#336 = EDGE_LOOP ( 'NONE', ( #223, #280, #342, #143, #29 ) ) ;
#337 = ORIENTED_EDGE ( 'NONE', *, *, #14, .F. ) ;
#338 = PRODUCT_DEFINITION_CONTEXT ( 'detailed design', #132, 'design' ) ;
#339 = FACE_OUTER_BOUND ( 'NONE', #282, .T. ) ;
#340 = EDGE_CURVE ( 'NONE', #121, #55, #101, .T. ) ;
#341 = CARTESIAN_POINT ( 'NONE',  ( 7.654042494670957545E-18, 0.06250000000000002776, 0.06249999999999999306 ) ) ;
#342 = ORIENTED_EDGE ( 'NONE', *, *, #229, .T. ) ;
#343 = MECHANICAL_DESIGN_GEOMETRIC_PRESENTATION_REPRESENTATION (  '', ( #114 ), #32 ) ;
#344 = ADVANCED_FACE ( 'NONE', ( #160 ), #273, .T. ) ;
#345 = ADVANCED_BREP_SHAPE_REPRESENTATION ( '84409', ( #52, #49, #110 ), #115 ) ;
#346 = ORIENTED_EDGE ( 'NONE', *, *, #308, .F. ) ;
#347 =( LENGTH_UNIT ( ) NAMED_UNIT ( * ) SI_UNIT ( $, .METRE. ) );
#348 = VERTEX_POINT ( 'NONE', #320 ) ;
#349 =( CONVERSION_BASED_UNIT ( 'INCH', #164 ) LENGTH_UNIT ( ) NAMED_UNIT ( #41 ) );
#350 = CLOSED_SHELL ( 'NONE', ( #242, #36, #311, #344, #300 ) ) ;
#351 = APPLICATION_PROTOCOL_DEFINITION ( 'draft international standard', 'automotive_design', 1998, #132 ) ;
#352 = CIRCLE ( 'NONE', #67, 0.06250000000000000000 ) ;
#353 = CIRCLE ( 'NONE', #125, 0.06249999999999969469 ) ;
#354 = EDGE_CURVE ( 'NONE', #140, #169, #352, .T. ) ;
#355 =( NAMED_UNIT ( * ) SI_UNIT ( $, .STERADIAN. ) SOLID_ANGLE_UNIT ( ) );
#356 = CARTESIAN_POINT ( 'NONE',  ( 0.06249999999999995143, 2.500000000000000000, 7.654042494670948300E-18 ) ) ;
#357 = DIRECTION ( 'NONE',  ( -1.000000000000000000, 0.000000000000000000, 0.000000000000000000 ) ) ;
#358 = FILL_AREA_STYLE_COLOUR ( '', #234 ) ;
#359 =( LENGTH_UNIT ( ) NAMED_UNIT ( * ) SI_UNIT ( $, .METRE. ) );
#360 =( NAMED_UNIT ( * ) SI_UNIT ( $, .STERADIAN. ) SOLID_ANGLE_UNIT ( ) );
#361 = CIRCLE ( 'NONE', #144, 0.06250000000000000000 ) ;
#362 = STYLED_ITEM ( 'NONE', ( #136 ), #344 ) ;
#363 = DIRECTION ( 'NONE',  ( -1.000000000000000000, 0.000000000000000000, 0.000000000000000000 ) ) ;
#364 = PRESENTATION_STYLE_ASSIGNMENT (( #331 ) ) ;
#365 = SURFACE_SIDE_STYLE ('',( #191 ) ) ;
#366 = ORIENTED_EDGE ( 'NONE', *, *, #231, .T. ) ;
#367 = PRESENTATION_LAYER_ASSIGNMENT (  '', '', ( #27 ) ) ;
#368 = ORIENTED_EDGE ( 'NONE', *, *, #295, .F. ) ;
#369 = CARTESIAN_POINT ( 'NONE',  ( -0.06250000000000005551, 2.500000000000000000, 0.000000000000000000 ) ) ;
#370 = DIRECTION ( 'NONE',  ( 0.000000000000000000, 0.000000000000000000, -1.000000000000000000 ) ) ;
#371 =( GEOMETRIC_REPRESENTATION_CONTEXT ( 3 ) GLOBAL_UNCERTAINTY_ASSIGNED_CONTEXT ( ( #201 ) ) GLOBAL_UNIT_ASSIGNED_CONTEXT ( ( #153, #268, #68 ) ) REPRESENTATION_CONTEXT ( 'NONE', 'WORKASPACE' ) );
#372 = FILL_AREA_STYLE ('',( #97 ) ) ;
#373 = DIRECTION ( 'NONE',  ( -1.000000000000000000, 0.000000000000000000, 0.000000000000000000 ) ) ;
ENDSEC;
END-ISO-10303-21;
