ISO-10303-21;
HEADER;
FILE_DESCRIPTION (( 'STEP AP214' ),
    '1' );
FILE_NAME ('Micro_SHRM-140-4X.STEP',
    '2021-09-02T09:20:50',
    ( '' ),
    ( '' ),
    'SwSTEP 2.0',
    'SolidWorks 2020',
    '' );
FILE_SCHEMA (( 'AUTOMOTIVE_DESIGN' ));
ENDSEC;

DATA;
#1 = PRODUCT_DEFINITION_CONTEXT ( 'detailed design', #292, 'design' ) ;
#2 = EDGE_CURVE ( 'NONE', #260, #216, #3, .T. ) ;
#3 = CIRCLE ( 'NONE', #203, 0.2753149094999999824 ) ;
#4 = CARTESIAN_POINT ( 'NONE',  ( 0.0000000000000000000, 0.0000000000000000000, 0.0000000000000000000 ) ) ;
#5 = ORIENTED_EDGE ( 'NONE', *, *, #140, .T. ) ;
#6 = ADVANCED_FACE ( 'NONE', ( #35 ), #222, .T. ) ;
#7 = DIRECTION ( 'NONE',  ( -1.000000000000000000, 0.0000000000000000000, 0.0000000000000000000 ) ) ;
#8 = DIRECTION ( 'NONE',  ( -1.000000000000000000, 0.0000000000000000000, 0.0000000000000000000 ) ) ;
#9 = AXIS2_PLACEMENT_3D ( 'NONE', #79, #37, #97 ) ;
#10 = PRESENTATION_LAYER_ASSIGNMENT (  '', '', ( #162 ) ) ;
#11 = DIRECTION ( 'NONE',  ( -0.0000000000000000000, -0.0000000000000000000, -1.000000000000000000 ) ) ;
#12 = ORIENTED_EDGE ( 'NONE', *, *, #275, .T. ) ;
#13 = CARTESIAN_POINT ( 'NONE',  ( 0.0000000000000000000, 0.0000000000000000000, 3.252717000000001857 ) ) ;
#14 = FACE_OUTER_BOUND ( 'NONE', #197, .T. ) ;
#15 = CARTESIAN_POINT ( 'NONE',  ( -0.2755904999999998495, 0.0000000000000000000, 1.379515951392309425 ) ) ;
#16 = DIRECTION ( 'NONE',  ( -1.224646799147353454E-16, -0.0000000000000000000, -1.000000000000000000 ) ) ;
#17 = LINE ( 'NONE', #299, #184 ) ;
#18 = EDGE_CURVE ( 'NONE', #146, #145, #122, .T. ) ;
#19 = PLANE ( 'NONE',  #43 ) ;
#20 = ADVANCED_FACE ( 'NONE', ( #169 ), #126, .F. ) ;
#21 = CARTESIAN_POINT ( 'NONE',  ( 0.0000000000000000000, 0.0000000000000000000, 0.0000000000000000000 ) ) ;
#22 = CIRCLE ( 'NONE', #54, 0.2605905000000014460 ) ;
#23 = ORIENTED_EDGE ( 'NONE', *, *, #278, .T. ) ;
#24 = APPLICATION_PROTOCOL_DEFINITION ( 'draft international standard', 'automotive_design', 1998, #285 ) ;
#25 = VERTEX_POINT ( 'NONE', #290 ) ;
#26 = ADVANCED_BREP_SHAPE_REPRESENTATION ( 'Micro_SHRM-140-4X', ( #48, #89 ), #163 ) ;
#27 = VERTEX_POINT ( 'NONE', #15 ) ;
#28 = CARTESIAN_POINT ( 'NONE',  ( 0.2753149094999999824, 3.371635226767182256E-17, 0.0000000000000000000 ) ) ;
#29 = CARTESIAN_POINT ( 'NONE',  ( 0.0000000000000000000, 0.0000000000000000000, 3.267717000000000649 ) ) ;
#30 = EDGE_CURVE ( 'NONE', #25, #27, #82, .T. ) ;
#31 = CARTESIAN_POINT ( 'NONE',  ( -0.2755905000000000715, 0.0000000000000000000, 3.267717000000000649 ) ) ;
#32 = ORIENTED_EDGE ( 'NONE', *, *, #205, .F. ) ;
#33 = EDGE_CURVE ( 'NONE', #27, #215, #112, .T. ) ;
#34 = LINE ( 'NONE', #31, #93 ) ;
#35 = FACE_OUTER_BOUND ( 'NONE', #284, .T. ) ;
#36 = FACE_OUTER_BOUND ( 'NONE', #123, .T. ) ;
#37 = DIRECTION ( 'NONE',  ( -1.224646799147353454E-16, -0.0000000000000000000, -1.000000000000000000 ) ) ;
#38 = ADVANCED_FACE ( 'NONE', ( #36 ), #182, .T. ) ;
#39 = VECTOR ( 'NONE', #149, 39.37007874015748143 ) ;
#40 = DIRECTION ( 'NONE',  ( 0.1736481776669313026, 0.0000000000000000000, 0.9848077530122077983 ) ) ;
#41 = ADVANCED_FACE ( 'NONE', ( #247 ), #136, .T. ) ;
#42 = ADVANCED_FACE ( 'NONE', ( #206 ), #250, .T. ) ;
#43 = AXIS2_PLACEMENT_3D ( 'NONE', #271, #228, #208 ) ;
#44 =( LENGTH_UNIT ( ) NAMED_UNIT ( * ) SI_UNIT ( $, .METRE. ) );
#45 = ORIENTED_EDGE ( 'NONE', *, *, #30, .F. ) ;
#46 = CIRCLE ( 'NONE', #201, 0.2753149095000000379 ) ;
#47 = ORIENTED_EDGE ( 'NONE', *, *, #18, .T. ) ;
#48 = MANIFOLD_SOLID_BREP ( 'Cut-Revolve1', #132 ) ;
#49 = ADVANCED_FACE ( 'NONE', ( #273 ), #19, .T. ) ;
#50 = ORIENTED_EDGE ( 'NONE', *, *, #33, .T. ) ;
#51 = CARTESIAN_POINT ( 'NONE',  ( 0.0000000000000000000, 0.0000000000000000000, 3.267717000000000649 ) ) ;
#52 = ORIENTED_EDGE ( 'NONE', *, *, #139, .F. ) ;
#53 = ORIENTED_EDGE ( 'NONE', *, *, #296, .T. ) ;
#54 = AXIS2_PLACEMENT_3D ( 'NONE', #155, #218, #81 ) ;
#55 = MECHANICAL_DESIGN_GEOMETRIC_PRESENTATION_REPRESENTATION (  '', ( #131 ), #190 ) ;
#56 = DIRECTION ( 'NONE',  ( -1.224646799147353454E-16, -0.0000000000000000000, -1.000000000000000000 ) ) ;
#57 = DIRECTION ( 'NONE',  ( -1.224646799147353454E-16, -0.0000000000000000000, -1.000000000000000000 ) ) ;
#58 = FACE_OUTER_BOUND ( 'NONE', #287, .T. ) ;
#59 = SURFACE_SIDE_STYLE ('',( #160 ) ) ;
#60 = DIRECTION ( 'NONE',  ( 0.0000000000000000000, 0.0000000000000000000, -1.000000000000000000 ) ) ;
#61 = DIMENSIONAL_EXPONENTS ( 1.000000000000000000, 0.0000000000000000000, 0.0000000000000000000, 0.0000000000000000000, 0.0000000000000000000, 0.0000000000000000000, 0.0000000000000000000 ) ;
#62 = DIRECTION ( 'NONE',  ( 1.000000000000000000, 0.0000000000000000000, 0.0000000000000000000 ) ) ;
#63 = AXIS2_PLACEMENT_3D ( 'NONE', #225, #103, #199 ) ;
#64 = CYLINDRICAL_SURFACE ( 'NONE', #166, 0.2753149094999999824 ) ;
#65 = DIRECTION ( 'NONE',  ( 1.224646799147353454E-16, 0.0000000000000000000, 1.000000000000000000 ) ) ;
#66 = ADVANCED_FACE ( 'NONE', ( #133 ), #64, .T. ) ;
#67 =( CONVERSION_BASED_UNIT ( 'INCH', #109 ) LENGTH_UNIT ( ) NAMED_UNIT ( #61 ) );
#68 = EDGE_CURVE ( 'NONE', #142, #215, #187, .T. ) ;
#69 = EDGE_LOOP ( 'NONE', ( #236, #279 ) ) ;
#70 = CIRCLE ( 'NONE', #9, 0.2753149094999999824 ) ;
#71 = MECHANICAL_DESIGN_GEOMETRIC_PRESENTATION_REPRESENTATION (  '', ( #162 ), #280 ) ;
#72 =( NAMED_UNIT ( * ) SI_UNIT ( $, .STERADIAN. ) SOLID_ANGLE_UNIT ( ) );
#73 =( CONVERSION_BASED_UNIT ( 'INCH', #214 ) LENGTH_UNIT ( ) NAMED_UNIT ( #173 ) );
#74 = EDGE_LOOP ( 'NONE', ( #53, #262, #96, #238 ) ) ;
#75 = AXIS2_PLACEMENT_3D ( 'NONE', #128, #108, #62 ) ;
#76 = CARTESIAN_POINT ( 'NONE',  ( 0.2605905000000014460, 3.283161727068144454E-17, 3.267717000000000649 ) ) ;
#77 = FILL_AREA_STYLE ('',( #116 ) ) ;
#78 = ORIENTED_EDGE ( 'NONE', *, *, #33, .F. ) ;
#79 = CARTESIAN_POINT ( 'NONE',  ( 4.129062288352891690E-33, 0.0000000000000000000, 3.371635226767182256E-17 ) ) ;
#80 = CARTESIAN_POINT ( 'NONE',  ( 4.129062288352891690E-33, 0.0000000000000000000, 3.371635226767182256E-17 ) ) ;
#81 = DIRECTION ( 'NONE',  ( 1.000000000000000000, 0.0000000000000000000, 0.0000000000000000000 ) ) ;
#82 = LINE ( 'NONE', #174, #124 ) ;
#83 = CARTESIAN_POINT ( 'NONE',  ( -0.2605905000000014460, 0.0000000000000000000, 3.267717000000000649 ) ) ;
#84 = DIRECTION ( 'NONE',  ( 1.000000000000000000, 0.0000000000000000000, 0.0000000000000000000 ) ) ;
#85 = CARTESIAN_POINT ( 'NONE',  ( -0.2755905000000000715, 0.0000000000000000000, 3.252717000000001857 ) ) ;
#86 = EDGE_CURVE ( 'NONE', #25, #216, #17, .T. ) ;
#87 = CARTESIAN_POINT ( 'NONE',  ( 1.687505730825493004E-16, 0.0000000000000000000, 1.377952999999999983 ) ) ;
#88 = AXIS2_PLACEMENT_3D ( 'NONE', #87, #65, #156 ) ;
#89 = AXIS2_PLACEMENT_3D ( 'NONE', #4, #115, #191 ) ;
#90 = AXIS2_PLACEMENT_3D ( 'NONE', #29, #219, #8 ) ;
#91 = CARTESIAN_POINT ( 'NONE',  ( 0.2753149095000002045, 0.0000000000000000000, 1.377952999999999983 ) ) ;
#92 = PRESENTATION_STYLE_ASSIGNMENT (( #233 ) ) ;
#93 = VECTOR ( 'NONE', #11, 39.37007874015748143 ) ;
#94 = UNCERTAINTY_MEASURE_WITH_UNIT (LENGTH_MEASURE( 1.000000000000000082E-05 ), #67, 'distance_accuracy_value', 'NONE');
#95 =( NAMED_UNIT ( * ) PLANE_ANGLE_UNIT ( ) SI_UNIT ( $, .RADIAN. ) );
#96 = ORIENTED_EDGE ( 'NONE', *, *, #278, .F. ) ;
#97 = DIRECTION ( 'NONE',  ( -1.000000000000000000, 0.0000000000000000000, 1.224646799147353207E-16 ) ) ;
#98 = AXIS2_PLACEMENT_3D ( 'NONE', #268, #168, #104 ) ;
#99 = DIRECTION ( 'NONE',  ( 0.0000000000000000000, 0.0000000000000000000, -1.000000000000000000 ) ) ;
#100 = CIRCLE ( 'NONE', #241, 0.2605905000000014460 ) ;
#101 = CARTESIAN_POINT ( 'NONE',  ( 0.0000000000000000000, 0.0000000000000000000, 3.252717000000001857 ) ) ;
#102 = ORIENTED_EDGE ( 'NONE', *, *, #113, .F. ) ;
#103 = DIRECTION ( 'NONE',  ( 0.0000000000000000000, 0.0000000000000000000, 1.000000000000000000 ) ) ;
#104 = DIRECTION ( 'NONE',  ( -1.000000000000000000, 0.0000000000000000000, 0.0000000000000000000 ) ) ;
#105 = ORIENTED_EDGE ( 'NONE', *, *, #140, .F. ) ;
#106 = LINE ( 'NONE', #204, #243 ) ;
#107 = SURFACE_STYLE_USAGE ( .BOTH. , #59 ) ;
#108 = DIRECTION ( 'NONE',  ( 1.224646799147353454E-16, 0.0000000000000000000, 1.000000000000000000 ) ) ;
#109 = LENGTH_MEASURE_WITH_UNIT ( LENGTH_MEASURE( 0.02539999999999999897 ), #298 );
#110 = VECTOR ( 'NONE', #286, 39.37007874015748143 ) ;
#111 =( NAMED_UNIT ( * ) SI_UNIT ( $, .STERADIAN. ) SOLID_ANGLE_UNIT ( ) );
#112 = CIRCLE ( 'NONE', #212, 0.2755905000000000715 ) ;
#113 = EDGE_CURVE ( 'NONE', #215, #27, #232, .T. ) ;
#114 = ORIENTED_EDGE ( 'NONE', *, *, #217, .F. ) ;
#115 = DIRECTION ( 'NONE',  ( 0.0000000000000000000, 0.0000000000000000000, 1.000000000000000000 ) ) ;
#116 = FILL_AREA_STYLE_COLOUR ( '', #274 ) ;
#117 = ORIENTED_EDGE ( 'NONE', *, *, #263, .F. ) ;
#118 = ORIENTED_EDGE ( 'NONE', *, *, #18, .F. ) ;
#119 = CARTESIAN_POINT ( 'NONE',  ( 0.0000000000000000000, 0.0000000000000000000, 3.267717000000000649 ) ) ;
#120 = ORIENTED_EDGE ( 'NONE', *, *, #175, .F. ) ;
#121 = DIRECTION ( 'NONE',  ( 1.000000000000000000, 0.0000000000000000000, 0.0000000000000000000 ) ) ;
#122 = CIRCLE ( 'NONE', #138, 0.2755905000000000715 ) ;
#123 = EDGE_LOOP ( 'NONE', ( #45, #152, #178, #265 ) ) ;
#124 = VECTOR ( 'NONE', #269, 39.37007874015747433 ) ;
#125 = CARTESIAN_POINT ( 'NONE',  ( 1.687505730825493004E-16, 0.0000000000000000000, 1.377952999999999983 ) ) ;
#126 = PLANE ( 'NONE',  #63 ) ;
#127 = LINE ( 'NONE', #83, #110 ) ;
#128 = CARTESIAN_POINT ( 'NONE',  ( 1.687505730825493004E-16, 0.0000000000000000000, 1.377952999999999983 ) ) ;
#129 =( NAMED_UNIT ( * ) PLANE_ANGLE_UNIT ( ) SI_UNIT ( $, .RADIAN. ) );
#130 =( NAMED_UNIT ( * ) SI_UNIT ( $, .STERADIAN. ) SOLID_ANGLE_UNIT ( ) );
#131 = STYLED_ITEM ( 'NONE', ( #92 ), #26 ) ;
#132 = CLOSED_SHELL ( 'NONE', ( #66, #41, #6, #42, #211, #49, #255, #38, #220, #20 ) ) ;
#133 = FACE_OUTER_BOUND ( 'NONE', #74, .T. ) ;
#134 = LINE ( 'NONE', #230, #39 ) ;
#135 = FILL_AREA_STYLE_COLOUR ( '', #209 ) ;
#136 = CONICAL_SURFACE ( 'NONE', #88, 0.2753149095000000379, 0.1745329251994338082 ) ;
#137 = PRODUCT_DEFINITION_FORMATION_WITH_SPECIFIED_SOURCE ( 'ANY', '', #176, .NOT_KNOWN. ) ;
#138 = AXIS2_PLACEMENT_3D ( 'NONE', #13, #99, #195 ) ;
#139 = EDGE_CURVE ( 'NONE', #145, #215, #134, .T. ) ;
#140 = EDGE_CURVE ( 'NONE', #245, #145, #106, .T. ) ;
#141 = AXIS2_PLACEMENT_3D ( 'NONE', #210, #185, #157 ) ;
#142 = VERTEX_POINT ( 'NONE', #270 ) ;
#143 = EDGE_CURVE ( 'NONE', #142, #260, #242, .T. ) ;
#144 = ORIENTED_EDGE ( 'NONE', *, *, #30, .T. ) ;
#145 = VERTEX_POINT ( 'NONE', #239 ) ;
#146 = VERTEX_POINT ( 'NONE', #85 ) ;
#147 = CARTESIAN_POINT ( 'NONE',  ( 0.0000000000000000000, 0.0000000000000000000, 0.0000000000000000000 ) ) ;
#148 = ORIENTED_EDGE ( 'NONE', *, *, #296, .F. ) ;
#149 = DIRECTION ( 'NONE',  ( -0.0000000000000000000, -0.0000000000000000000, -1.000000000000000000 ) ) ;
#150 = CIRCLE ( 'NONE', #266, 0.2755905000000000715 ) ;
#151 = CONICAL_SURFACE ( 'NONE', #98, 0.2605905000000014460, 0.7853981633974471688 ) ;
#152 = ORIENTED_EDGE ( 'NONE', *, *, #275, .F. ) ;
#153 = CYLINDRICAL_SURFACE ( 'NONE', #189, 0.2753149094999999824 ) ;
#154 = ORIENTED_EDGE ( 'NONE', *, *, #139, .T. ) ;
#155 = CARTESIAN_POINT ( 'NONE',  ( 0.0000000000000000000, 0.0000000000000000000, 3.267717000000000649 ) ) ;
#156 = DIRECTION ( 'NONE',  ( 1.000000000000000000, 0.0000000000000000000, 0.0000000000000000000 ) ) ;
#157 = DIRECTION ( 'NONE',  ( -1.000000000000000000, 0.0000000000000000000, 0.0000000000000000000 ) ) ;
#158 = AXIS2_PLACEMENT_3D ( 'NONE', #119, #198, #7 ) ;
#159 = PRODUCT_DEFINITION_SHAPE ( 'NONE', 'NONE',  #251 ) ;
#160 = SURFACE_STYLE_FILL_AREA ( #252 ) ;
#161 = PRESENTATION_STYLE_ASSIGNMENT (( #107 ) ) ;
#162 = STYLED_ITEM ( 'NONE', ( #161 ), #48 ) ;
#163 =( GEOMETRIC_REPRESENTATION_CONTEXT ( 3 ) GLOBAL_UNCERTAINTY_ASSIGNED_CONTEXT ( ( #179 ) ) GLOBAL_UNIT_ASSIGNED_CONTEXT ( ( #200, #129, #111 ) ) REPRESENTATION_CONTEXT ( 'NONE', 'WORKASPACE' ) );
#164 = AXIS2_PLACEMENT_3D ( 'NONE', #253, #277, #181 ) ;
#165 = SHAPE_DEFINITION_REPRESENTATION ( #159, #26 ) ;
#166 = AXIS2_PLACEMENT_3D ( 'NONE', #21, #276, #229 ) ;
#167 = ORIENTED_EDGE ( 'NONE', *, *, #86, .T. ) ;
#168 = DIRECTION ( 'NONE',  ( 0.0000000000000000000, 0.0000000000000000000, -1.000000000000000000 ) ) ;
#169 = FACE_OUTER_BOUND ( 'NONE', #235, .T. ) ;
#170 = CARTESIAN_POINT ( 'NONE',  ( 1.687505730825493004E-16, 0.0000000000000000000, 1.377952999999999983 ) ) ;
#171 = ORIENTED_EDGE ( 'NONE', *, *, #2, .F. ) ;
#172 = FACE_OUTER_BOUND ( 'NONE', #240, .T. ) ;
#173 = DIMENSIONAL_EXPONENTS ( 1.000000000000000000, 0.0000000000000000000, 0.0000000000000000000, 0.0000000000000000000, 0.0000000000000000000, 0.0000000000000000000, 0.0000000000000000000 ) ;
#174 = CARTESIAN_POINT ( 'NONE',  ( -0.2753149094999998159, 3.371635226767182256E-17, 1.377952999999999983 ) ) ;
#175 = EDGE_CURVE ( 'NONE', #145, #146, #150, .T. ) ;
#176 = PRODUCT ( 'Micro_SHRM-140-4X', 'Micro_SHRM-140-4X', '', ( #186 ) ) ;
#177 = CYLINDRICAL_SURFACE ( 'NONE', #158, 0.2755905000000000715 ) ;
#178 = ORIENTED_EDGE ( 'NONE', *, *, #68, .T. ) ;
#179 = UNCERTAINTY_MEASURE_WITH_UNIT (LENGTH_MEASURE( 1.000000000000000082E-05 ), #200, 'distance_accuracy_value', 'NONE');
#180 = LENGTH_MEASURE_WITH_UNIT ( LENGTH_MEASURE( 0.02539999999999999897 ), #264 );
#181 = DIRECTION ( 'NONE',  ( 1.000000000000000000, 0.0000000000000000000, 0.0000000000000000000 ) ) ;
#182 = CONICAL_SURFACE ( 'NONE', #75, 0.2753149095000000379, 0.1745329251994338082 ) ;
#183 =( NAMED_UNIT ( * ) PLANE_ANGLE_UNIT ( ) SI_UNIT ( $, .RADIAN. ) );
#184 = VECTOR ( 'NONE', #295, 39.37007874015748143 ) ;
#185 = DIRECTION ( 'NONE',  ( -0.0000000000000000000, -0.0000000000000000000, -1.000000000000000000 ) ) ;
#186 = PRODUCT_CONTEXT ( 'NONE', #285, 'mechanical' ) ;
#187 = LINE ( 'NONE', #91, #207 ) ;
#188 = ORIENTED_EDGE ( 'NONE', *, *, #68, .F. ) ;
#189 = AXIS2_PLACEMENT_3D ( 'NONE', #147, #224, #226 ) ;
#190 =( GEOMETRIC_REPRESENTATION_CONTEXT ( 3 ) GLOBAL_UNCERTAINTY_ASSIGNED_CONTEXT ( ( #248 ) ) GLOBAL_UNIT_ASSIGNED_CONTEXT ( ( #73, #95, #72 ) ) REPRESENTATION_CONTEXT ( 'NONE', 'WORKASPACE' ) );
#191 = DIRECTION ( 'NONE',  ( 1.000000000000000000, 0.0000000000000000000, 0.0000000000000000000 ) ) ;
#192 = ORIENTED_EDGE ( 'NONE', *, *, #217, .T. ) ;
#193 = PRODUCT_RELATED_PRODUCT_CATEGORY ( 'part', '', ( #176 ) ) ;
#194 = DIRECTION ( 'NONE',  ( -1.224646799147353454E-16, -0.0000000000000000000, -1.000000000000000000 ) ) ;
#195 = DIRECTION ( 'NONE',  ( 1.000000000000000000, 0.0000000000000000000, 0.0000000000000000000 ) ) ;
#196 = DIRECTION ( 'NONE',  ( 0.0000000000000000000, 0.0000000000000000000, 1.000000000000000000 ) ) ;
#197 = EDGE_LOOP ( 'NONE', ( #257, #12, #167, #171 ) ) ;
#198 = DIRECTION ( 'NONE',  ( -0.0000000000000000000, -0.0000000000000000000, -1.000000000000000000 ) ) ;
#199 = DIRECTION ( 'NONE',  ( 1.000000000000000000, 0.0000000000000000000, -0.0000000000000000000 ) ) ;
#200 =( CONVERSION_BASED_UNIT ( 'INCH', #180 ) LENGTH_UNIT ( ) NAMED_UNIT ( #288 ) );
#201 = AXIS2_PLACEMENT_3D ( 'NONE', #170, #194, #272 ) ;
#202 = DIRECTION ( 'NONE',  ( -1.000000000000000000, 0.0000000000000000000, 1.224646799147353207E-16 ) ) ;
#203 = AXIS2_PLACEMENT_3D ( 'NONE', #80, #244, #202 ) ;
#204 = CARTESIAN_POINT ( 'NONE',  ( 0.2605905000000014460, 3.191313217132101795E-17, 3.267717000000000649 ) ) ;
#205 = EDGE_CURVE ( 'NONE', #234, #245, #100, .T. ) ;
#206 = FACE_OUTER_BOUND ( 'NONE', #223, .T. ) ;
#207 = VECTOR ( 'NONE', #40, 39.37007874015748143 ) ;
#208 = DIRECTION ( 'NONE',  ( 1.000000000000000000, 0.0000000000000000000, -0.0000000000000000000 ) ) ;
#209 = COLOUR_RGB ( '',0.7921568627450980005, 0.8196078431372548767, 0.9333333333333333481 ) ;
#210 = CARTESIAN_POINT ( 'NONE',  ( 0.0000000000000000000, 0.0000000000000000000, 3.267717000000000649 ) ) ;
#211 = ADVANCED_FACE ( 'NONE', ( #58 ), #177, .T. ) ;
#212 = AXIS2_PLACEMENT_3D ( 'NONE', #293, #57, #84 ) ;
#213 = ORIENTED_EDGE ( 'NONE', *, *, #263, .T. ) ;
#214 = LENGTH_MEASURE_WITH_UNIT ( LENGTH_MEASURE( 0.02539999999999999897 ), #44 );
#215 = VERTEX_POINT ( 'NONE', #289 ) ;
#216 = VERTEX_POINT ( 'NONE', #291 ) ;
#217 = EDGE_CURVE ( 'NONE', #234, #146, #127, .T. ) ;
#218 = DIRECTION ( 'NONE',  ( 0.0000000000000000000, 0.0000000000000000000, 1.000000000000000000 ) ) ;
#219 = DIRECTION ( 'NONE',  ( 0.0000000000000000000, 0.0000000000000000000, -1.000000000000000000 ) ) ;
#220 = ADVANCED_FACE ( 'NONE', ( #14 ), #153, .T. ) ;
#221 = DIRECTION ( 'NONE',  ( 1.000000000000000000, 0.0000000000000000000, 0.0000000000000000000 ) ) ;
#222 = CONICAL_SURFACE ( 'NONE', #90, 0.2605905000000014460, 0.7853981633974471688 ) ;
#223 = EDGE_LOOP ( 'NONE', ( #47, #154, #78, #117 ) ) ;
#224 = DIRECTION ( 'NONE',  ( -1.224646799147353454E-16, -0.0000000000000000000, -1.000000000000000000 ) ) ;
#225 = CARTESIAN_POINT ( 'NONE',  ( 0.0000000000000000000, 0.0000000000000000000, 0.0000000000000000000 ) ) ;
#226 = DIRECTION ( 'NONE',  ( -1.000000000000000000, 0.0000000000000000000, 1.224646799147353207E-16 ) ) ;
#227 = EDGE_LOOP ( 'NONE', ( #148, #144, #50, #188 ) ) ;
#228 = DIRECTION ( 'NONE',  ( 0.0000000000000000000, 0.0000000000000000000, 1.000000000000000000 ) ) ;
#229 = DIRECTION ( 'NONE',  ( -1.000000000000000000, 0.0000000000000000000, 1.224646799147353207E-16 ) ) ;
#230 = CARTESIAN_POINT ( 'NONE',  ( 0.2755905000000000715, 3.375010237004186497E-17, 3.267717000000000649 ) ) ;
#231 = EDGE_CURVE ( 'NONE', #245, #234, #22, .T. ) ;
#232 = CIRCLE ( 'NONE', #164, 0.2755905000000000715 ) ;
#233 = SURFACE_STYLE_USAGE ( .BOTH. , #254 ) ;
#234 = VERTEX_POINT ( 'NONE', #246 ) ;
#235 = EDGE_LOOP ( 'NONE', ( #23, #282 ) ) ;
#236 = ORIENTED_EDGE ( 'NONE', *, *, #205, .T. ) ;
#237 = DIRECTION ( 'NONE',  ( -1.000000000000000000, 0.0000000000000000000, 0.0000000000000000000 ) ) ;
#238 = ORIENTED_EDGE ( 'NONE', *, *, #86, .F. ) ;
#239 = CARTESIAN_POINT ( 'NONE',  ( 0.2755905000000000715, 3.375010237004186497E-17, 3.252717000000001857 ) ) ;
#240 = EDGE_LOOP ( 'NONE', ( #105, #32, #192, #120 ) ) ;
#241 = AXIS2_PLACEMENT_3D ( 'NONE', #51, #196, #221 ) ;
#242 = LINE ( 'NONE', #261, #283 ) ;
#243 = VECTOR ( 'NONE', #294, 39.37007874015748143 ) ;
#244 = DIRECTION ( 'NONE',  ( -1.224646799147353454E-16, -0.0000000000000000000, -1.000000000000000000 ) ) ;
#245 = VERTEX_POINT ( 'NONE', #76 ) ;
#246 = CARTESIAN_POINT ( 'NONE',  ( -0.2605905000000014460, 0.0000000000000000000, 3.267717000000000649 ) ) ;
#247 = FACE_OUTER_BOUND ( 'NONE', #227, .T. ) ;
#248 = UNCERTAINTY_MEASURE_WITH_UNIT (LENGTH_MEASURE( 1.000000000000000082E-05 ), #73, 'distance_accuracy_value', 'NONE');
#249 = PRESENTATION_LAYER_ASSIGNMENT (  '', '', ( #131 ) ) ;
#250 = CYLINDRICAL_SURFACE ( 'NONE', #141, 0.2755905000000000715 ) ;
#251 = PRODUCT_DEFINITION ( 'UNKNOWN', '', #137, #1 ) ;
#252 = FILL_AREA_STYLE ('',( #135 ) ) ;
#253 = CARTESIAN_POINT ( 'NONE',  ( 1.689419794245307801E-16, 0.0000000000000000000, 1.379515951392309425 ) ) ;
#254 = SURFACE_SIDE_STYLE ('',( #297 ) ) ;
#255 = ADVANCED_FACE ( 'NONE', ( #172 ), #151, .T. ) ;
#256 = ORIENTED_EDGE ( 'NONE', *, *, #231, .F. ) ;
#257 = ORIENTED_EDGE ( 'NONE', *, *, #143, .F. ) ;
#258 = APPLICATION_PROTOCOL_DEFINITION ( 'draft international standard', 'automotive_design', 1998, #292 ) ;
#259 = AXIS2_PLACEMENT_3D ( 'NONE', #125, #56, #237 ) ;
#260 = VERTEX_POINT ( 'NONE', #28 ) ;
#261 = CARTESIAN_POINT ( 'NONE',  ( 0.2753149094999999824, 3.371635226767182256E-17, -3.371635226767182256E-17 ) ) ;
#262 = ORIENTED_EDGE ( 'NONE', *, *, #143, .T. ) ;
#263 = EDGE_CURVE ( 'NONE', #146, #27, #34, .T. ) ;
#264 =( LENGTH_UNIT ( ) NAMED_UNIT ( * ) SI_UNIT ( $, .METRE. ) );
#265 = ORIENTED_EDGE ( 'NONE', *, *, #113, .T. ) ;
#266 = AXIS2_PLACEMENT_3D ( 'NONE', #101, #60, #121 ) ;
#267 = CIRCLE ( 'NONE', #259, 0.2753149095000000379 ) ;
#268 = CARTESIAN_POINT ( 'NONE',  ( 0.0000000000000000000, 0.0000000000000000000, 3.267717000000000649 ) ) ;
#269 = DIRECTION ( 'NONE',  ( -0.1736481776669311083, 2.126576849575782084E-17, 0.9848077530122080203 ) ) ;
#270 = CARTESIAN_POINT ( 'NONE',  ( 0.2753149095000002045, 0.0000000000000000000, 1.377952999999999983 ) ) ;
#271 = CARTESIAN_POINT ( 'NONE',  ( 0.0000000000000000000, 0.0000000000000000000, 3.267717000000000649 ) ) ;
#272 = DIRECTION ( 'NONE',  ( -1.000000000000000000, 0.0000000000000000000, 0.0000000000000000000 ) ) ;
#273 = FACE_OUTER_BOUND ( 'NONE', #69, .T. ) ;
#274 = COLOUR_RGB ( '',0.7921568627450980005, 0.8196078431372548767, 0.9333333333333333481 ) ;
#275 = EDGE_CURVE ( 'NONE', #142, #25, #267, .T. ) ;
#276 = DIRECTION ( 'NONE',  ( -1.224646799147353454E-16, -0.0000000000000000000, -1.000000000000000000 ) ) ;
#277 = DIRECTION ( 'NONE',  ( -1.224646799147353454E-16, -0.0000000000000000000, -1.000000000000000000 ) ) ;
#278 = EDGE_CURVE ( 'NONE', #216, #260, #70, .T. ) ;
#279 = ORIENTED_EDGE ( 'NONE', *, *, #231, .T. ) ;
#280 =( GEOMETRIC_REPRESENTATION_CONTEXT ( 3 ) GLOBAL_UNCERTAINTY_ASSIGNED_CONTEXT ( ( #94 ) ) GLOBAL_UNIT_ASSIGNED_CONTEXT ( ( #67, #183, #130 ) ) REPRESENTATION_CONTEXT ( 'NONE', 'WORKASPACE' ) );
#281 = ORIENTED_EDGE ( 'NONE', *, *, #175, .T. ) ;
#282 = ORIENTED_EDGE ( 'NONE', *, *, #2, .T. ) ;
#283 = VECTOR ( 'NONE', #16, 39.37007874015748143 ) ;
#284 = EDGE_LOOP ( 'NONE', ( #256, #5, #118, #114 ) ) ;
#285 = APPLICATION_CONTEXT ( 'automotive_design' ) ;
#286 = DIRECTION ( 'NONE',  ( -0.7071067811865466846, 0.0000000000000000000, -0.7071067811865483499 ) ) ;
#287 = EDGE_LOOP ( 'NONE', ( #52, #281, #213, #102 ) ) ;
#288 = DIMENSIONAL_EXPONENTS ( 1.000000000000000000, 0.0000000000000000000, 0.0000000000000000000, 0.0000000000000000000, 0.0000000000000000000, 0.0000000000000000000, 0.0000000000000000000 ) ;
#289 = CARTESIAN_POINT ( 'NONE',  ( 0.2755905000000002381, 3.375010237004188345E-17, 1.379515951392309425 ) ) ;
#290 = CARTESIAN_POINT ( 'NONE',  ( -0.2753149094999998159, 3.373322731885684685E-17, 1.377952999999999983 ) ) ;
#291 = CARTESIAN_POINT ( 'NONE',  ( -0.2753149094999999824, 0.0000000000000000000, 6.743270453534364513E-17 ) ) ;
#292 = APPLICATION_CONTEXT ( 'automotive_design' ) ;
#293 = CARTESIAN_POINT ( 'NONE',  ( 1.689419794245307801E-16, 0.0000000000000000000, 1.379515951392309425 ) ) ;
#294 = DIRECTION ( 'NONE',  ( 0.7071067811865466846, 8.659560562354922997E-17, -0.7071067811865483499 ) ) ;
#295 = DIRECTION ( 'NONE',  ( -1.224646799147353454E-16, -0.0000000000000000000, -1.000000000000000000 ) ) ;
#296 = EDGE_CURVE ( 'NONE', #25, #142, #46, .T. ) ;
#297 = SURFACE_STYLE_FILL_AREA ( #77 ) ;
#298 =( LENGTH_UNIT ( ) NAMED_UNIT ( * ) SI_UNIT ( $, .METRE. ) );
#299 = CARTESIAN_POINT ( 'NONE',  ( -0.2753149094999999824, 0.0000000000000000000, 3.371635226767182256E-17 ) ) ;
ENDSEC;
END-ISO-10303-21;
