ISO-10303-21;
HEADER;
FILE_DESCRIPTION (( 'STEP AP214' ),
    '1' );
FILE_NAME ('82854.STEP',
    '2023-06-23T06:57:35',
    ( '' ),
    ( '' ),
    'SwSTEP 2.0',
    'SolidWorks 2023',
    '' );
FILE_SCHEMA (( 'AUTOMOTIVE_DESIGN' ));
ENDSEC;

DATA;
#1 =( CONVERSION_BASED_UNIT ( 'INCH', #48 ) LENGTH_UNIT ( ) NAMED_UNIT ( #25 ) );
#2 = CIRCLE ( 'NONE', #273, 0.1250000000000000000 ) ;
#3 = DIRECTION ( 'NONE',  ( -0.000000000000000000, -1.000000000000000000, -0.000000000000000000 ) ) ;
#4 = LINE ( 'NONE', #28, #129 ) ;
#5 = CIRCLE ( 'NONE', #263, 0.1250000000000000000 ) ;
#6 = DIRECTION ( 'NONE',  ( -6.123233995736763571E-17, 1.000000000000000000, -0.000000000000000000 ) ) ;
#7 = CARTESIAN_POINT ( 'NONE',  ( -1.224646799147352714E-16, 4.000000000000000000, 0.000000000000000000 ) ) ;
#8 = UNCERTAINTY_MEASURE_WITH_UNIT (LENGTH_MEASURE( 1.000000000000000082E-05 ), #22, 'distance_accuracy_value', 'NONE');
#9 = PRESENTATION_LAYER_ASSIGNMENT (  '', '', ( #133 ) ) ;
#10 = CARTESIAN_POINT ( 'NONE',  ( -0.1250000000000001943, 4.000000000000000000, 0.000000000000000000 ) ) ;
#11 = ORIENTED_EDGE ( 'NONE', *, *, #154, .F. ) ;
#12 = CARTESIAN_POINT ( 'NONE',  ( 0.000000000000000000, 0.000000000000000000, 0.000000000000000000 ) ) ;
#13 = ADVANCED_FACE ( 'NONE', ( #286 ), #94, .T. ) ;
#14 = DIRECTION ( 'NONE',  ( 0.000000000000000000, 0.000000000000000000, -1.000000000000000000 ) ) ;
#15 = VERTEX_POINT ( 'NONE', #185 ) ;
#16 = ADVANCED_FACE ( 'NONE', ( #169 ), #187, .T. ) ;
#17 = DIRECTION ( 'NONE',  ( -1.000000000000000000, 0.000000000000000000, 0.000000000000000000 ) ) ;
#18 = ORIENTED_EDGE ( 'NONE', *, *, #80, .F. ) ;
#19 = DIMENSIONAL_EXPONENTS ( 1.000000000000000000, 0.000000000000000000, 0.000000000000000000, 0.000000000000000000, 0.000000000000000000, 0.000000000000000000, 0.000000000000000000 ) ;
#20 = FILL_AREA_STYLE_COLOUR ( '', #160 ) ;
#21 = SURFACE_STYLE_USAGE ( .BOTH. , #239 ) ;
#22 =( CONVERSION_BASED_UNIT ( 'INCH', #218 ) LENGTH_UNIT ( ) NAMED_UNIT ( #74 ) );
#23 =( GEOMETRIC_REPRESENTATION_CONTEXT ( 3 ) GLOBAL_UNCERTAINTY_ASSIGNED_CONTEXT ( ( #85 ) ) GLOBAL_UNIT_ASSIGNED_CONTEXT ( ( #1, #42, #261 ) ) REPRESENTATION_CONTEXT ( 'NONE', 'WORKASPACE' ) );
#24 = PLANE ( 'NONE',  #140 ) ;
#25 = DIMENSIONAL_EXPONENTS ( 1.000000000000000000, 0.000000000000000000, 0.000000000000000000, 0.000000000000000000, 0.000000000000000000, 0.000000000000000000, 0.000000000000000000 ) ;
#26 = COLOUR_RGB ( '',1.000000000000000000, 0.000000000000000000, 0.000000000000000000 ) ;
#27 = AXIS2_PLACEMENT_3D ( 'NONE', #130, #174, #177 ) ;
#28 = CARTESIAN_POINT ( 'NONE',  ( 0.000000000000000000, 0.000000000000000000, -0.1250000000000000000 ) ) ;
#29 = CARTESIAN_POINT ( 'NONE',  ( 0.000000000000000000, 2.000000000000000000, 0.000000000000000000 ) ) ;
#30 = PLANE ( 'NONE',  #244 ) ;
#31 = SHAPE_DEFINITION_REPRESENTATION ( #216, #197 ) ;
#32 = STYLED_ITEM ( 'NONE', ( #190 ), #296 ) ;
#33 = DIRECTION ( 'NONE',  ( -0.000000000000000000, -1.000000000000000000, -0.000000000000000000 ) ) ;
#34 = DIRECTION ( 'NONE',  ( 0.000000000000000000, 0.000000000000000000, -1.000000000000000000 ) ) ;
#35 = EDGE_CURVE ( 'NONE', #91, #262, #102, .T. ) ;
#36 =( CONVERSION_BASED_UNIT ( 'INCH', #136 ) LENGTH_UNIT ( ) NAMED_UNIT ( #150 ) );
#37 = ORIENTED_EDGE ( 'NONE', *, *, #241, .F. ) ;
#38 = DIRECTION ( 'NONE',  ( 0.000000000000000000, 0.000000000000000000, -1.000000000000000000 ) ) ;
#39 = AXIS2_PLACEMENT_3D ( 'NONE', #108, #208, #205 ) ;
#40 = ORIENTED_EDGE ( 'NONE', *, *, #63, .T. ) ;
#41 = ADVANCED_FACE ( 'NONE', ( #104 ), #24, .T. ) ;
#42 =( NAMED_UNIT ( * ) PLANE_ANGLE_UNIT ( ) SI_UNIT ( $, .RADIAN. ) );
#43 = EDGE_LOOP ( 'NONE', ( #298, #112 ) ) ;
#44 =( NAMED_UNIT ( * ) PLANE_ANGLE_UNIT ( ) SI_UNIT ( $, .RADIAN. ) );
#45 = AXIS2_PLACEMENT_3D ( 'NONE', #179, #89, #181 ) ;
#46 = FILL_AREA_STYLE_COLOUR ( '', #256 ) ;
#47 = PRODUCT_RELATED_PRODUCT_CATEGORY ( 'part', '', ( #73 ) ) ;
#48 = LENGTH_MEASURE_WITH_UNIT ( LENGTH_MEASURE( 0.02539999999999999897 ), #121 );
#49 = DIRECTION ( 'NONE',  ( -0.000000000000000000, -1.000000000000000000, -0.000000000000000000 ) ) ;
#50 =( GEOMETRIC_REPRESENTATION_CONTEXT ( 3 ) GLOBAL_UNCERTAINTY_ASSIGNED_CONTEXT ( ( #182 ) ) GLOBAL_UNIT_ASSIGNED_CONTEXT ( ( #115, #44, #72 ) ) REPRESENTATION_CONTEXT ( 'NONE', 'WORKASPACE' ) );
#51 = CARTESIAN_POINT ( 'NONE',  ( 0.000000000000000000, 2.000000000000000000, 0.000000000000000000 ) ) ;
#52 =( CONVERSION_BASED_UNIT ( 'INCH', #287 ) LENGTH_UNIT ( ) NAMED_UNIT ( #126 ) );
#53 = SURFACE_STYLE_FILL_AREA ( #290 ) ;
#54 = AXIS2_PLACEMENT_3D ( 'NONE', #64, #259, #163 ) ;
#55 = EDGE_CURVE ( 'NONE', #99, #204, #4, .T. ) ;
#56 = DIRECTION ( 'NONE',  ( -0.000000000000000000, -1.000000000000000000, -0.000000000000000000 ) ) ;
#57 = CARTESIAN_POINT ( 'NONE',  ( -1.224646799147352714E-16, 4.000000000000000000, 0.000000000000000000 ) ) ;
#58 = UNCERTAINTY_MEASURE_WITH_UNIT (LENGTH_MEASURE( 1.000000000000000082E-05 ), #36, 'distance_accuracy_value', 'NONE');
#59 = FACE_OUTER_BOUND ( 'NONE', #43, .T. ) ;
#60 = SURFACE_STYLE_USAGE ( .BOTH. , #61 ) ;
#61 = SURFACE_SIDE_STYLE ('',( #274 ) ) ;
#62 =( GEOMETRIC_REPRESENTATION_CONTEXT ( 3 ) GLOBAL_UNCERTAINTY_ASSIGNED_CONTEXT ( ( #196 ) ) GLOBAL_UNIT_ASSIGNED_CONTEXT ( ( #153, #195, #288 ) ) REPRESENTATION_CONTEXT ( 'NONE', 'WORKASPACE' ) );
#63 = EDGE_CURVE ( 'NONE', #88, #204, #2, .T. ) ;
#64 = CARTESIAN_POINT ( 'NONE',  ( -1.224646799147352714E-16, 4.000000000000000000, 0.000000000000000000 ) ) ;
#65 = ORIENTED_EDGE ( 'NONE', *, *, #80, .T. ) ;
#66 = SURFACE_SIDE_STYLE ('',( #146 ) ) ;
#67 =( CONVERSION_BASED_UNIT ( 'INCH', #281 ) LENGTH_UNIT ( ) NAMED_UNIT ( #291 ) );
#68 = VERTEX_POINT ( 'NONE', #198 ) ;
#69 = PRESENTATION_LAYER_ASSIGNMENT (  '', '', ( #194 ) ) ;
#70 = AXIS2_PLACEMENT_3D ( 'NONE', #29, #3, #75 ) ;
#71 = ORIENTED_EDGE ( 'NONE', *, *, #35, .T. ) ;
#72 =( NAMED_UNIT ( * ) SI_UNIT ( $, .STERADIAN. ) SOLID_ANGLE_UNIT ( ) );
#73 = PRODUCT ( '82854', '82854', '', ( #84 ) ) ;
#74 = DIMENSIONAL_EXPONENTS ( 1.000000000000000000, 0.000000000000000000, 0.000000000000000000, 0.000000000000000000, 0.000000000000000000, 0.000000000000000000, 0.000000000000000000 ) ;
#75 = DIRECTION ( 'NONE',  ( 0.000000000000000000, 0.000000000000000000, -1.000000000000000000 ) ) ;
#76 = AXIS2_PLACEMENT_3D ( 'NONE', #51, #79, #242 ) ;
#77 = PRESENTATION_LAYER_ASSIGNMENT (  '', '', ( #32 ) ) ;
#78 = APPLICATION_CONTEXT ( 'automotive_design' ) ;
#79 = DIRECTION ( 'NONE',  ( 0.000000000000000000, 1.000000000000000000, 0.000000000000000000 ) ) ;
#80 = EDGE_CURVE ( 'NONE', #260, #88, #132, .T. ) ;
#81 = DIRECTION ( 'NONE',  ( 0.000000000000000000, -1.000000000000000000, -0.000000000000000000 ) ) ;
#82 =( GEOMETRIC_REPRESENTATION_CONTEXT ( 3 ) GLOBAL_UNCERTAINTY_ASSIGNED_CONTEXT ( ( #58 ) ) GLOBAL_UNIT_ASSIGNED_CONTEXT ( ( #36, #230, #226 ) ) REPRESENTATION_CONTEXT ( 'NONE', 'WORKASPACE' ) );
#83 = DIRECTION ( 'NONE',  ( -6.123233995736763571E-17, 1.000000000000000000, -0.000000000000000000 ) ) ;
#84 = PRODUCT_CONTEXT ( 'NONE', #193, 'mechanical' ) ;
#85 = UNCERTAINTY_MEASURE_WITH_UNIT (LENGTH_MEASURE( 1.000000000000000082E-05 ), #1, 'distance_accuracy_value', 'NONE');
#86 = DIRECTION ( 'NONE',  ( 1.000000000000000000, 6.123233995736763571E-17, 0.000000000000000000 ) ) ;
#87 = CARTESIAN_POINT ( 'NONE',  ( 0.000000000000000000, 0.000000000000000000, -0.1250000000000000000 ) ) ;
#88 = VERTEX_POINT ( 'NONE', #157 ) ;
#89 = DIRECTION ( 'NONE',  ( -6.123233995736763571E-17, 1.000000000000000000, -0.000000000000000000 ) ) ;
#90 = CYLINDRICAL_SURFACE ( 'NONE', #303, 0.1250000000000000555 ) ;
#91 = VERTEX_POINT ( 'NONE', #247 ) ;
#92 = MECHANICAL_DESIGN_GEOMETRIC_PRESENTATION_REPRESENTATION (  '', ( #301 ), #98 ) ;
#93 = STYLED_ITEM ( 'NONE', ( #128 ), #41 ) ;
#94 = CYLINDRICAL_SURFACE ( 'NONE', #188, 0.1250000000000000000 ) ;
#95 =( LENGTH_UNIT ( ) NAMED_UNIT ( * ) SI_UNIT ( $, .METRE. ) );
#96 = DIRECTION ( 'NONE',  ( 0.000000000000000000, 0.000000000000000000, -1.000000000000000000 ) ) ;
#97 = EDGE_CURVE ( 'NONE', #99, #260, #207, .T. ) ;
#98 =( GEOMETRIC_REPRESENTATION_CONTEXT ( 3 ) GLOBAL_UNCERTAINTY_ASSIGNED_CONTEXT ( ( #8 ) ) GLOBAL_UNIT_ASSIGNED_CONTEXT ( ( #22, #258, #235 ) ) REPRESENTATION_CONTEXT ( 'NONE', 'WORKASPACE' ) );
#99 = VERTEX_POINT ( 'NONE', #159 ) ;
#100 = PRODUCT_DEFINITION_FORMATION_WITH_SPECIFIED_SOURCE ( 'ANY', '', #73, .NOT_KNOWN. ) ;
#101 = ADVANCED_FACE ( 'NONE', ( #302 ), #248, .F. ) ;
#102 = LINE ( 'NONE', #223, #250 ) ;
#103 = CIRCLE ( 'NONE', #156, 0.1250000000000000000 ) ;
#104 = FACE_OUTER_BOUND ( 'NONE', #240, .T. ) ;
#105 = DIRECTION ( 'NONE',  ( -0.000000000000000000, -1.000000000000000000, -0.000000000000000000 ) ) ;
#106 = DIRECTION ( 'NONE',  ( -6.123233995736763571E-17, 1.000000000000000000, -0.000000000000000000 ) ) ;
#107 = APPLICATION_PROTOCOL_DEFINITION ( 'draft international standard', 'automotive_design', 1998, #78 ) ;
#108 = CARTESIAN_POINT ( 'NONE',  ( 2.343374660409150802E-34, 2.000000000000000000, 0.000000000000000000 ) ) ;
#109 = UNCERTAINTY_MEASURE_WITH_UNIT (LENGTH_MEASURE( 1.000000000000000082E-05 ), #52, 'distance_accuracy_value', 'NONE');
#110 = DIRECTION ( 'NONE',  ( -6.123233995736763571E-17, 1.000000000000000000, -0.000000000000000000 ) ) ;
#111 = DIRECTION ( 'NONE',  ( -1.000000000000000000, 0.000000000000000000, 0.000000000000000000 ) ) ;
#112 = ORIENTED_EDGE ( 'NONE', *, *, #175, .T. ) ;
#113 = CIRCLE ( 'NONE', #257, 0.1250000000000000000 ) ;
#114 = ORIENTED_EDGE ( 'NONE', *, *, #158, .F. ) ;
#115 =( CONVERSION_BASED_UNIT ( 'INCH', #183 ) LENGTH_UNIT ( ) NAMED_UNIT ( #19 ) );
#116 = SURFACE_STYLE_USAGE ( .BOTH. , #66 ) ;
#117 = ORIENTED_EDGE ( 'NONE', *, *, #175, .F. ) ;
#118 =( GEOMETRIC_REPRESENTATION_CONTEXT ( 3 ) GLOBAL_UNCERTAINTY_ASSIGNED_CONTEXT ( ( #109 ) ) GLOBAL_UNIT_ASSIGNED_CONTEXT ( ( #52, #172, #220 ) ) REPRESENTATION_CONTEXT ( 'NONE', 'WORKASPACE' ) );
#119 = FILL_AREA_STYLE ('',( #46 ) ) ;
#120 = ADVANCED_FACE ( 'NONE', ( #202 ), #90, .T. ) ;
#121 =( LENGTH_UNIT ( ) NAMED_UNIT ( * ) SI_UNIT ( $, .METRE. ) );
#122 = PRESENTATION_STYLE_ASSIGNMENT (( #21 ) ) ;
#123 = PRODUCT_DEFINITION_CONTEXT ( 'detailed design', #78, 'design' ) ;
#124 = AXIS2_PLACEMENT_3D ( 'NONE', #57, #251, #275 ) ;
#125 = PRESENTATION_STYLE_ASSIGNMENT (( #184 ) ) ;
#126 = DIMENSIONAL_EXPONENTS ( 1.000000000000000000, 0.000000000000000000, 0.000000000000000000, 0.000000000000000000, 0.000000000000000000, 0.000000000000000000, 0.000000000000000000 ) ;
#127 = DIRECTION ( 'NONE',  ( 0.000000000000000000, 0.000000000000000000, -1.000000000000000000 ) ) ;
#128 = PRESENTATION_STYLE_ASSIGNMENT (( #173 ) ) ;
#129 = VECTOR ( 'NONE', #105, 39.37007874015748143 ) ;
#130 = CARTESIAN_POINT ( 'NONE',  ( 0.000000000000000000, 0.000000000000000000, 0.000000000000000000 ) ) ;
#131 = LENGTH_MEASURE_WITH_UNIT ( LENGTH_MEASURE( 0.02539999999999999897 ), #219 );
#132 = LINE ( 'NONE', #269, #222 ) ;
#133 = STYLED_ITEM ( 'NONE', ( #162 ), #199 ) ;
#134 = EDGE_CURVE ( 'NONE', #15, #68, #295, .T. ) ;
#135 = CIRCLE ( 'NONE', #45, 0.1250000000000000000 ) ;
#136 = LENGTH_MEASURE_WITH_UNIT ( LENGTH_MEASURE( 0.02539999999999999897 ), #270 );
#137 = ADVANCED_FACE ( 'NONE', ( #59 ), #30, .F. ) ;
#138 = ORIENTED_EDGE ( 'NONE', *, *, #148, .T. ) ;
#139 = CLOSED_SHELL ( 'NONE', ( #120, #101, #228, #137 ) ) ;
#140 = AXIS2_PLACEMENT_3D ( 'NONE', #155, #81, #245 ) ;
#141 = ORIENTED_EDGE ( 'NONE', *, *, #134, .T. ) ;
#142 =( LENGTH_UNIT ( ) NAMED_UNIT ( * ) SI_UNIT ( $, .METRE. ) );
#143 = ORIENTED_EDGE ( 'NONE', *, *, #35, .F. ) ;
#144 = VECTOR ( 'NONE', #83, 39.37007874015748143 ) ;
#145 = CARTESIAN_POINT ( 'NONE',  ( 1.516480271171051896E-32, 2.000000000000000000, 0.000000000000000000 ) ) ;
#146 = SURFACE_STYLE_FILL_AREA ( #234 ) ;
#147 = FILL_AREA_STYLE ('',( #191 ) ) ;
#148 = EDGE_CURVE ( 'NONE', #204, #88, #113, .T. ) ;
#149 = ORIENTED_EDGE ( 'NONE', *, *, #148, .F. ) ;
#150 = DIMENSIONAL_EXPONENTS ( 1.000000000000000000, 0.000000000000000000, 0.000000000000000000, 0.000000000000000000, 0.000000000000000000, 0.000000000000000000, 0.000000000000000000 ) ;
#151 = DIRECTION ( 'NONE',  ( -0.000000000000000000, -1.000000000000000000, -0.000000000000000000 ) ) ;
#152 = FILL_AREA_STYLE_COLOUR ( '', #252 ) ;
#153 =( CONVERSION_BASED_UNIT ( 'INCH', #131 ) LENGTH_UNIT ( ) NAMED_UNIT ( #221 ) );
#154 = EDGE_CURVE ( 'NONE', #260, #99, #103, .T. ) ;
#155 = CARTESIAN_POINT ( 'NONE',  ( 0.000000000000000000, 0.000000000000000000, 0.000000000000000000 ) ) ;
#156 = AXIS2_PLACEMENT_3D ( 'NONE', #178, #271, #34 ) ;
#157 = CARTESIAN_POINT ( 'NONE',  ( 1.530808498934191509E-17, 0.000000000000000000, 0.1250000000000000000 ) ) ;
#158 = EDGE_CURVE ( 'NONE', #91, #15, #135, .T. ) ;
#159 = CARTESIAN_POINT ( 'NONE',  ( 0.000000000000000000, 2.000000000000000000, -0.1250000000000000000 ) ) ;
#160 = COLOUR_RGB ( '',0.7921568627450980005, 0.8196078431372548767, 0.9333333333333333481 ) ;
#161 = FACE_OUTER_BOUND ( 'NONE', #180, .T. ) ;
#162 = PRESENTATION_STYLE_ASSIGNMENT (( #60 ) ) ;
#163 = DIRECTION ( 'NONE',  ( -1.000000000000000000, 0.000000000000000000, 0.000000000000000000 ) ) ;
#164 =( LENGTH_UNIT ( ) NAMED_UNIT ( * ) SI_UNIT ( $, .METRE. ) );
#165 = SURFACE_STYLE_FILL_AREA ( #147 ) ;
#166 = DIRECTION ( 'NONE',  ( -6.123233995736763571E-17, 1.000000000000000000, -0.000000000000000000 ) ) ;
#167 = ORIENTED_EDGE ( 'NONE', *, *, #63, .F. ) ;
#168 = PRESENTATION_LAYER_ASSIGNMENT (  '', '', ( #301 ) ) ;
#169 = FACE_OUTER_BOUND ( 'NONE', #266, .T. ) ;
#170 = SURFACE_SIDE_STYLE ('',( #53 ) ) ;
#171 = STYLED_ITEM ( 'NONE', ( #285 ), #304 ) ;
#172 =( NAMED_UNIT ( * ) PLANE_ANGLE_UNIT ( ) SI_UNIT ( $, .RADIAN. ) );
#173 = SURFACE_STYLE_USAGE ( .BOTH. , #170 ) ;
#174 = DIRECTION ( 'NONE',  ( 0.000000000000000000, 0.000000000000000000, 1.000000000000000000 ) ) ;
#175 = EDGE_CURVE ( 'NONE', #262, #68, #217, .T. ) ;
#176 = CARTESIAN_POINT ( 'NONE',  ( 0.000000000000000000, 0.000000000000000000, 0.000000000000000000 ) ) ;
#177 = DIRECTION ( 'NONE',  ( 1.000000000000000000, 0.000000000000000000, 0.000000000000000000 ) ) ;
#178 = CARTESIAN_POINT ( 'NONE',  ( 0.000000000000000000, 2.000000000000000000, 0.000000000000000000 ) ) ;
#179 = CARTESIAN_POINT ( 'NONE',  ( 1.516480271171051896E-32, 2.000000000000000000, 0.000000000000000000 ) ) ;
#180 = EDGE_LOOP ( 'NONE', ( #143, #277, #141, #117 ) ) ;
#181 = DIRECTION ( 'NONE',  ( -1.000000000000000000, 0.000000000000000000, 0.000000000000000000 ) ) ;
#182 = UNCERTAINTY_MEASURE_WITH_UNIT (LENGTH_MEASURE( 1.000000000000000082E-05 ), #115, 'distance_accuracy_value', 'NONE');
#183 = LENGTH_MEASURE_WITH_UNIT ( LENGTH_MEASURE( 0.02539999999999999897 ), #142 );
#184 = SURFACE_STYLE_USAGE ( .BOTH. , #280 ) ;
#185 = CARTESIAN_POINT ( 'NONE',  ( -0.1250000000000000000, 2.000000000000000000, 0.000000000000000000 ) ) ;
#186 = EDGE_LOOP ( 'NONE', ( #18, #305, #209, #167 ) ) ;
#187 = PLANE ( 'NONE',  #76 ) ;
#188 = AXIS2_PLACEMENT_3D ( 'NONE', #309, #49, #96 ) ;
#189 = AXIS2_PLACEMENT_3D ( 'NONE', #7, #106, #200 ) ;
#190 = PRESENTATION_STYLE_ASSIGNMENT (( #116 ) ) ;
#191 = FILL_AREA_STYLE_COLOUR ( '', #206 ) ;
#192 = UNCERTAINTY_MEASURE_WITH_UNIT (LENGTH_MEASURE( 1.000000000000000082E-05 ), #67, 'distance_accuracy_value', 'NONE');
#193 = APPLICATION_CONTEXT ( 'automotive_design' ) ;
#194 = STYLED_ITEM ( 'NONE', ( #122 ), #16 ) ;
#195 =( NAMED_UNIT ( * ) PLANE_ANGLE_UNIT ( ) SI_UNIT ( $, .RADIAN. ) );
#196 = UNCERTAINTY_MEASURE_WITH_UNIT (LENGTH_MEASURE( 1.000000000000000082E-05 ), #153, 'distance_accuracy_value', 'NONE');
#197 = ADVANCED_BREP_SHAPE_REPRESENTATION ( '82854', ( #296, #304, #27 ), #237 ) ;
#198 = CARTESIAN_POINT ( 'NONE',  ( -0.1250000000000002498, 4.000000000000000000, 0.000000000000000000 ) ) ;
#199 = ADVANCED_FACE ( 'NONE', ( #203 ), #255, .T. ) ;
#200 = DIRECTION ( 'NONE',  ( -1.000000000000000000, 0.000000000000000000, 0.000000000000000000 ) ) ;
#201 = PRESENTATION_LAYER_ASSIGNMENT (  '', '', ( #171 ) ) ;
#202 = FACE_OUTER_BOUND ( 'NONE', #300, .T. ) ;
#203 = FACE_OUTER_BOUND ( 'NONE', #186, .T. ) ;
#204 = VERTEX_POINT ( 'NONE', #87 ) ;
#205 = DIRECTION ( 'NONE',  ( -1.000000000000000000, -6.123233995736763571E-17, 0.000000000000000000 ) ) ;
#206 = COLOUR_RGB ( '',1.000000000000000000, 0.000000000000000000, 0.000000000000000000 ) ;
#207 = CIRCLE ( 'NONE', #70, 0.1250000000000000000 ) ;
#208 = DIRECTION ( 'NONE',  ( -6.123233995736763571E-17, 1.000000000000000000, 0.000000000000000000 ) ) ;
#209 = ORIENTED_EDGE ( 'NONE', *, *, #55, .T. ) ;
#210 = CARTESIAN_POINT ( 'NONE',  ( 1.530808498934191509E-17, 2.000000000000000000, 0.1250000000000000000 ) ) ;
#211 = SURFACE_STYLE_USAGE ( .BOTH. , #264 ) ;
#212 = SURFACE_STYLE_FILL_AREA ( #119 ) ;
#213 = MECHANICAL_DESIGN_GEOMETRIC_PRESENTATION_REPRESENTATION (  '', ( #171 ), #50 ) ;
#214 = ORIENTED_EDGE ( 'NONE', *, *, #97, .T. ) ;
#215 = PRODUCT_DEFINITION ( 'UNKNOWN', '', #100, #123 ) ;
#216 = PRODUCT_DEFINITION_SHAPE ( 'NONE', 'NONE',  #215 ) ;
#217 = CIRCLE ( 'NONE', #124, 0.1250000000000001110 ) ;
#218 = LENGTH_MEASURE_WITH_UNIT ( LENGTH_MEASURE( 0.02539999999999999897 ), #164 );
#219 =( LENGTH_UNIT ( ) NAMED_UNIT ( * ) SI_UNIT ( $, .METRE. ) );
#220 =( NAMED_UNIT ( * ) SI_UNIT ( $, .STERADIAN. ) SOLID_ANGLE_UNIT ( ) );
#221 = DIMENSIONAL_EXPONENTS ( 1.000000000000000000, 0.000000000000000000, 0.000000000000000000, 0.000000000000000000, 0.000000000000000000, 0.000000000000000000, 0.000000000000000000 ) ;
#222 = VECTOR ( 'NONE', #56, 39.37007874015748143 ) ;
#223 = CARTESIAN_POINT ( 'NONE',  ( 0.1249999999999999445, 4.000000000000000000, 1.530808498934192125E-17 ) ) ;
#224 = CARTESIAN_POINT ( 'NONE',  ( 0.000000000000000000, 0.000000000000000000, 0.000000000000000000 ) ) ;
#225 = CYLINDRICAL_SURFACE ( 'NONE', #189, 0.1250000000000000555 ) ;
#226 =( NAMED_UNIT ( * ) SI_UNIT ( $, .STERADIAN. ) SOLID_ANGLE_UNIT ( ) );
#227 = ORIENTED_EDGE ( 'NONE', *, *, #241, .T. ) ;
#228 = ADVANCED_FACE ( 'NONE', ( #161 ), #225, .T. ) ;
#229 = DIRECTION ( 'NONE',  ( 6.123233995736763571E-17, -1.000000000000000000, 0.000000000000000000 ) ) ;
#230 =( NAMED_UNIT ( * ) PLANE_ANGLE_UNIT ( ) SI_UNIT ( $, .RADIAN. ) );
#231 = ORIENTED_EDGE ( 'NONE', *, *, #55, .F. ) ;
#232 = MECHANICAL_DESIGN_GEOMETRIC_PRESENTATION_REPRESENTATION (  '', ( #32 ), #23 ) ;
#233 = SURFACE_STYLE_FILL_AREA ( #276 ) ;
#234 = FILL_AREA_STYLE ('',( #283 ) ) ;
#235 =( NAMED_UNIT ( * ) SI_UNIT ( $, .STERADIAN. ) SOLID_ANGLE_UNIT ( ) );
#236 = EDGE_LOOP ( 'NONE', ( #37, #114 ) ) ;
#237 =( GEOMETRIC_REPRESENTATION_CONTEXT ( 3 ) GLOBAL_UNCERTAINTY_ASSIGNED_CONTEXT ( ( #192 ) ) GLOBAL_UNIT_ASSIGNED_CONTEXT ( ( #67, #265, #293 ) ) REPRESENTATION_CONTEXT ( 'NONE', 'WORKASPACE' ) );
#238 = EDGE_LOOP ( 'NONE', ( #214, #65, #149, #231 ) ) ;
#239 = SURFACE_SIDE_STYLE ('',( #165 ) ) ;
#240 = EDGE_LOOP ( 'NONE', ( #138, #40 ) ) ;
#241 = EDGE_CURVE ( 'NONE', #15, #91, #5, .T. ) ;
#242 = DIRECTION ( 'NONE',  ( 0.000000000000000000, -0.000000000000000000, 1.000000000000000000 ) ) ;
#243 = MECHANICAL_DESIGN_GEOMETRIC_PRESENTATION_REPRESENTATION (  '', ( #194 ), #62 ) ;
#244 = AXIS2_PLACEMENT_3D ( 'NONE', #254, #229, #86 ) ;
#245 = DIRECTION ( 'NONE',  ( 0.000000000000000000, 0.000000000000000000, -1.000000000000000000 ) ) ;
#246 = APPLICATION_PROTOCOL_DEFINITION ( 'draft international standard', 'automotive_design', 1998, #193 ) ;
#247 = CARTESIAN_POINT ( 'NONE',  ( 0.1250000000000000000, 2.000000000000000000, 1.530808498934192742E-17 ) ) ;
#248 = PLANE ( 'NONE',  #39 ) ;
#249 = ORIENTED_EDGE ( 'NONE', *, *, #292, .F. ) ;
#250 = VECTOR ( 'NONE', #6, 39.37007874015748143 ) ;
#251 = DIRECTION ( 'NONE',  ( -6.123233995736763571E-17, 1.000000000000000000, -0.000000000000000000 ) ) ;
#252 = COLOUR_RGB ( '',1.000000000000000000, 0.000000000000000000, 0.000000000000000000 ) ;
#253 = DIRECTION ( 'NONE',  ( -0.000000000000000000, -1.000000000000000000, -0.000000000000000000 ) ) ;
#254 = CARTESIAN_POINT ( 'NONE',  ( 0.1250000000000000000, 4.000000000000000000, 0.000000000000000000 ) ) ;
#255 = CYLINDRICAL_SURFACE ( 'NONE', #278, 0.1250000000000000000 ) ;
#256 = COLOUR_RGB ( '',1.000000000000000000, 0.000000000000000000, 0.000000000000000000 ) ;
#257 = AXIS2_PLACEMENT_3D ( 'NONE', #176, #33, #14 ) ;
#258 =( NAMED_UNIT ( * ) PLANE_ANGLE_UNIT ( ) SI_UNIT ( $, .RADIAN. ) );
#259 = DIRECTION ( 'NONE',  ( -6.123233995736763571E-17, 1.000000000000000000, -0.000000000000000000 ) ) ;
#260 = VERTEX_POINT ( 'NONE', #210 ) ;
#261 =( NAMED_UNIT ( * ) SI_UNIT ( $, .STERADIAN. ) SOLID_ANGLE_UNIT ( ) );
#262 = VERTEX_POINT ( 'NONE', #279 ) ;
#263 = AXIS2_PLACEMENT_3D ( 'NONE', #145, #166, #17 ) ;
#264 = SURFACE_SIDE_STYLE ('',( #233 ) ) ;
#265 =( NAMED_UNIT ( * ) PLANE_ANGLE_UNIT ( ) SI_UNIT ( $, .RADIAN. ) );
#266 = EDGE_LOOP ( 'NONE', ( #306, #11 ) ) ;
#267 =( LENGTH_UNIT ( ) NAMED_UNIT ( * ) SI_UNIT ( $, .METRE. ) );
#268 = PRESENTATION_LAYER_ASSIGNMENT (  '', '', ( #93 ) ) ;
#269 = CARTESIAN_POINT ( 'NONE',  ( 1.530808498934191509E-17, 0.000000000000000000, 0.1250000000000000000 ) ) ;
#270 =( LENGTH_UNIT ( ) NAMED_UNIT ( * ) SI_UNIT ( $, .METRE. ) );
#271 = DIRECTION ( 'NONE',  ( -0.000000000000000000, -1.000000000000000000, -0.000000000000000000 ) ) ;
#272 = FILL_AREA_STYLE_COLOUR ( '', #26 ) ;
#273 = AXIS2_PLACEMENT_3D ( 'NONE', #224, #151, #127 ) ;
#274 = SURFACE_STYLE_FILL_AREA ( #299 ) ;
#275 = DIRECTION ( 'NONE',  ( -1.000000000000000000, 0.000000000000000000, 0.000000000000000000 ) ) ;
#276 = FILL_AREA_STYLE ('',( #20 ) ) ;
#277 = ORIENTED_EDGE ( 'NONE', *, *, #158, .T. ) ;
#278 = AXIS2_PLACEMENT_3D ( 'NONE', #12, #253, #38 ) ;
#279 = CARTESIAN_POINT ( 'NONE',  ( 0.1250000000000000000, 4.000000000000000000, 1.530808498934192742E-17 ) ) ;
#280 = SURFACE_SIDE_STYLE ('',( #212 ) ) ;
#281 = LENGTH_MEASURE_WITH_UNIT ( LENGTH_MEASURE( 0.02539999999999999897 ), #95 );
#282 = ORIENTED_EDGE ( 'NONE', *, *, #134, .F. ) ;
#283 = FILL_AREA_STYLE_COLOUR ( '', #308 ) ;
#284 = MECHANICAL_DESIGN_GEOMETRIC_PRESENTATION_REPRESENTATION (  '', ( #133 ), #82 ) ;
#285 = PRESENTATION_STYLE_ASSIGNMENT (( #211 ) ) ;
#286 = FACE_OUTER_BOUND ( 'NONE', #238, .T. ) ;
#287 = LENGTH_MEASURE_WITH_UNIT ( LENGTH_MEASURE( 0.02539999999999999897 ), #267 );
#288 =( NAMED_UNIT ( * ) SI_UNIT ( $, .STERADIAN. ) SOLID_ANGLE_UNIT ( ) );
#289 = MECHANICAL_DESIGN_GEOMETRIC_PRESENTATION_REPRESENTATION (  '', ( #93 ), #118 ) ;
#290 = FILL_AREA_STYLE ('',( #152 ) ) ;
#291 = DIMENSIONAL_EXPONENTS ( 1.000000000000000000, 0.000000000000000000, 0.000000000000000000, 0.000000000000000000, 0.000000000000000000, 0.000000000000000000, 0.000000000000000000 ) ;
#292 = EDGE_CURVE ( 'NONE', #68, #262, #294, .T. ) ;
#293 =( NAMED_UNIT ( * ) SI_UNIT ( $, .STERADIAN. ) SOLID_ANGLE_UNIT ( ) );
#294 = CIRCLE ( 'NONE', #54, 0.1250000000000001110 ) ;
#295 = LINE ( 'NONE', #10, #144 ) ;
#296 = MANIFOLD_SOLID_BREP ( 'Revolve - Cutting Edge', #307 ) ;
#297 = CARTESIAN_POINT ( 'NONE',  ( -1.224646799147352714E-16, 4.000000000000000000, 0.000000000000000000 ) ) ;
#298 = ORIENTED_EDGE ( 'NONE', *, *, #292, .T. ) ;
#299 = FILL_AREA_STYLE ('',( #272 ) ) ;
#300 = EDGE_LOOP ( 'NONE', ( #227, #71, #249, #282 ) ) ;
#301 = STYLED_ITEM ( 'NONE', ( #125 ), #13 ) ;
#302 = FACE_OUTER_BOUND ( 'NONE', #236, .T. ) ;
#303 = AXIS2_PLACEMENT_3D ( 'NONE', #297, #110, #111 ) ;
#304 = MANIFOLD_SOLID_BREP ( 'Revolve - Tool Body (Straight Shanked)', #139 ) ;
#305 = ORIENTED_EDGE ( 'NONE', *, *, #154, .T. ) ;
#306 = ORIENTED_EDGE ( 'NONE', *, *, #97, .F. ) ;
#307 = CLOSED_SHELL ( 'NONE', ( #13, #16, #199, #41 ) ) ;
#308 = COLOUR_RGB ( '',0.7921568627450980005, 0.8196078431372548767, 0.9333333333333333481 ) ;
#309 = CARTESIAN_POINT ( 'NONE',  ( 0.000000000000000000, 0.000000000000000000, 0.000000000000000000 ) ) ;
ENDSEC;
END-ISO-10303-21;
